  0
SECTION
  2
HEADER
  9
$ACADVER
  1
AC1009
  9
$INSBASE
 10
7365.9311858126529842
 20
1938.922015175128081
 30
0.0
  9
$EXTMIN
 10
7339.8229700003403195
 20
1938.8789350986410227
 30
-0.0000000349181948
  9
$EXTMAX
 10
7392.1624937528949886
 20
1981.1391284825549519
 30
0.0000000814935746
  9
$LIMMIN
 10
0.0
 20
0.0
  9
$LIMMAX
 10
11.6929133858000007
 20
8.2677165353999982
  9
$ORTHOMODE
 70
     0
  9
$REGENMODE
 70
     1
  9
$FILLMODE
 70
     1
  9
$QTEXTMODE
 70
     0
  9
$MIRRTEXT
 70
     0
  9
$DRAGMODE
 70
     2
  9
$LTSCALE
 40
0.6431102362
  9
$OSMODE
 70
  4095
  9
$ATTMODE
 70
     1
  9
$TEXTSIZE
 40
0.2
  9
$TRACEWID
 40
0.05
  9
$TEXTSTYLE
  7
STANDARD
  9
$CLAYER
  8
0
  9
$CELTYPE
  6
BYLAYER
  9
$CECOLOR
 62
     1
  9
$DIMSCALE
 40
1.0
  9
$DIMASZ
 40
0.1875
  9
$DIMEXO
 40
0.0625
  9
$DIMDLI
 40
0.4443307087
  9
$DIMRND
 40
0.0
  9
$DIMDLE
 40
0.0
  9
$DIMEXE
 40
0.125
  9
$DIMTP
 40
0.01
  9
$DIMTM
 40
0.01
  9
$DIMTXT
 40
2.0
  9
$DIMCEN
 40
0.1052362205
  9
$DIMTSZ
 40
0.0
  9
$DIMTOL
 70
     1
  9
$DIMLIM
 70
     0
  9
$DIMTIH
 70
     1
  9
$DIMTOH
 70
     1
  9
$DIMSE1
 70
     0
  9
$DIMSE2
 70
     0
  9
$DIMTAD
 70
     0
  9
$DIMZIN
 70
     0
  9
$DIMBLK
  1

  9
$DIMASO
 70
     1
  9
$DIMSHO
 70
     1
  9
$DIMPOST
  1
\X
  9
$DIMAPOST
  1

  9
$DIMALT
 70
     1
  9
$DIMALTD
 70
     2
  9
$DIMALTF
 40
25.3999999999999986
  9
$DIMLFAC
 40
1.0
  9
$DIMTOFL
 70
     0
  9
$DIMTVP
 40
0.0
  9
$DIMTIX
 70
     0
  9
$DIMSOXD
 70
     0
  9
$DIMSAH
 70
     0
  9
$DIMBLK1
  1

  9
$DIMBLK2
  1

  9
$DIMSTYLE
  2
STANDARD
  9
$DIMCLRD
 70
     0
  9
$DIMCLRE
 70
     0
  9
$DIMCLRT
 70
     0
  9
$DIMTFAC
 40
1.0
  9
$DIMGAP
 40
0.09
  9
$LUNITS
 70
     2
  9
$LUPREC
 70
     4
  9
$SKETCHINC
 40
0.1
  9
$FILLETRAD
 40
0.0
  9
$AUNITS
 70
     0
  9
$AUPREC
 70
     0
  9
$MENU
  1
.
  9
$ELEVATION
 40
0.0
  9
$PELEVATION
 40
0.0
  9
$THICKNESS
 40
0.0
  9
$LIMCHECK
 70
     0
  9
$BLIPMODE
 70
     0
  9
$CHAMFERA
 40
0.0
  9
$CHAMFERB
 40
0.0
  9
$SKPOLY
 70
     0
  9
$TDCREATE
 40
2458060.468368056230247
  9
$TDUPDATE
 40
2460055.4182870369404554
  9
$TDINDWG
 40
0.3350880787
  9
$TDUSRTIMER
 40
0.3350880787
  9
$USRTIMER
 70
     1
  9
$ANGBASE
 50
0.0
  9
$ANGDIR
 70
     0
  9
$PDMODE
 70
     0
  9
$PDSIZE
 40
0.3125
  9
$PLINEWID
 40
0.0
  9
$COORDS
 70
     1
  9
$SPLFRAME
 70
     0
  9
$SPLINETYPE
 70
     6
  9
$SPLINESEGS
 70
     8
  9
$ATTDIA
 70
     1
  9
$ATTREQ
 70
     1
  9
$HANDLING
 70
     1
  9
$HANDSEED
  5
C940
  9
$SURFTAB1
 70
     6
  9
$SURFTAB2
 70
     6
  9
$SURFTYPE
 70
     6
  9
$SURFU
 70
     6
  9
$SURFV
 70
     6
  9
$UCSNAME
  2

  9
$UCSORG
 10
0.0
 20
0.0
 30
0.0
  9
$UCSXDIR
 10
1.0
 20
0.0
 30
0.0
  9
$UCSYDIR
 10
0.0
 20
1.0
 30
0.0
  9
$PUCSNAME
  2

  9
$PUCSORG
 10
0.0
 20
0.0
 30
0.0
  9
$PUCSXDIR
 10
1.0
 20
0.0
 30
0.0
  9
$PUCSYDIR
 10
0.0
 20
1.0
 30
0.0
  9
$USERI1
 70
     0
  9
$USERI2
 70
     0
  9
$USERI3
 70
     0
  9
$USERI4
 70
     0
  9
$USERI5
 70
     0
  9
$USERR1
 40
0.0
  9
$USERR2
 40
0.0
  9
$USERR3
 40
0.0
  9
$USERR4
 40
0.0
  9
$USERR5
 40
0.0
  9
$WORLDVIEW
 70
     1
  9
$SHADEDGE
 70
     3
  9
$SHADEDIF
 70
    70
  9
$TILEMODE
 70
     1
  9
$MAXACTVP
 70
    64
  9
$PLIMCHECK
 70
     0
  9
$PEXTMIN
 10
1.0000000000000000E+20
 20
1.0000000000000000E+20
 30
1.0000000000000000E+20
  9
$PEXTMAX
 10
-1.0000000000000000E+20
 20
-1.0000000000000000E+20
 30
-1.0000000000000000E+20
  9
$PLIMMIN
 10
0.0
 20
0.0
  9
$PLIMMAX
 10
12.0
 20
9.0
  9
$UNITMODE
 70
     0
  9
$VISRETAIN
 70
     1
  9
$PLINEGEN
 70
     0
  9
$PSLTSCALE
 70
     1
  0
ENDSEC
  0
SECTION
  2
TABLES
  0
TABLE
  2
VPORT
 70
     1
  0
VPORT
  2
*ACTIVE
 70
     0
 10
0.0
 20
0.0
 11
1.0
 21
1.0
 12
3874.0761059000537898
 22
1783.0570664585670784
 13
0.0
 23
0.0
 14
1.0
 24
1.0
 15
0.0
 25
0.0
 16
0.0
 26
0.0
 36
199.3126279314143119
 17
3491.9166259765629547
 27
176.9519653320311932
 37
0.0
 40
42.5951486815410973
 41
2.5251322751322749
 42
50.0
 43
0.0
 44
0.0
 50
0.0
 51
0.0
 71
     0
 72
   100
 73
     1
 74
     1
 75
     0
 76
     0
 77
     0
 78
     0
  0
ENDTAB
  0
TABLE
  2
LTYPE
 70
     2
  0
LTYPE
  2
CONTINUOUS
 70
     0
  3
Solid line
 72
    65
 73
     0
 40
0.0
  0
LTYPE
  2
PHANTOM2
 70
     0
  3
___ _ _ ___ _ _ ___ _ _ ___ _ _
 72
    65
 73
     6
 40
1.25
 49
0.625
 49
-0.125
 49
0.125
 49
-0.125
 49
0.125
 49
-0.125
  0
ENDTAB
  0
TABLE
  2
LAYER
 70
     2
  0
LAYER
  2
0
 70
     0
 62
   255
  6
CONTINUOUS
  0
LAYER
  2
DEFPOINTS
 70
     0
 62
     7
  6
CONTINUOUS
  0
ENDTAB
  0
TABLE
  2
STYLE
 70
     1
  0
STYLE
  2
STANDARD
 70
     0
 40
0.0
 41
0.8
 50
0.0
 71
     0
 42
0.2
  3
txt
  4

  0
ENDTAB
  0
TABLE
  2
VIEW
 70
     0
  0
ENDTAB
  0
TABLE
  2
UCS
 70
     0
  0
ENDTAB
  0
TABLE
  2
APPID
 70
     9
  0
APPID
  2
ACAD
 70
     0
  0
APPID
  2
ACAD_MLEADERVER
 70
     0
  0
APPID
  2
ACAD_EXEMPT_FROM_CAD_STANDARDS
 70
     0
  0
APPID
  2
ACAD_NAV_VCDISPLAY
 70
     0
  0
APPID
  2
ACAECLAYERSTANDARD
 70
     0
  0
APPID
  2
ACCMTRANSPARENCY
 70
     0
  0
APPID
  2
ACAD_DSTYLE_DIMJAG
 70
     0
  0
APPID
  2
ACAD_DSTYLE_DIMTALN
 70
     0
  0
APPID
  2
ACDBATTR
 70
     0
  0
ENDTAB
  0
TABLE
  2
DIMSTYLE
 70
     1
  0
DIMSTYLE
  2
STANDARD
 70
     0
  3

  4

  5

  6

  7

 40
1.0
 41
0.1875
 42
0.0625
 43
0.38
 44
0.125
 45
0.0
 46
0.0
 47
0.01
 48
0.01
140
0.15625
141
0.09
142
0.0
143
25.3999999999999986
144
1.0
145
0.0
146
1.0
147
0.09
 71
     1
 72
     0
 73
     1
 74
     1
 75
     0
 76
     0
 77
     0
 78
     4
170
     0
171
     2
172
     0
173
     0
174
     0
175
     0
176
     0
177
     0
178
     0
  0
ENDTAB
  0
ENDSEC
  0
SECTION
  2
BLOCKS
  0
BLOCK
  8
0
  2
$MODEL_SPACE
 70
     0
 10
0.0
 20
0.0
 30
0.0
  3
$MODEL_SPACE
  1

  0
ENDBLK
  5
21
  8
0
  0
BLOCK
 67
     1
  8
0
  2
$PAPER_SPACE
 70
     0
 10
0.0
 20
0.0
 30
0.0
  3
$PAPER_SPACE
  1

  0
ENDBLK
  5
1D
 67
     1
  8
0
  0
BLOCK
  8
0
  2
_FILLED
 70
     0
 10
0.0
 20
0.0
 30
0.0
  3
_FILLED
  1

  0
SOLID
  5
BF38
  8
0
  6
BYBLOCK
 62
     0
 10
0.0
 20
0.0
 30
0.0
 11
-1.0
 21
0.1666666667
 31
0.0
 12
-1.0
 22
-0.1666666667
 32
0.0
 13
-1.0
 23
-0.1666666667
 33
0.0
  0
ENDBLK
  5
BF39
  8
0
  6
BYBLOCK
 62
     0
  0
ENDSEC
  0
SECTION
  2
ENTITIES
  0
ATTDEF
  5
3930
  8
DEFPOINTS
 10
7365.9320011741056078
 20
1938.9197861703639774
 30
0.0
 40
0.001
  1
K-23769T-LCP
  3

  2
MODELNUMBER
 70
     0
1001
ACDBATTR
1070
     0
1070
     1
  0
ATTDEF
  5
3931
  8
DEFPOINTS
 10
7365.9320011741056078
 20
1938.9181195036969712
 30
0.0
 40
0.001
  1
BELAY
  3

  2
TRADENAME
 70
     0
1001
ACDBATTR
1070
     0
1070
     1
  0
ATTDEF
  5
3932
  8
DEFPOINTS
 10
7365.9320011741056078
 20
1938.9164528370299649
 30
0.0
 40
0.001
  1
BATH
  3

  2
PRODUCT
 70
     0
1001
ACDBATTR
1070
     0
1070
     1
  0
LINE
  5
C7C3
  8
0
 10
7391.9312223106098827
 20
1978.7842838878880229
 30
0.0
 11
7391.9312223106098827
 21
1978.7515495610380185
 31
0.0
  0
LINE
  5
C7C4
  8
0
 10
7339.9312223106089732
 20
1980.2102960386789618
 30
0.0
 11
7339.9312223106089732
 21
1939.11901517512797
 31
0.0
  0
LINE
  5
C7C5
  8
0
 10
7339.9312223106089732
 20
1939.11901517512797
 30
0.0
 11
7391.871222310612211
 21
1939.11901517512797
 31
0.0
  0
LINE
  5
C7C6
  8
0
 10
7391.6509775989097761
 20
1980.9919688265779314
 30
0.0
 11
7340.211467145178176
 21
1980.9919688265779314
 31
0.0
  0
LINE
  5
C7C7
  8
0
 10
7391.922492147496996
 20
1979.9919688265779314
 30
0.0
 11
7366.1087199746252736
 21
1979.9919688265779314
 31
0.0
  0
LINE
  5
C7C8
  8
0
 10
7365.8926174149128201
 20
1979.9919688265779314
 30
0.0
 11
7348.7271943864479908
 21
1979.9919688265779314
 31
0.0
  0
LINE
  5
C7C9
  8
0
 10
7348.2537246464107739
 20
1979.9919688265779314
 30
0.0
 11
7339.9312223106089732
 21
1979.9919688265779314
 31
0.0
  0
LINE
  5
C7CA
  8
0
 10
7374.2964720572454098
 20
1978.6329497934780193
 30
0.0
 11
7366.3232676782272392
 21
1978.6329497934780193
 31
0.0
  0
LINE
  5
C7CB
  8
0
 10
7391.6781848786058617
 20
1979.0219533022359428
 30
0.0
 11
7366.3322343436793744
 21
1979.0219533022359428
 31
0.0
  0
LINE
  5
C7CC
  8
0
 10
7348.0374219285486106
 20
1979.0219533022359428
 30
0.0
 11
7339.9312223106089732
 21
1979.0219533022359428
 31
0.0
  0
LINE
  5
C7CD
  8
0
 10
7363.1439339473517975
 20
1945.0866543123279371
 30
0.0
 11
7351.0437944769573733
 21
1945.0866543123279371
 31
0.0
  0
LINE
  5
C7CE
  8
0
 10
7374.5246081373097695
 20
1978.4317291095781002
 30
0.0
 11
7374.5246081373097695
 21
1939.11901517512797
 31
0.0
  0
LINE
  5
C7CF
  8
0
 10
7374.5246081373097695
 20
1978.4317291095781002
 30
0.0
 11
7391.6112223106101737
 21
1978.4317291095781002
 31
0.0
  0
LINE
  5
C7D0
  8
0
 10
7391.6112223106101737
 20
1978.4317291095781002
 30
0.0
 11
7391.6112223106101737
 21
1939.11901517512797
 31
0.0
  0
ARC
  5
C7D1
  8
0
 10
7391.6509775989097761
 20
1980.74696882657895
 30
0.0
 40
0.2450000000000543
 50
51.7201801716081206
 51
90.0
  0
ARC
  5
C7D2
  8
0
 10
7391.6509775989097761
 20
1980.74696882657895
 30
0.0
 40
0.2449999999998663
 50
24.7567609882035917
 51
51.7201801716490408
  0
ARC
  5
C7D3
  8
0
 10
7391.6509775973327123
 20
1980.7469688258508995
 30
0.0
 40
0.2450000017366038
 50
2.0017995940958748
 51
24.7567609882035917
  0
LINE
  5
C7D4
  8
0
 10
7391.8958280830102012
 20
1980.755526893078013
 30
0.0
 11
7391.9312223516835729
 21
1979.741968762579063
 31
0.0
  0
ARC
  5
C7D5
  8
0
 10
7391.6733925204625848
 20
1978.7564249363529143
 30
0.0
 40
0.2655716095239811
 50
45.304491209228793
 51
88.9660159811855067
  0
ARC
  5
C7D6
  8
0
 10
7391.6934056986638097
 20
1978.7766519680999409
 30
0.0
 40
0.2371170823784586
 50
7.2343218663632971
 51
45.304491209228793
  0
ARC
  5
C7D7
  8
0
 10
7390.8605495705942303
 20
1978.6709308651459196
 30
0.0
 40
1.0766564094362301
 50
6.0434398525773387
 51
7.2343218663632971
  0
ARC
  5
C7D8
  8
0
 10
7391.681425990538628
 20
1978.7705733686079839
 30
0.0
 40
0.2497879113645921
 50
326.5669845671591816
 51
349.6667241566889857
  0
ARC
  5
C7D9
  8
0
 10
7391.8426094858641591
 20
1978.7522926412250399
 30
0.0
 40
0.0886159403131619
 50
342.5831628588521767
 51
359.5195462870480014
  0
LINE
  5
C7DA
  8
0
 10
7391.8712223106113015
 20
1978.5793326956579676
 30
0.0
 11
7391.871222310612211
 21
1939.11901517512797
 31
0.0
  0
ARC
  5
C7DB
  8
0
 10
7391.9962223106113015
 20
1978.567168755477951
 30
0.0
 40
0.1249999999999152
 50
148.2476834617125974
 51
167.1194380909379902
  0
ARC
  5
C7DC
  8
0
 10
7392.1624674591203075
 20
1978.5291528876271059
 30
0.0
 40
0.2955363762122063
 50
167.1194380909379902
 51
170.2242554631486087
  0
LINE
  5
C7DD
  8
0
 10
7374.5117716667482455
 20
1978.5543250623779841
 30
0.0
 11
7391.7634828298569118
 21
1978.5543250623779841
 31
0.0
  0
ARC
  5
C7DE
  8
0
 10
7374.2005399955796747
 20
1978.0361652976250753
 30
0.0
 40
0.6044457750254008
 50
59.008889521511307
 51
80.8679266719355354
  0
ARC
  5
C7DF
  8
0
 10
7391.7298172147520745
 20
1978.7540324424548999
 30
0.0
 40
0.2025250880690336
 50
279.5686577404259765
 51
309.2090634764215906
  0
ARC
  5
C7E0
  8
0
 10
7391.7594537514960393
 20
1978.7177061921179302
 30
0.0
 40
0.1556431003375077
 50
309.2090634764215906
 51
326.3992281882477755
  0
LINE
  5
C7E1
  8
0
 10
7390.4932223106097808
 20
1979.9919688265779314
 30
0.0
 11
7390.4932223106097808
 21
1979.2051120363780683
 31
0.0
  0
ARC
  5
C7E2
  8
0
 10
7390.6468977837121201
 20
1979.2051120363780683
 30
0.0
 40
0.1536754731025454
 50
180.0
 51
192.2924920953568062
  0
ARC
  5
C7E3
  8
0
 10
7390.6110670652706176
 20
1979.197304594589923
 30
0.0
 40
0.1170040055648467
 50
192.2924920953568062
 51
232.7048362255978873
  0
ARC
  5
C7E4
  8
0
 10
7390.6241067997898426
 20
1979.2144246904649663
 30
0.0
 40
0.1385245157604725
 50
232.7048362255978873
 51
262.1296306255266018
  0
LINE
  5
C7E5
  8
0
 10
7390.6051383214899033
 20
1979.0772050187790683
 30
0.0
 11
7391.6699094167870498
 21
1979.0219533022359428
 31
0.0
  0
LINE
  5
C7E6
  8
0
 10
7390.4932223106097808
 20
1979.741968762579063
 30
0.0
 11
7391.9312223516835729
 21
1979.741968762579063
 31
0.0
  0
LINE
  5
C7E7
  8
0
 10
7391.1654742791097306
 20
1938.922015175128081
 30
0.0
 11
7391.1654742791097306
 21
1939.11901517512797
 31
0.0
  0
LINE
  5
C7E8
  8
0
 10
7389.1969703421091253
 20
1938.922015175128081
 30
0.0
 11
7389.1969703421091253
 21
1939.11901517512797
 31
0.0
  0
LINE
  5
C7E9
  8
0
 10
7368.1636824779097878
 20
1979.9919688265779314
 30
0.0
 11
7368.1636824779097878
 21
1979.1654065410789372
 31
0.0
  0
ARC
  5
C7EA
  8
0
 10
7368.288052702634559
 20
1979.1654065410789372
 30
0.0
 40
0.1243702247249914
 50
180.0
 51
230.5732146056865872
  0
ARC
  5
C7EB
  8
0
 10
7368.3880628583146972
 20
1979.287044914434091
 30
0.0
 40
0.2818437942901721
 50
230.5732146056865872
 51
250.1461816857724898
  0
ARC
  5
C7EC
  8
0
 10
7366.3850099730261718
 20
1980.7286141864481124
 30
0.0
 40
0.2640008289325523
 50
94.0096209904774867
 51
114.2531654957628007
  0
ARC
  5
C7ED
  8
0
 10
7366.3775320451823063
 20
1980.7452121218739194
 30
0.0
 40
0.2457961354376828
 50
114.2531654957628007
 51
139.4524375779402874
  0
ARC
  5
C7EE
  8
0
 10
7366.390129745048398
 20
1980.7344345709409481
 30
0.0
 40
0.2623749667005316
 50
139.4524375779402874
 51
166.3906777522732909
  0
ARC
  5
C7EF
  8
0
 10
7366.7139241641943954
 20
1980.6560446886110185
 30
0.0
 40
0.5955232813020562
 50
166.3906777522732909
 51
181.7497797235450037
  0
ARC
  5
C7F0
  8
0
 10
7370.4509173856276902
 20
1980.4538549269959731
 30
0.0
 40
4.3361447429981217
 50
177.5679054201885947
 51
179.3401060534876024
  0
ARC
  5
C7F1
  8
0
 10
302153.0687194218044169
 20
-1671.5765118418489692
 30
0.0
 40
294809.5753839833778329
 50
179.2902057523072017
 51
179.2903052341318073
  0
LINE
  5
C7F2
  8
0
 10
7366.1259421352096979
 20
1979.9919688265779314
 30
0.0
 11
7366.0092750003414039
 21
1948.0488945508559482
 31
0.0
  0
ARC
  5
C7F3
  8
0
 10
7363.1720671263110489
 20
1948.0592570134929247
 30
0.0
 40
2.8372267976130532
 50
344.9935588547859879
 51
359.7907369636565136
  0
ARC
  5
C7F4
  8
0
 10
7362.9554206249840718
 20
1948.1173333732031097
 30
0.0
 40
3.0615225177994252
 50
311.8496409939161254
 51
344.9935588547859879
  0
ARC
  5
C7F5
  8
0
 10
7363.0603275103030683
 20
1948.0002057966469238
 30
0.0
 40
2.9042828161434349
 50
286.2077739265329797
 51
311.8496409939161254
  0
ARC
  5
C7F6
  8
0
 10
7362.9581400677816418
 20
1948.3517592350131054
 30
0.0
 40
3.2703867541663629
 50
273.2567829137984177
 51
286.2077739265329797
  0
ARC
  5
C7F7
  8
0
 10
7366.3297315072650235
 20
1978.8822995618870664
 30
0.0
 40
0.2494335344162499
 50
223.5781068304478083
 51
268.515069004511588
  0
ARC
  5
C7F8
  8
0
 10
7366.3618530256690065
 20
1978.8317208707539976
 30
0.0
 40
0.2449942345925212
 50
191.2071376889099952
 51
209.6951533695560101
  0
ARC
  5
C7F9
  8
0
 10
7366.3339827668096405
 20
1978.8215607567778989
 30
0.0
 40
0.200400172800014
 50
90.1932401822552237
 51
138.5197935162260023
  0
ARC
  5
C7FA
  8
0
 10
7366.3339827668096405
 20
1978.8215607567778989
 30
0.0
 40
0.2004001727999592
 50
138.5197935162260023
 51
160.9784171715207037
  0
ARC
  5
C7FB
  8
0
 10
7366.5904488925161786
 20
1978.7331443111529552
 30
0.0
 40
0.4716792569400775
 50
160.9784171715207037
 51
173.7976456149646083
  0
LINE
  5
C7FC
  8
0
 10
7375.1654742791106401
 20
1939.11901517512797
 30
0.0
 11
7375.1654742791106401
 21
1938.922015175128081
 31
0.0
  0
LINE
  5
C7FD
  8
0
 10
7373.1969703421100348
 20
1938.922015175128081
 30
0.0
 11
7373.1969703421100348
 21
1939.11901517512797
 31
0.0
  0
ARC
  5
C7FE
  8
0
 10
7453.1068204768398573
 20
2644.2611249825158666
 30
0.0
 40
669.0816143578033461
 50
262.4422433084675959
 51
262.4731156742258804
  0
ARC
  5
C7FF
  8
0
 10
7365.3845549971510991
 20
1980.3123917830719165
 30
0.0
 40
0.6370908446313549
 50
61.4809952956297323
 51
82.9368200808540337
  0
ARC
  5
C800
  8
0
 10
7365.6475685378545677
 20
1980.6252544396829762
 30
0.0
 40
0.2503258049125437
 50
47.1476885531700489
 51
80.5359883755621127
  0
ARC
  5
C801
  8
0
 10
7365.6474280430429644
 20
1980.6251029966770147
 30
0.0
 40
0.2505323812332837
 50
0.0071788396868812
 51
47.1476885531700489
  0
LINE
  5
C802
  8
0
 10
7365.8979604223095521
 20
1980.6251343869789707
 30
0.0
 11
7365.8811480296262744
 21
1978.6328054898031041
 31
0.0
  0
LINE
  5
C803
  8
0
 10
7365.8811480296262744
 20
1978.6328054898031041
 30
0.0
 11
7365.5199069810096262
 21
1947.7755656265780999
 31
0.0
  0
ARC
  5
C804
  8
0
 10
7362.998103691867982
 20
1947.8050879969719063
 30
0.0
 40
2.5219760901888759
 50
340.7817203161333168
 51
359.329277598865815
  0
ARC
  5
C805
  8
0
 10
7363.0245425747807531
 20
1947.7958715447850864
 30
0.0
 40
2.4939768487593792
 50
309.9846000585167189
 51
340.7817203161333168
  0
ARC
  5
C806
  8
0
 10
7363.0417492623782891
 20
1947.7753542161219684
 30
0.0
 40
2.4671994165909692
 50
276.8771548774128064
 51
309.9846000585167189
  0
ARC
  5
C807
  8
0
 10
7363.0270110874071179
 20
1947.8975524347449664
 30
0.0
 40
2.5902832028354328
 50
270.2351190664617206
 51
276.8771548774128064
  0
LINE
  5
C808
  8
0
 10
7363.0376405485021678
 20
1945.3072910414780381
 30
0.0
 11
7351.1283781510937843
 21
1945.3072910414780381
 31
0.0
  0
LINE
  5
C809
  8
0
 10
7342.4154742791106401
 20
1938.922015175128081
 30
0.0
 11
7342.4154742791106401
 21
1939.11901517512797
 31
0.0
  0
LINE
  5
C80A
  8
0
 10
7340.4469703421100348
 20
1938.922015175128081
 30
0.0
 11
7340.4469703421100348
 21
1939.11901517512797
 31
0.0
  0
ARC
  5
C80B
  8
0
 10
7340.2114670223099893
 20
1980.74696882657895
 30
0.0
 40
0.2450000000000045
 50
90.0
 51
144.2115309809466908
  0
ARC
  5
C80C
  8
0
 10
7340.2114670223099893
 20
1980.74696882657895
 30
0.0
 40
0.2449999999999562
 50
144.2115309809466908
 51
170.9437498517879135
  0
ARC
  5
C80D
  8
0
 10
7340.3266485460590047
 20
1980.7286099311750149
 30
0.0
 40
0.3616354682487569
 50
170.9437498517879135
 51
182.0056012402708063
  0
LINE
  5
C80E
  8
0
 10
7339.9652346119137292
 20
1980.7159537034249297
 30
0.0
 11
7339.9399548674100515
 21
1979.9919688265779314
 31
0.0
  0
LINE
  5
C80F
  8
0
 10
7339.943233946413784
 20
1980.0859370718781065
 30
0.0
 11
7339.9312223106089732
 21
1980.0859370718781065
 31
0.0
  0
LINE
  5
C810
  8
0
 10
7339.9475766572113571
 20
1980.2102960386789618
 30
0.0
 11
7339.9312223106089732
 21
1980.2102960386789618
 31
0.0
  0
ARC
  5
C811
  8
0
 10
7349.314013324626103
 20
1979.1995031882640887
 30
0.0
 40
1.794626308617894
 50
92.8118260450351755
 51
111.6485041685796062
  0
ARC
  5
C812
  8
0
 10
7348.7149446497069221
 20
1980.6251343847829958
 30
0.0
 40
0.2504604524946301
 50
104.5660223853973037
 51
139.9623339414407042
  0
ARC
  5
C813
  8
0
 10
7348.7149446497132885
 20
1980.6251343847779935
 30
0.0
 40
0.2504604525027628
 50
139.9623339414407042
 51
179.9999999997654925
  0
LINE
  5
C814
  8
0
 10
7348.4644841972103677
 20
1980.6251343847779935
 30
0.0
 11
7348.7312334588114027
 21
1947.7745939346780233
 31
0.0
  0
ARC
  5
C815
  8
0
 10
7351.3414952138418812
 20
1947.7957894884259531
 30
0.0
 40
2.6103478084885681
 50
180.4652365157255076
 51
199.386735691794712
  0
ARC
  5
C816
  8
0
 10
7350.9885446482030602
 20
1947.6715878094389609
 30
0.0
 40
2.2361818575415682
 50
199.386735691794712
 51
218.9215262221765954
  0
ARC
  5
C817
  8
0
 10
7351.2641188475590752
 20
1947.8941191523570069
 30
0.0
 40
2.590387077621108
 50
218.9215262221765954
 51
266.996227764130424
  0
ARC
  5
C818
  8
0
 10
7348.7557403644832448
 20
1980.2455039985120493
 30
0.0
 40
0.2551371322824624
 50
214.0675321482356992
 51
263.5760200517394765
  0
ARC
  5
C819
  8
0
 10
7348.6697778656252922
 20
1980.2629824335149351
 30
0.0
 40
0.2035919945020978
 50
186.80665080435449
 51
231.9843862192163897
  0
ARC
  5
C81A
  8
0
 10
7347.9433001596244139
 20
1980.7001923673019519
 30
0.0
 40
0.3044464581463969
 50
30.6112416117268609
 51
73.4122213228602334
  0
ARC
  5
C81B
  8
0
 10
7347.8425696699696346
 20
1980.6883501788120157
 30
0.0
 40
0.3992905383892467
 50
358.4738739381135133
 51
24.7030148378082011
  0
LINE
  5
C81C
  8
0
 10
7348.2417185739086563
 20
1980.6777159636969827
 30
0.0
 11
7348.2537231133110254
 21
1979.9919688265779314
 31
0.0
  0
LINE
  5
C81D
  8
0
 10
7348.236502158310941
 20
1979.9919998509778907
 30
0.0
 11
7348.3531123391103392
 21
1948.0488939540780393
 31
0.0
  0
ARC
  5
C81E
  8
0
 10
7351.2506620909016419
 20
1948.0594716293219335
 30
0.0
 40
2.8975690589402578
 50
180.2091606730525086
 51
204.2665655569379908
  0
ARC
  5
C81F
  8
0
 10
7351.4238133906446819
 20
1948.1375308310689434
 30
0.0
 40
3.0875022355569821
 50
204.2665655569379908
 51
228.9071562738726016
  0
ARC
  5
C820
  8
0
 10
7351.3747360563556867
 20
1948.0812582398471022
 30
0.0
 40
3.0128350455485089
 50
228.9071562738726016
 51
263.6936822956532751
  0
ARC
  5
C821
  8
0
 10
7350.0042064856015713
 20
1999.4862189415800913
 30
0.0
 40
20.5585604956064287
 50
264.5102645466527065
 51
264.5529360405004127
  0
ARC
  5
C822
  8
0
 10
7348.0391522225390872
 20
1978.8788032317709167
 30
0.0
 40
0.1423336999024975
 50
74.2901397050150649
 51
84.5529360405004127
  0
ARC
  5
C823
  8
0
 10
7348.0149658035461471
 20
1978.7928141146639973
 30
0.0
 40
0.2316595703132568
 50
55.4113751886538708
 51
74.2901397050150649
  0
ARC
  5
C824
  8
0
 10
7348.0501721880700643
 20
1978.8438703576289299
 30
0.0
 40
0.1696415934278841
 50
36.1485243386504465
 51
55.4113751886538708
  0
ARC
  5
C825
  8
0
 10
7348.0049595901664361
 20
1978.810842075670962
 30
0.0
 40
0.2256330786573128
 50
12.8841034661968994
 51
36.1485243386504465
  0
ARC
  5
C826
  8
0
 10
7348.5235007930414213
 20
1978.929452460524999
 30
0.0
 40
0.3063005661459194
 50
192.8841034661969047
 51
202.6440442804371003
  0
ARC
  5
C827
  8
0
 10
7347.9700973477365551
 20
1979.1117143232629587
 30
0.0
 40
0.4859789490242504
 50
279.8848098840451257
 51
291.2366188992252773
  0
ARC
  5
C828
  8
0
 10
7348.0587104107717096
 20
1978.8377524917300434
 30
0.0
 40
0.1992197937287476
 50
296.0275856480710104
 51
336.2147082947117269
  0
LINE
  5
C829
  8
0
 10
7346.1987621433090681
 20
1979.9919688265779314
 30
0.0
 11
7346.1987573477072146
 21
1979.1654065563930089
 31
0.0
  0
ARC
  5
C82A
  8
0
 10
7346.0744912694372033
 20
1979.1654072773681037
 30
0.0
 40
0.1242660782728098
 50
314.8218889353727832
 51
359.999667577610694
  0
ARC
  5
C82B
  8
0
 10
7346.0022634449460384
 20
1979.2380855619919657
 30
0.0
 40
0.226730665747982
 50
287.5877061582373813
 51
314.8218889353727832
  0
LINE
  5
C82C
  8
0
 10
7365.5930455590450947
 20
1978.743635285497021
 30
0.0
 11
7348.7693990621683042
 21
1978.743635285497021
 31
0.0
  0
ARC
  5
C82D
  8
0
 10
7348.7327788649654394
 20
1978.6083276035799372
 30
0.0
 40
0.1401756313665413
 50
74.8560450449200658
 51
107.8086760482585049
  0
ARC
  5
C82E
  8
0
 10
7348.9949508981726467
 20
1977.9200471658389233
 30
0.0
 40
0.8765311484877598
 50
110.3657624896660963
 51
116.753206805441593
  0
ARC
  5
C82F
  8
0
 10
7348.7954604049546106
 20
1978.437790958307005
 30
0.0
 40
0.3290264433961052
 50
126.3628213279278043
 51
162.6246739423910128
  0
ARC
  5
C830
  8
0
 10
7348.7449882842283841
 20
1978.6380498083929069
 30
0.0
 40
0.2825915114710351
 50
201.1586227399122038
 51
275.2965107183820805
  0
LINE
  5
C831
  8
0
 10
7348.771074292009871
 20
1978.3566648717780936
 30
0.0
 11
7365.5913703235100911
 21
1978.3566648717780936
 31
0.0
  0
ARC
  5
C832
  8
0
 10
7365.5876783341445844
 20
1978.7650966097969558
 30
0.0
 40
0.4084484244137973
 50
270.5179069782730039
 51
294.3096682112990266
  0
ARC
  5
C833
  8
0
 10
7365.6009946986368959
 20
1978.735617395718009
 30
0.0
 40
0.3761010964568004
 50
294.3096682112990266
 51
317.7499269540799105
  0
ARC
  5
C834
  8
0
 10
7365.5693108875293547
 20
1978.4299984538279205
 30
0.0
 40
0.3145336179344421
 50
9.6529005628747893
 51
85.6723531843217785
  0
LINE
  5
C835
  8
0
 10
7348.0535243527174316
 20
1978.6329497947779146
 30
0.0
 11
7339.9312223106089732
 21
1978.6329497947779146
 31
0.0
  0
LINE
  5
C83A
  8
0
 10
7391.1654742791097306
 20
1938.922015175128081
 30
0.0
 11
7389.1969703421091253
 21
1938.922015175128081
 31
0.0
  0
LINE
  5
C83B
  8
0
 10
7375.1654742791106401
 20
1938.922015175128081
 30
0.0
 11
7373.1969703421100348
 21
1938.922015175128081
 31
0.0
  0
LINE
  5
C83C
  8
0
 10
7342.4154742791106401
 20
1938.922015175128081
 30
0.0
 11
7340.4469703421100348
 21
1938.922015175128081
 31
0.0
  0
ENDSEC
  0
EOF
