  0
SECTION
  2
HEADER
  9
$ACADVER
  1
AC1009
  9
$INSBASE
 10
3840.3532836247909472
 20
42.2266366983661783
 30
0.0
  9
$EXTMIN
 10
3751.3880749672571255
 20
0.9208070150160949
 30
0.0
  9
$EXTMAX
 10
3865.5500946484421547
 20
69.3899517199842109
 30
0.0
  9
$LIMMIN
 10
0.0
 20
0.0
  9
$LIMMAX
 10
11.6929133858000007
 20
8.2677165353999982
  9
$ORTHOMODE
 70
     0
  9
$REGENMODE
 70
     1
  9
$FILLMODE
 70
     1
  9
$QTEXTMODE
 70
     0
  9
$MIRRTEXT
 70
     0
  9
$DRAGMODE
 70
     2
  9
$LTSCALE
 40
0.6431102362
  9
$OSMODE
 70
  2039
  9
$ATTMODE
 70
     1
  9
$TEXTSIZE
 40
0.2
  9
$TRACEWID
 40
0.05
  9
$TEXTSTYLE
  7
STANDARD
  9
$CLAYER
  8
0
  9
$CELTYPE
  6
BYLAYER
  9
$CECOLOR
 62
   256
  9
$DIMSCALE
 40
1.0
  9
$DIMASZ
 40
0.1875
  9
$DIMEXO
 40
0.0625
  9
$DIMDLI
 40
0.4443307087
  9
$DIMRND
 40
0.0
  9
$DIMDLE
 40
0.0
  9
$DIMEXE
 40
0.125
  9
$DIMTP
 40
0.01
  9
$DIMTM
 40
0.01
  9
$DIMTXT
 40
2.0
  9
$DIMCEN
 40
0.1052362205
  9
$DIMTSZ
 40
0.0
  9
$DIMTOL
 70
     1
  9
$DIMLIM
 70
     0
  9
$DIMTIH
 70
     1
  9
$DIMTOH
 70
     1
  9
$DIMSE1
 70
     0
  9
$DIMSE2
 70
     0
  9
$DIMTAD
 70
     0
  9
$DIMZIN
 70
     0
  9
$DIMBLK
  1

  9
$DIMASO
 70
     1
  9
$DIMSHO
 70
     1
  9
$DIMPOST
  1
\X
  9
$DIMAPOST
  1

  9
$DIMALT
 70
     1
  9
$DIMALTD
 70
     2
  9
$DIMALTF
 40
25.3999999999999986
  9
$DIMLFAC
 40
1.0
  9
$DIMTOFL
 70
     0
  9
$DIMTVP
 40
0.0
  9
$DIMTIX
 70
     0
  9
$DIMSOXD
 70
     0
  9
$DIMSAH
 70
     0
  9
$DIMBLK1
  1

  9
$DIMBLK2
  1

  9
$DIMSTYLE
  2
STANDARD
  9
$DIMCLRD
 70
     0
  9
$DIMCLRE
 70
     0
  9
$DIMCLRT
 70
     0
  9
$DIMTFAC
 40
1.0
  9
$DIMGAP
 40
0.09
  9
$LUNITS
 70
     2
  9
$LUPREC
 70
     4
  9
$SKETCHINC
 40
0.1
  9
$FILLETRAD
 40
0.0
  9
$AUNITS
 70
     0
  9
$AUPREC
 70
     0
  9
$MENU
  1
.
  9
$ELEVATION
 40
0.0
  9
$PELEVATION
 40
0.0
  9
$THICKNESS
 40
0.0
  9
$LIMCHECK
 70
     0
  9
$BLIPMODE
 70
     0
  9
$CHAMFERA
 40
0.0
  9
$CHAMFERB
 40
0.0
  9
$SKPOLY
 70
     0
  9
$TDCREATE
 40
2458060.468368056230247
  9
$TDUPDATE
 40
2459961.663912036921829
  9
$TDINDWG
 40
0.4744515046
  9
$TDUSRTIMER
 40
0.4744515046
  9
$USRTIMER
 70
     1
  9
$ANGBASE
 50
0.0
  9
$ANGDIR
 70
     0
  9
$PDMODE
 70
     0
  9
$PDSIZE
 40
0.3125
  9
$PLINEWID
 40
0.0
  9
$COORDS
 70
     1
  9
$SPLFRAME
 70
     0
  9
$SPLINETYPE
 70
     6
  9
$SPLINESEGS
 70
     8
  9
$ATTDIA
 70
     1
  9
$ATTREQ
 70
     1
  9
$HANDLING
 70
     1
  9
$HANDSEED
  5
E9F6
  9
$SURFTAB1
 70
     6
  9
$SURFTAB2
 70
     6
  9
$SURFTYPE
 70
     6
  9
$SURFU
 70
     6
  9
$SURFV
 70
     6
  9
$UCSNAME
  2

  9
$UCSORG
 10
0.0
 20
0.0
 30
0.0
  9
$UCSXDIR
 10
1.0
 20
0.0
 30
0.0
  9
$UCSYDIR
 10
0.0
 20
1.0
 30
0.0
  9
$PUCSNAME
  2

  9
$PUCSORG
 10
0.0
 20
0.0
 30
0.0
  9
$PUCSXDIR
 10
1.0
 20
0.0
 30
0.0
  9
$PUCSYDIR
 10
0.0
 20
1.0
 30
0.0
  9
$USERI1
 70
     0
  9
$USERI2
 70
     0
  9
$USERI3
 70
     0
  9
$USERI4
 70
     0
  9
$USERI5
 70
     0
  9
$USERR1
 40
0.0
  9
$USERR2
 40
0.0
  9
$USERR3
 40
0.0
  9
$USERR4
 40
0.0
  9
$USERR5
 40
0.0
  9
$WORLDVIEW
 70
     1
  9
$SHADEDGE
 70
     3
  9
$SHADEDIF
 70
    70
  9
$TILEMODE
 70
     1
  9
$MAXACTVP
 70
    64
  9
$PLIMCHECK
 70
     0
  9
$PEXTMIN
 10
1.0000000000000000E+20
 20
1.0000000000000000E+20
 30
1.0000000000000000E+20
  9
$PEXTMAX
 10
-1.0000000000000000E+20
 20
-1.0000000000000000E+20
 30
-1.0000000000000000E+20
  9
$PLIMMIN
 10
0.0
 20
0.0
  9
$PLIMMAX
 10
12.0
 20
9.0
  9
$UNITMODE
 70
     0
  9
$VISRETAIN
 70
     1
  9
$PLINEGEN
 70
     0
  9
$PSLTSCALE
 70
     1
  0
ENDSEC
  0
SECTION
  2
TABLES
  0
TABLE
  2
VPORT
 70
     1
  0
VPORT
  2
*ACTIVE
 70
     0
 10
0.0
 20
0.0
 11
1.0
 21
1.0
 12
-3.9910434838835722
 22
-39.0437722320396929
 13
0.0
 23
0.0
 14
1.0
 24
1.0
 15
0.0
 25
0.0
 16
0.0
 26
0.0
 36
327.1425206445442768
 17
3829.3277587890629547
 27
90.8930435180664063
 37
0.0
 40
276.9343519728320757
 41
2.5410052910052912
 42
50.0
 43
0.0
 44
0.0
 50
0.0
 51
0.0
 71
     0
 72
   100
 73
     1
 74
     1
 75
     0
 76
     0
 77
     0
 78
     1
  0
ENDTAB
  0
TABLE
  2
LTYPE
 70
     2
  0
LTYPE
  2
CONTINUOUS
 70
     0
  3
Solid line
 72
    65
 73
     0
 40
0.0
  0
LTYPE
  2
PHANTOM2
 70
     0
  3
___ _ _ ___ _ _ ___ _ _ ___ _ _
 72
    65
 73
     6
 40
1.25
 49
0.625
 49
-0.125
 49
0.125
 49
-0.125
 49
0.125
 49
-0.125
  0
ENDTAB
  0
TABLE
  2
LAYER
 70
     2
  0
LAYER
  2
0
 70
     0
 62
   255
  6
CONTINUOUS
  0
LAYER
  2
DEFPOINTS
 70
     0
 62
     7
  6
CONTINUOUS
  0
ENDTAB
  0
TABLE
  2
STYLE
 70
     1
  0
STYLE
  2
STANDARD
 70
     0
 40
0.0
 41
0.8
 50
0.0
 71
     0
 42
0.2
  3
txt
  4

  0
ENDTAB
  0
TABLE
  2
VIEW
 70
     0
  0
ENDTAB
  0
TABLE
  2
UCS
 70
     0
  0
ENDTAB
  0
TABLE
  2
APPID
 70
     9
  0
APPID
  2
ACAD
 70
     0
  0
APPID
  2
ACAD_MLEADERVER
 70
     0
  0
APPID
  2
ACAD_EXEMPT_FROM_CAD_STANDARDS
 70
     0
  0
APPID
  2
ACAD_NAV_VCDISPLAY
 70
     0
  0
APPID
  2
ACAECLAYERSTANDARD
 70
     0
  0
APPID
  2
ACCMTRANSPARENCY
 70
     0
  0
APPID
  2
ACAD_DSTYLE_DIMJAG
 70
     0
  0
APPID
  2
ACAD_DSTYLE_DIMTALN
 70
     0
  0
APPID
  2
ACDBATTR
 70
     0
  0
ENDTAB
  0
TABLE
  2
DIMSTYLE
 70
     1
  0
DIMSTYLE
  2
STANDARD
 70
     0
  3

  4

  5

  6

  7

 40
1.0
 41
0.1875
 42
0.0625
 43
0.38
 44
0.125
 45
0.0
 46
0.0
 47
0.01
 48
0.01
140
0.15625
141
0.09
142
0.0
143
25.3999999999999986
144
1.0
145
0.0
146
1.0
147
0.09
 71
     1
 72
     0
 73
     1
 74
     1
 75
     0
 76
     0
 77
     0
 78
     4
170
     0
171
     2
172
     0
173
     0
174
     0
175
     0
176
     0
177
     0
178
     0
  0
ENDTAB
  0
ENDSEC
  0
SECTION
  2
BLOCKS
  0
BLOCK
  8
0
  2
$MODEL_SPACE
 70
     0
 10
0.0
 20
0.0
 30
0.0
  3
$MODEL_SPACE
  1

  0
ENDBLK
  5
21
  8
0
  0
BLOCK
 67
     1
  8
0
  2
$PAPER_SPACE
 70
     0
 10
0.0
 20
0.0
 30
0.0
  3
$PAPER_SPACE
  1

  0
ENDBLK
  5
1D
 67
     1
  8
0
  0
BLOCK
  8
0
  2
_FILLED
 70
     0
 10
0.0
 20
0.0
 30
0.0
  3
_FILLED
  1

  0
SOLID
  5
E1B1
  8
0
  6
BYBLOCK
 62
     0
 10
0.0
 20
0.0
 30
0.0
 11
-1.0
 21
0.1666666667
 31
0.0
 12
-1.0
 22
-0.1666666667
 32
0.0
 13
-1.0
 23
-0.1666666667
 33
0.0
  0
ENDBLK
  5
E1B2
  8
0
  6
BYBLOCK
 62
     0
  0
BLOCK
  8
0
  2
A$CA8C2EC16
 70
     0
 10
0.0
 20
0.0
 30
0.0
  3
A$CA8C2EC16
  1

  0
LINE
  5
E1B4
  8
0
 10
0.3503939372499998
 20
-0.3937007874
 30
0.0
 11
-0.3503934643500006
 21
-0.3937007874
 31
0.0
  0
ARC
  5
E1B5
  8
0
 10
-0.3503934643500006
 20
-0.3779527559000005
 30
0.0
 40
0.0157480314999995
 50
179.9999999999980105
 51
270.0
  0
LINE
  5
E1B6
  8
0
 10
-0.3661414958500009
 20
-0.3779527559
 30
0.0
 11
-0.3661414958499991
 21
-0.3364392603149515
 31
0.0
  0
LINE
  5
E1B7
  8
0
 10
-0.3661414958499991
 20
-0.3364392603149515
 30
0.0
 11
-0.4051374534500001
 21
-0.30748977468231
 31
0.0
  0
LINE
  5
E1B8
  8
0
 10
-0.4051374534500001
 20
-0.30748977468231
 30
0.0
 11
-0.3661414958500009
 21
-0.2707959122711616
 31
0.0
  0
LINE
  5
E1B9
  8
0
 10
-0.3661414958500009
 20
-0.2707959122711616
 30
0.0
 11
-0.4051374534500001
 21
-0.2361305120626194
 31
0.0
  0
LINE
  5
E1BA
  8
0
 10
-0.4051374534500001
 20
-0.2361305120626194
 30
0.0
 11
-0.36614149585
 21
-0.1994511867107926
 31
0.0
  0
LINE
  5
E1BB
  8
0
 10
-0.36614149585
 20
-0.1994511867107926
 30
0.0
 11
-0.4051374534500001
 21
-0.1637684713126684
 31
0.0
  0
LINE
  5
E1BC
  8
0
 10
-0.4051374534500001
 20
-0.1637684713126684
 30
0.0
 11
-0.36614149585
 21
-0.1372303863238813
 31
0.0
  0
LINE
  5
E1BD
  8
0
 10
-0.36614149585
 20
-0.1372303863238813
 30
0.0
 11
-0.36614149585
 21
-0.1220838862338269
 31
0.0
  0
LINE
  5
E1BE
  8
0
 10
-0.36614149585
 20
-0.1220838862338269
 30
0.0
 11
-0.4051374534500001
 21
-0.0948694122586036
 31
0.0
  0
LINE
  5
E1BF
  8
0
 10
-0.4051374534500001
 20
-0.0948694122586036
 30
0.0
 11
-0.36614149585
 21
-0.065805302880498
 31
0.0
  0
LINE
  5
E1C0
  8
0
 10
-0.36614149585
 20
-0.065805302880498
 30
0.0
 11
-0.36614149575
 21
-0.0196850393999995
 31
0.0
  0
ARC
  5
E1C1
  8
0
 10
-0.3856904774336014
 20
-0.0195489816836032
 30
0.0
 40
0.0195494551475988
 50
359.6012371805633734
 51
90.398762819440762
  0
LINE
  5
E1C2
  8
0
 10
-0.5199574298499999
 20
0.0
 30
0.0
 11
0.5199574298499999
 21
0.0
 31
0.0
  0
ARC
  5
E1C3
  8
0
 10
-0.5191052229956368
 20
0.0126862579653386
 30
0.0
 40
0.0127110337891903
 50
185.0679380283930016
 51
266.4220702142102937
  0
LINE
  5
E1C4
  8
0
 10
-0.5317665649499999
 20
0.0115634044999999
 30
0.0
 11
-0.6072482851920898
 21
3.3247261172027049
 31
0.0
  0
ARC
  5
E1C5
  8
0
 10
-1.8377500897688841
 20
3.3080583736620071
 30
0.0
 40
1.230614685733165
 50
0.7760516515211985
 51
24.5143623298523501
  0
ARC
  5
E1C6
  8
0
 10
-1.8355657889697621
 20
3.3090544782165932
 30
0.0
 40
1.2282139786988291
 50
24.5143623298523607
 51
46.7136142349034387
  0
ARC
  5
E1C7
  8
0
 10
17.5496497361473409
 20
23.8899411314289907
 30
0.0
 40
27.044732036663941
 50
225.5598986315125956
 51
226.7136142349033889
  0
ARC
  5
E1C8
  8
0
 10
-7.8911817662507042
 20
-2.0530327339860359
 30
0.0
 40
9.2908400727031566
 50
45.5598986315126027
 51
48.5886608921091323
  0
ARC
  5
E1C9
  8
0
 10
-0.0659898747339591
 20
6.66782082155515
 30
0.0
 40
2.4277513444778851
 50
212.0951274616857063
 51
226.2222803541847895
  0
ARC
  5
E1CA
  8
0
 10
-0.1214197634040435
 20
6.6284535372277329
 30
0.0
 40
2.359879304536689
 50
193.8600233818264087
 51
212.0004559241151867
  0
ARC
  5
E1CB
  8
0
 10
0.1323034680748618
 20
6.656559959260929
 30
0.0
 40
2.6131626373891872
 50
170.3297368523921875
 51
193.1256739940384932
  0
ARC
  5
E1CC
  8
0
 10
-0.1249978371718852
 20
6.7463299777439572
 30
0.0
 40
2.344875113733027
 50
144.272172614659496
 51
171.4360409461172878
  0
ARC
  5
E1CD
  8
0
 10
-0.0423260263149699
 20
6.6827327974368256
 30
0.0
 40
2.4491270414492798
 50
113.114622259820905
 51
144.1937270086683043
  0
ARC
  5
E1CE
  8
0
 10
-0.0051421573597361
 20
6.6165670476573943
 30
0.0
 40
2.524591828750566
 50
93.9749366884059611
 51
113.3012665244898045
  0
ARC
  5
E1CF
  8
0
 10
0.0267491735504537
 20
5.8642109823349617
 30
0.0
 40
3.2774118974933728
 50
90.4676306383340574
 51
93.6193714724299184
  0
ARC
  5
E1D0
  8
0
 10
0.0017688711964938
 20
3.8072365250228959
 30
0.0
 40
0.5432810964024167
 50
255.0416601210347096
 51
269.8134750387243912
  0
ARC
  5
E1D1
  8
0
 10
0.0014559483518308
 20
3.8060652752384252
 30
0.0
 40
0.5420687652742435
 50
240.2894286513844975
 51
255.0416601210347096
  0
ARC
  5
E1D2
  8
0
 10
0.0437693786212607
 20
3.8802168226215792
 30
0.0
 40
0.6274436934468759
 50
217.0524464674138869
 51
240.2894286513842985
  0
ARC
  5
E1D3
  8
0
 10
0.0729545940544334
 20
3.9022513739105831
 30
0.0
 40
0.6640127821747677
 50
205.3290572037726918
 51
217.0524464674138017
  0
ARC
  5
E1D4
  8
0
 10
0.0380353326389376
 20
3.8857234433958872
 30
0.0
 40
0.6253795412428662
 50
197.3913053040982106
 51
205.3290572037726918
  0
ARC
  5
E1D5
  8
0
 10
-1.7655622367692221
 20
3.320810788987786
 30
0.0
 40
1.2646179453918189
 50
17.391305304098239
 51
34.8779810549592071
  0
ARC
  5
E1D6
  8
0
 10
-1.9464039912223821
 20
3.1947571258953791
 30
0.0
 40
1.4850567489920721
 50
34.8779810549592071
 51
42.1191377293088323
  0
ARC
  5
E1D7
  8
0
 10
-2.2741814780100098
 20
2.8983885101886719
 30
0.0
 40
1.926953159048461
 50
42.1191377293088323
 51
47.0630527113740129
  0
ARC
  5
E1D8
  8
0
 10
-16.9672905883511014
 20
-11.9256298245546493
 30
0.0
 40
22.798040242399221
 50
45.4069784890842101
 51
46.1882021244547971
  0
ARC
  5
E1D9
  8
0
 10
-15.0432608901037206
 20
-9.8830986748351002
 30
0.0
 40
19.9921400945133989
 50
46.1147955520426081
 51
47.3719553283325681
  0
ARC
  5
E1DA
  8
0
 10
0.6983094395299992
 20
7.3556899541868503
 30
0.0
 40
3.353609490614414
 50
221.8578058566554034
 51
228.9546229782102955
  0
ARC
  5
E1DB
  8
0
 10
-0.0766926597580238
 20
6.6356408904511062
 30
0.0
 40
2.2959879351777039
 50
202.3124727014601945
 51
221.3799638761126971
  0
ARC
  5
E1DC
  8
0
 10
-0.1338341184031391
 20
6.6076857771402437
 30
0.0
 40
2.2325153440239411
 50
184.4529946340001914
 51
202.2055080957476036
  0
ARC
  5
E1DD
  8
0
 10
-0.2421914026813585
 20
6.6130437049467226
 30
0.0
 40
2.1249456642767841
 50
166.5788953632471134
 51
184.8238720088301079
  0
ARC
  5
E1DE
  8
0
 10
-0.0489978017289232
 20
6.5669432897008413
 30
0.0
 40
2.3235634271652321
 50
148.4404690298599974
 51
166.5788953632469998
  0
ARC
  5
E1DF
  8
0
 10
-0.1225201715712334
 20
6.6121030000119001
 30
0.0
 40
2.2372793712649202
 50
127.8199840330893977
 51
148.4404690298599974
  0
ARC
  5
E1E0
  8
0
 10
-0.0142354014389339
 20
6.495872126581907
 30
0.0
 40
2.3955357541301519
 50
105.5450640554319932
 51
128.1612406378719129
  0
ARC
  5
E1E1
  8
0
 10
-0.0003706218194024
 20
6.4529553724446638
 30
0.0
 40
2.4405990261082509
 50
89.9912936891734176
 51
105.5886375648863975
  0
ARC
  5
E1E2
  8
0
 10
-0.001020305616108
 20
3.7855626293486622
 30
0.0
 40
0.5501428024039413
 50
255.7400646016342876
 51
270.106286561387094
  0
ARC
  5
E1E3
  8
0
 10
0.0106044241733203
 20
3.8313018665054628
 30
0.0
 40
0.5973361510704992
 50
241.331235552091897
 51
255.7400646016340886
  0
ARC
  5
E1E4
  8
0
 10
0.027769740632837
 20
3.8626955770111362
 30
0.0
 40
0.633116217426913
 50
222.8549524990449981
 51
241.331235552091897
  0
ARC
  5
E1E5
  8
0
 10
0.0870878499024297
 20
3.917730519253618
 30
0.0
 40
0.7140327358576555
 50
205.2638224602669084
 51
222.8549524990449129
  0
ARC
  5
E1E6
  8
0
 10
-0.0008964445251554
 20
3.8762084816799121
 30
0.0
 40
0.6167428819663469
 50
196.0672923921626989
 51
205.2638224602667947
  0
ARC
  5
E1E7
  8
0
 10
-1.820771783589002
 20
3.2958365316110578
 30
0.0
 40
1.293798816091859
 50
18.460311816712359
 51
27.6302853307413585
  0
ARC
  5
E1E8
  8
0
 10
-1.967605681054436
 20
3.2008753799830871
 30
0.0
 40
1.468014747353499
 50
28.2561468578259714
 51
38.1738963705370935
  0
ARC
  5
E1E9
  8
0
 10
-2.8172251477925738
 20
2.4105488340136931
 30
0.0
 40
2.6261574392925038
 50
40.2731640129525417
 51
47.1642141208707812
  0
ARC
  5
E1EA
  8
0
 10
-16.9437863972031195
 20
-11.8899961368809599
 30
0.0
 40
22.7263700296703917
 50
45.5601966195886234
 51
47.1073022589343324
  0
ARC
  5
E1EB
  8
0
 10
1.027280782049286
 20
7.6574733567979907
 30
0.0
 40
3.828790775818316
 50
220.8620320354424109
 51
229.1789645280564116
  0
ARC
  5
E1EC
  8
0
 10
-0.0878402186653862
 20
6.6288150328614801
 30
0.0
 40
2.3129564045683688
 50
200.4910056751367051
 51
219.6628827507061885
  0
ARC
  5
E1ED
  8
0
 10
-0.1422095933173013
 20
6.6063485089633378
 30
0.0
 40
2.2541633943946882
 50
185.4936797280927863
 51
200.4398539216558959
  0
ARC
  5
E1EE
  8
0
 10
-0.1588588679183678
 20
6.6050701502240994
 30
0.0
 40
2.2374682320260382
 50
169.7507217732209028
 51
185.5019111599316943
  0
ARC
  5
E1EF
  8
0
 10
-0.1352964013077962
 20
6.6001903194916718
 30
0.0
 40
2.261523066937535
 50
155.5390089649409049
 51
169.7352809215188927
  0
ARC
  5
E1F0
  8
0
 10
-0.1059955335728038
 20
6.5868612294857751
 30
0.0
 40
2.2937132127963031
 50
143.9488821455657899
 51
155.5390089649409049
  0
ARC
  5
E1F1
  8
0
 10
-0.0654520744749094
 20
6.5573493806804048
 30
0.0
 40
2.3438602096708281
 50
133.1191324945309873
 51
143.9488821455657899
  0
ARC
  5
E1F2
  8
0
 10
-0.0412376809605553
 20
6.5314906287434953
 30
0.0
 40
2.3792863568647111
 50
123.8305457990675933
 51
133.119132494530902
  0
ARC
  5
E1F3
  8
0
 10
-0.0168900930987261
 20
6.4951625472011898
 30
0.0
 40
2.4230188910153161
 50
112.2789026784880946
 51
123.8305457990675933
  0
ARC
  5
E1F4
  8
0
 10
-0.0025733682102516
 20
6.4602181198742841
 30
0.0
 40
2.4607823867848779
 50
94.0738133477228047
 51
112.2789026784880946
  0
ARC
  5
E1F5
  8
0
 10
0.0011143461171033
 20
6.4084400252157501
 30
0.0
 40
2.5126916376312178
 50
90.0254045434675021
 51
94.0738133477226484
  0
ARC
  5
E1F6
  8
0
 10
-0.221063824514748
 20
8.4622918774581031
 30
0.0
 40
0.0637483000328943
 50
117.0340413784493023
 51
191.4234601164500873
  0
ARC
  5
E1F7
  8
0
 10
-0.2210494104865024
 20
8.4622636298369631
 30
0.0
 40
0.0637800126851089
 50
67.8952660812976774
 51
117.0340413784493023
  0
ARC
  5
E1F8
  8
0
 10
-0.2213614524301262
 20
8.4614953453065702
 30
0.0
 40
0.0646092480523099
 50
34.3536874904328613
 51
67.8952660812969242
  0
ARC
  5
E1F9
  8
0
 10
-0.2209600168326515
 20
8.4617697376492185
 30
0.0
 40
0.0641229953437082
 50
349.2901311011729035
 51
34.3536874904335505
  0
ARC
  5
E1FA
  8
0
 10
-0.221210050085582
 20
8.4618170265288075
 30
0.0
 40
0.0643774611875917
 50
265.271705776358715
 51
349.2901311011730741
  0
ARC
  5
E1FB
  8
0
 10
-0.2213067979419714
 20
8.4606473331415568
 30
0.0
 40
0.0632037735085675
 50
190.0056530347833927
 51
265.2717057763586013
  0
ARC
  5
E1FC
  8
0
 10
-0.2208872211921653
 20
8.4575259836320917
 30
0.0
 40
0.0237071320215189
 50
30.4503310051313392
 51
166.9436028036780897
  0
ARC
  5
E1FD
  8
0
 10
-0.2211265923292478
 20
8.4573852626218144
 30
0.0
 40
0.0239848025889224
 50
301.279089474200191
 51
30.4503310051322416
  0
ARC
  5
E1FE
  8
0
 10
-0.2207983160161238
 20
8.4573942472539301
 30
0.0
 40
0.0238237453220368
 50
166.6832713344971069
 51
300.5931091950226914
  0
ARC
  5
E1FF
  8
0
 10
-0.6522312469249814
 20
8.3674411047394344
 30
0.0
 40
0.0632208722195704
 50
97.7867003429767436
 51
196.2950334922259117
  0
ARC
  5
E200
  8
0
 10
-0.6520605429626301
 20
8.3661927804665321
 30
0.0
 40
0.0644808140170655
 50
31.3633870665916703
 51
97.7867003429768147
  0
ARC
  5
E201
  8
0
 10
-0.6523842619440475
 20
8.3659954653822375
 30
0.0
 40
0.0648599277485769
 50
332.7194480075449974
 51
31.3633870665918693
  0
ARC
  5
E202
  8
0
 10
-0.6507694755122513
 20
8.3651627059597153
 30
0.0
 40
0.0630430558554279
 50
248.4399386246342942
 51
332.7194480075444858
  0
ARC
  5
E203
  8
0
 10
-0.6498706291236404
 20
8.3674375643977861
 30
0.0
 40
0.0654890537588585
 50
195.7125660847424911
 51
248.4399386246348058
  0
ARC
  5
E204
  8
0
 10
-0.6515832708531626
 20
8.3622280123632962
 30
0.0
 40
0.0236489724367828
 50
63.9773632459954484
 51
203.0473456415423072
  0
ARC
  5
E205
  8
0
 10
-0.6516968504367764
 20
8.3619953730289822
 30
0.0
 40
0.0239078573179289
 50
305.4590701182302155
 51
63.9773632459957327
  0
ARC
  5
E206
  8
0
 10
-0.6514826933502889
 20
8.361694681739678
 30
0.0
 40
0.0235386981257682
 50
201.7568264493191066
 51
305.4590701182306134
  0
ARC
  5
E207
  8
0
 10
-1.050547334608587
 20
8.181671704164998
 30
0.0
 40
0.0631008668033895
 50
100.3254361967974972
 51
174.2687636849944113
  0
ARC
  5
E208
  8
0
 10
-1.05029448160992
 20
8.1802838465989591
 30
0.0
 40
0.0645115699126733
 50
39.1172286948246679
 51
100.3254361967973978
  0
ARC
  5
E209
  8
0
 10
-1.0510843379744721
 20
8.1796415532783673
 30
0.0
 40
0.0655296140110812
 50
341.789674081994292
 51
39.1172286948244192
  0
ARC
  5
E20A
  8
0
 10
-1.04802907203623
 20
8.1786364227675996
 30
0.0
 40
0.0623132593513683
 50
244.3601504819482102
 51
341.7896740819938941
  0
ARC
  5
E20B
  8
0
 10
-1.045640979483224
 20
8.1836118729715235
 30
0.0
 40
0.0678321442725683
 50
176.3136624156853998
 51
244.3601504819478976
  0
ARC
  5
E20C
  8
0
 10
-1.0496974375474211
 20
8.1767596169937047
 30
0.0
 40
0.0234600827701005
 50
38.8733420049765499
 51
170.0237576122796952
  0
ARC
  5
E20D
  8
0
 10
-1.0496974375474211
 20
8.1767596169937047
 30
0.0
 40
0.0234600827701007
 50
170.0237576122796952
 51
38.8733420049762302
  0
ARC
  5
E20E
  8
0
 10
-1.3967303793358741
 20
7.9156131419121749
 30
0.0
 40
0.0620357894019371
 50
112.2948334055460009
 51
200.2184561099925872
  0
ARC
  5
E20F
  8
0
 10
-1.395969751268149
 20
7.913758062587962
 30
0.0
 40
0.0640407518346359
 50
53.8397015439084967
 51
112.2948334055462993
  0
ARC
  5
E210
  8
0
 10
-1.3975195511419569
 20
7.9116374479876876
 30
0.0
 40
0.0666673248741215
 50
353.1060959269655086
 51
53.8397015439083617
  0
ARC
  5
E211
  8
0
 10
-1.3942731063931471
 20
7.913721469278066
 30
0.0
 40
0.0637419334243045
 50
197.8588406636168031
 51
350.8955573095710179
  0
ARC
  5
E212
  8
0
 10
-1.394877613692421
 20
7.9100504335230362
 30
0.0
 40
0.0235837696735932
 50
69.1778333756622743
 51
177.5140094706590048
  0
ARC
  5
E213
  8
0
 10
-1.3950551953655419
 20
7.9095834907393829
 30
0.0
 40
0.0240833403030659
 50
325.8228186686054073
 51
69.1778333756619475
  0
ARC
  5
E214
  8
0
 10
-1.394615952056327
 20
7.9098188392504873
 30
0.0
 40
0.0238562451524729
 50
176.9855616623237893
 51
324.76251970174701
  0
ARC
  5
E215
  8
0
 10
-1.6730550978809919
 20
7.5817849818671501
 30
0.0
 40
0.0610096579977862
 50
100.5657099491271964
 51
191.0556141054522072
  0
ARC
  5
E216
  8
0
 10
-1.6720946402576971
 20
7.5766357804038602
 30
0.0
 40
0.0662476685510113
 50
47.2313994559845085
 51
100.565709949126898
  0
ARC
  5
E217
  8
0
 10
-1.671241064763318
 20
7.5775585719867919
 30
0.0
 40
0.0649906341719531
 50
346.583911827549116
 51
47.2313994559846506
  0
ARC
  5
E218
  8
0
 10
-1.6696356228046869
 20
7.5801198012868056
 30
0.0
 40
0.0640872817600768
 50
189.007854075940287
 51
344.0227152821948948
  0
ARC
  5
E219
  8
0
 10
-1.670878283223499
 20
7.5757238529931854
 30
0.0
 40
0.0229654003088803
 50
113.6841937369889024
 51
199.7825856612475093
  0
ARC
  5
E21A
  8
0
 10
-1.6706774575366961
 20
7.5752660161782943
 30
0.0
 40
0.0234653458114598
 50
29.4446952779746312
 51
113.6841937369889024
  0
ARC
  5
E21B
  8
0
 10
-1.671806340591242
 20
7.5746287625423001
 30
0.0
 40
0.024761674916057
 50
320.0062865941752079
 51
29.4446952779741196
  0
ARC
  5
E21C
  8
0
 10
-1.669841296957074
 20
7.5754424746376241
 30
0.0
 40
0.0238539028390833
 50
198.3034414431679977
 51
315.4706706202243822
  0
ARC
  5
E21D
  8
0
 10
-1.8654582671644631
 20
7.1967842907226753
 30
0.0
 40
0.0602095868288692
 50
98.0294732934066815
 51
183.9749169166105105
  0
ARC
  5
E21E
  8
0
 10
-1.8644183894225299
 20
7.1894126924870001
 30
0.0
 40
0.0676541691721812
 50
41.0095745035696027
 51
98.0294732934066246
  0
ARC
  5
E21F
  8
0
 10
-1.8611159698567461
 20
7.192284411030454
 30
0.0
 40
0.0632777845477117
 50
335.9229050715823064
 51
41.0095745035695884
  0
ARC
  5
E220
  8
0
 10
-1.860389486825953
 20
7.1945002609565138
 30
0.0
 40
0.0635608321933047
 50
223.1257488995350968
 51
333.8316182927717932
  0
ARC
  5
E221
  8
0
 10
-1.860130356363672
 20
7.197095055354036
 30
0.0
 40
0.065546250264566
 50
183.9230703398532967
 51
224.6265194061338946
  0
ARC
  5
E222
  8
0
 10
-1.8630765512098519
 20
7.190703867277775
 30
0.0
 40
0.0223753961060033
 50
79.7589790017293296
 51
185.9587327345109884
  0
ARC
  5
E223
  8
0
 10
-1.8635635378736031
 20
7.188008383429354
 30
0.0
 40
0.0251145180798768
 50
5.4025327450284726
 51
79.7589790017287044
  0
ARC
  5
E224
  8
0
 10
-1.8619584758849601
 20
7.1896742209045641
 30
0.0
 40
0.0234083238904585
 50
183.166913603341186
 51
1.7105679842275121
  0
ARC
  5
E225
  8
0
 10
-1.9636815698009009
 20
6.7786336559700313
 30
0.0
 40
0.0607842216037486
 50
103.7444838003485046
 51
172.8967850016879026
  0
ARC
  5
E226
  8
0
 10
-1.962391441564993
 20
6.7733591375826272
 30
0.0
 40
0.0662142285175697
 50
61.441739005131339
 51
103.744483800348803
  0
ARC
  5
E227
  8
0
 10
-1.962492051277404
 20
6.7731742860377624
 30
0.0
 40
0.066424686132947
 50
0.4319632304327248
 51
61.4417390051309908
  0
ARC
  5
E228
  8
0
 10
-1.953460660341616
 20
6.7732423766153413
 30
0.0
 40
0.0573930385223623
 50
300.3407843861426159
 51
0.4319632304331446
  0
ARC
  5
E229
  8
0
 10
-1.9579423827023339
 20
6.7808994077406659
 30
0.0
 40
0.0662652401078063
 50
175.4552957824969894
 51
300.3407843861427864
  0
ARC
  5
E22A
  8
0
 10
-1.961420183012611
 20
6.7735374147365599
 30
0.0
 40
0.0223273071202395
 50
59.9384368336932525
 51
168.3618333750829095
  0
ARC
  5
E22B
  8
0
 10
-1.963343667359621
 20
6.7702140937478861
 30
0.0
 40
0.0261671319114165
 50
351.1395117027479955
 51
59.9384368336921369
  0
ARC
  5
E22C
  8
0
 10
-1.960040418472955
 20
6.7734574956672899
 30
0.0
 40
0.0236956719027244
 50
168.8455919354641992
 51
342.1231757061510166
  0
ARC
  5
E22D
  8
0
 10
-1.9654567068958111
 20
6.3517583602304688
 30
0.0
 40
0.0585922767874526
 50
126.4342298610286974
 51
194.6820443593450136
  0
ARC
  5
E22E
  8
0
 10
-1.9628169517399101
 20
6.3481823582183692
 30
0.0
 40
0.0630370599850516
 50
74.3816683361274755
 51
126.4342298610288964
  0
ARC
  5
E22F
  8
0
 10
-1.964885128610687
 20
6.3407841205662718
 30
0.0
 40
0.0707189396980979
 50
29.565728041325869
 51
74.3816683361278024
  0
ARC
  5
E230
  8
0
 10
-1.9543725170284489
 20
6.3467478004491733
 30
0.0
 40
0.0586325638961995
 50
312.271254177991807
 51
29.5657280413255883
  0
ARC
  5
E231
  8
0
 10
-1.958157784323503
 20
6.353295923683504
 30
0.0
 40
0.0660435675016809
 50
194.367480217902596
 51
310.8799573038925246
  0
ARC
  5
E232
  8
0
 10
-1.962149188965967
 20
6.345720685676552
 30
0.0
 40
0.0215884760328774
 50
88.8926058483830701
 51
186.6961927693766938
  0
ARC
  5
E233
  8
0
 10
-1.9622222117502319
 20
6.3419430096339973
 30
0.0
 40
0.0253668577776895
 50
8.3869894196792512
 51
88.8926058483833259
  0
ARC
  5
E234
  8
0
 10
-1.960379047577103
 20
6.344814156622248
 30
0.0
 40
0.02326717403468
 50
183.9697699835122933
 51
2.041418709897469
  0
ARC
  5
E235
  8
0
 10
-1.867763615403099
 20
5.9341685972189548
 30
0.0
 40
0.0580271938429836
 50
110.786453175103901
 51
179.7688066786978993
  0
ARC
  5
E236
  8
0
 10
-1.864301959188633
 20
5.9250492283403666
 30
0.0
 40
0.0677814725190769
 50
48.716365572451771
 51
110.7864531751038015
  0
ARC
  5
E237
  8
0
 10
-1.86164474869087
 20
5.9280756105315771
 30
0.0
 40
0.0637540965996104
 50
358.0807849403377077
 51
48.7163655724514868
  0
ARC
  5
E238
  8
0
 10
-1.855032551432527
 20
5.9278540413856424
 30
0.0
 40
0.0571381880853051
 50
283.649123644702911
 51
358.0807849403374803
  0
ARC
  5
E239
  8
0
 10
-1.857753535516331
 20
5.9385377121407661
 30
0.0
 40
0.0681623379895584
 50
183.4779020432926018
 51
283.7525634704613253
  0
ARC
  5
E23A
  8
0
 10
-1.8643896372001989
 20
5.9282625945370384
 30
0.0
 40
0.0211153471601287
 50
86.1132103312106238
 51
184.589472673068002
  0
ARC
  5
E23B
  8
0
 10
-1.8647771352350739
 20
5.9225591898505439
 30
0.0
 40
0.0268319002951003
 50
25.8948075676216014
 51
86.1132103312120449
  0
ARC
  5
E23C
  8
0
 10
-1.859153442953658
 20
5.9252892783172637
 30
0.0
 40
0.0205805566065658
 50
307.7695721141485024
 51
25.89480756762201
  0
ARC
  5
E23D
  8
0
 10
-1.860930149600758
 20
5.9290135668878374
 30
0.0
 40
0.0246283504438537
 50
185.6870283217753865
 51
305.7297405312941123
  0
ARC
  5
E23E
  8
0
 10
-1.0529333701407839
 20
4.9301062481770561
 30
0.0
 40
0.0206589294142362
 50
94.7993684799749161
 51
189.2572861758143858
  0
ARC
  5
E23F
  8
0
 10
-1.0514315506934111
 20
4.9252745302462166
 30
0.0
 40
0.0256226518615193
 50
16.2247010120260704
 51
97.2426401119568453
  0
ARC
  5
E240
  8
0
 10
-1.0451892874402531
 20
4.9270909940076741
 30
0.0
 40
0.0191214680371367
 50
304.4955832355697112
 51
16.2247010120256085
  0
ARC
  5
E241
  8
0
 10
-1.048655461986179
 20
4.9321351422280024
 30
0.0
 40
0.0252417455840675
 50
192.2419203932093126
 51
304.4955832355707912
  0
ARC
  5
E242
  8
0
 10
-1.060369650998636
 20
4.9368104973626616
 30
0.0
 40
0.0535106836115924
 50
134.1390502968723126
 51
195.3455534289608124
  0
ARC
  5
E243
  8
0
 10
-1.051275980164222
 20
4.927439345705336
 30
0.0
 40
0.0665687589915738
 50
83.5691275163394067
 51
134.139050296871801
  0
ARC
  5
E244
  8
0
 10
-1.0513617507149231
 20
4.926678385693509
 30
0.0
 40
0.0673345375019586
 50
37.3971821523277015
 51
83.5691275163391936
  0
ARC
  5
E245
  8
0
 10
-1.0448078994980881
 20
4.931688672591525
 30
0.0
 40
0.0590849350525772
 50
345.3326406582669961
 51
37.397182152327872
  0
ARC
  5
E246
  8
0
 10
-1.043497155635281
 20
4.931345603363356
 30
0.0
 40
0.057730038019883
 50
276.5267294966621989
 51
345.3326406582672234
  0
ARC
  5
E247
  8
0
 10
-1.044927886116775
 20
4.9438510915319389
 30
0.0
 40
0.0703171037639411
 50
197.5486131328206909
 51
276.5267294966624263
  0
ARC
  5
E248
  8
0
 10
-1.3982727131723951
 20
5.2033679005162581
 30
0.0
 40
0.0203544008133307
 50
97.6903245490503878
 51
187.4027846851030006
  0
ARC
  5
E249
  8
0
 10
-1.39735064282191
 20
5.1965394368122038
 30
0.0
 40
0.0272448384111069
 50
46.6624793528563586
 51
97.6903245490504446
  0
ARC
  5
E24A
  8
0
 10
-1.393286151265426
 20
5.2008469154616934
 30
0.0
 40
0.0213224686211889
 50
312.6491843188247231
 51
46.6624793528562165
  0
ARC
  5
E24B
  8
0
 10
-1.3948689204603599
 20
5.2025652012579302
 30
0.0
 40
0.0236586330850006
 50
184.4115900192242066
 51
312.6491843188276221
  0
ARC
  5
E24C
  8
0
 10
-1.397853578629499
 20
5.2050301081178061
 30
0.0
 40
0.0625845417717215
 50
74.3437193809854335
 51
145.2401017161093932
  0
ARC
  5
E24D
  8
0
 10
-1.400241318621674
 20
5.196510503047115
 30
0.0
 40
0.0714324213386455
 50
21.913290770046121
 51
74.3437193809852772
  0
ARC
  5
E24E
  8
0
 10
-1.3818908405882011
 20
5.2038922929915516
 30
0.0
 40
0.0516528645478387
 50
323.5036919780637277
 51
21.9132907700459185
  0
ARC
  5
E24F
  8
0
 10
-1.3934805939678081
 20
5.212467103695146
 30
0.0
 40
0.0660698601434058
 50
218.8301682007468116
 51
323.5036919780637845
  0
ARC
  5
E250
  8
0
 10
-1.3978762479861491
 20
5.2089290948663747
 30
0.0
 40
0.0604272294872827
 50
148.2664643501994135
 51
218.8301682007466127
  0
ARC
  5
E251
  8
0
 10
-1.673436766552111
 20
5.5413333959364506
 30
0.0
 40
0.0204988116628824
 50
100.5867618493095961
 51
185.9479998605688991
  0
ARC
  5
E252
  8
0
 10
-1.67242379793672
 20
5.5359137208264988
 30
0.0
 40
0.0260123390014572
 50
33.624315913060002
 51
100.586761849310804
  0
ARC
  5
E253
  8
0
 10
-1.6686228350480421
 20
5.5384414003525091
 30
0.0
 40
0.0214476393763642
 50
330.1630289956875117
 51
33.6243159130589291
  0
ARC
  5
E254
  8
0
 10
-1.6696524631446801
 20
5.5421803947069179
 30
0.0
 40
0.0243546756359726
 50
187.007387050301503
 51
323.7244262317531138
  0
ARC
  5
E255
  8
0
 10
-1.673649883679865
 20
5.5434062899791101
 30
0.0
 40
0.0621266659846145
 50
86.8364477051148782
 51
140.9556926625427877
  0
ARC
  5
E256
  8
0
 10
-1.6723549852460631
 20
5.5385356131996639
 30
0.0
 40
0.0669366804425642
 50
20.3001279430879293
 51
88.1733542220595723
  0
ARC
  5
E257
  8
0
 10
-1.664810577596185
 20
5.542363051339203
 30
0.0
 40
0.0585410615125893
 50
336.1537016192820033
 51
19.3484971124590999
  0
ARC
  5
E258
  8
0
 10
-1.668757704845506
 20
5.5469035815027343
 30
0.0
 40
0.0640379778922069
 50
294.8253022051280254
 51
333.8651642717064192
  0
ARC
  5
E259
  8
0
 10
-1.6678164668941859
 20
5.5507894236490039
 30
0.0
 40
0.0672155354145542
 50
205.6262334194800019
 51
292.7059256450074827
  0
ARC
  5
E25A
  8
0
 10
-1.6789576495533429
 20
5.5471777580842261
 30
0.0
 40
0.0556301568182138
 50
140.5289540714097996
 51
207.2353605393601015
  0
ARC
  5
E25B
  8
0
 10
-0.2694730036695319
 20
5.0488786770620786
 30
0.0
 40
0.022203803553354
 50
109.7152877143687988
 51
174.5235786766930062
  0
ARC
  5
E25C
  8
0
 10
-0.2682620551186261
 20
5.045499470219724
 30
0.0
 40
0.0257934324027415
 50
43.0661414469625967
 51
109.7152877143688983
  0
ARC
  5
E25D
  8
0
 10
-0.2648528210330827
 20
5.0486859982533954
 30
0.0
 40
0.0211268664319871
 50
340.8591955623821832
 51
43.0661414469624404
  0
ARC
  5
E25E
  8
0
 10
-0.2674508198781238
 20
5.0503388726296921
 30
0.0
 40
0.024133634330316
 50
178.4356286588252942
 51
339.1742014420070745
  0
ARC
  5
E25F
  8
0
 10
-0.2689649892234645
 20
5.0511225039287506
 30
0.0
 40
0.0636184140034869
 50
80.9514275854114942
 51
147.8293372647854937
  0
ARC
  5
E260
  8
0
 10
-0.2671913222181512
 20
5.0501816461073128
 30
0.0
 40
0.0642966817874984
 50
24.6313198430435811
 51
82.6444057646961738
  0
ARC
  5
E261
  8
0
 10
-0.2628748855104677
 20
5.0530966198293532
 30
0.0
 40
0.0591642251387666
 50
322.245053764533111
 51
23.8074175336322007
  0
ARC
  5
E262
  8
0
 10
-0.2670489914696477
 20
5.0600381928118408
 30
0.0
 40
0.0667790712797665
 50
210.9630759271506122
 51
319.7281732758361841
  0
ARC
  5
E263
  8
0
 10
-0.2730541405419791
 20
5.0540644196280979
 30
0.0
 40
0.058591520617925
 50
148.1354085977355055
 51
208.9746927741992124
  0
ARC
  5
E264
  8
0
 10
-0.7720818445283415
 20
5.232330337525549
 30
0.0
 40
0.0227136679042605
 50
80.6570179862531944
 51
167.8770332865516934
  0
ARC
  5
E265
  8
0
 10
-0.7708855698901909
 20
5.2313367238857076
 30
0.0
 40
0.0235381633244444
 50
341.7445403730865792
 51
83.924738931330694
  0
ARC
  5
E266
  8
0
 10
-0.7703860659439963
 20
5.2341001214010818
 30
0.0
 40
0.0240904784156542
 50
172.8455768692971048
 51
335.1160613298384874
  0
ARC
  5
E267
  8
0
 10
-0.7739081663422729
 20
5.2366068414308282
 30
0.0
 40
0.0613342518985878
 50
100.0344842117886941
 51
154.5730633149269124
  0
ARC
  5
E268
  8
0
 10
-0.7726375339800819
 20
5.2294260025732484
 30
0.0
 40
0.0686266419936384
 50
40.3606295440963478
 51
100.034484211788893
  0
ARC
  5
E269
  8
0
 10
-0.7646770769389999
 20
5.2361914560916363
 30
0.0
 40
0.0581796214799997
 50
325.6059117869108945
 51
40.3606295440966818
  0
ARC
  5
E26A
  8
0
 10
-0.7698381545254894
 20
5.2397245375395318
 30
0.0
 40
0.064434170734041
 50
216.431168354830902
 51
325.6059117869108945
  0
ARC
  5
E26B
  8
0
 10
-0.7709485621214176
 20
5.2389615648359689
 30
0.0
 40
0.063087689167895
 50
157.6600183996756073
 51
216.4725431947055938
  0
ARC
  5
E26C
  8
0
 10
-1.182536688897559
 20
5.572324353191437
 30
0.0
 40
0.0223025492753584
 50
80.9906778308649962
 51
159.0528819415463033
  0
ARC
  5
E26D
  8
0
 10
-1.1833056878841841
 20
5.567474192186058
 30
0.0
 40
0.0272132947604693
 50
31.6266896505987205
 51
80.9906778308641577
  0
ARC
  5
E26E
  8
0
 10
-1.178643797639032
 20
5.5711159253997451
 30
0.0
 40
0.0213442052662329
 50
317.531502031576224
 51
29.8647691876962398
  0
ARC
  5
E26F
  8
0
 10
-1.182622410207798
 20
5.5728805162210877
 30
0.0
 40
0.0220290842743699
 50
160.32421153676259
 51
229.3999031454789019
  0
ARC
  5
E270
  8
0
 10
-1.180218480050784
 20
5.5743609387740891
 30
0.0
 40
0.0247325633703965
 50
227.4030190169395951
 51
314.4478101467511237
  0
ARC
  5
E271
  8
0
 10
-1.182545493951779
 20
5.5738945217529361
 30
0.0
 40
0.0641549076120082
 50
75.0435030332812971
 51
143.1262346064565918
  0
ARC
  5
E272
  8
0
 10
-1.183123742146494
 20
5.5717298972990941
 30
0.0
 40
0.0663954365676044
 50
2.0284842390042699
 51
75.0435030332818229
  0
ARC
  5
E273
  8
0
 10
-1.1696143976138349
 20
5.5722083783990737
 30
0.0
 40
0.0528776211425755
 50
305.342912740187387
 51
2.0284842390044231
  0
ARC
  5
E274
  8
0
 10
-1.1783777872220289
 20
5.5845657222048271
 30
0.0
 40
0.06802690968556
 50
203.5303871503625999
 51
305.3429127401875007
  0
ARC
  5
E275
  8
0
 10
-1.1909393024195991
 20
5.579095896504513
 30
0.0
 40
0.0543261557920457
 50
142.2024689029697129
 51
203.5303871503625999
  0
ARC
  5
E276
  8
0
 10
-1.449992299562167
 20
6.0255153836207844
 30
0.0
 40
0.022204514343205
 50
127.1907694655305932
 51
225.9748838246821947
  0
ARC
  5
E277
  8
0
 10
-1.44953439187013
 20
6.0227972050296978
 30
0.0
 40
0.0246798075620965
 50
20.6551079080815612
 51
124.221835974354704
  0
ARC
  5
E278
  8
0
 10
-1.448205551138475
 20
6.0245626320610128
 30
0.0
 40
0.0228443062996823
 50
221.0860054110175099
 51
17.6861744169060486
  0
ARC
  5
E279
  8
0
 10
-1.452073868350708
 20
6.0302734761301284
 30
0.0
 40
0.0606772434834065
 50
96.9857620090952821
 51
155.5617600892279029
  0
ARC
  5
E27A
  8
0
 10
-1.4511090911292071
 20
6.022399821221998
 30
0.0
 40
0.0686097863732658
 50
35.3276561848128026
 51
96.9857620090949553
  0
ARC
  5
E27B
  8
0
 10
-1.443450809470858
 20
6.027827738544361
 30
0.0
 40
0.0592230103336971
 50
322.5791047949418839
 51
35.3276561848130513
  0
ARC
  5
E27C
  8
0
 10
-1.4471540962078859
 20
6.033216948094676
 30
0.0
 40
0.0654704418929867
 50
195.7313209129368943
 51
320.8025376345232758
  0
ARC
  5
E27D
  8
0
 10
-1.453225406449463
 20
6.0314464772712881
 30
0.0
 40
0.059146547252794
 50
156.1347647927400999
 51
195.6750763093976104
  0
ARC
  5
E27E
  8
0
 10
-1.542111091939695
 20
6.5371595750033951
 30
0.0
 40
0.0234897455086432
 50
31.4492895440657882
 51
150.739565200792299
  0
ARC
  5
E27F
  8
0
 10
-1.542141935550138
 20
6.5387741122613594
 30
0.0
 40
0.022716462144609
 50
154.2563720230614024
 51
27.9324827217916187
  0
ARC
  5
E280
  8
0
 10
-1.542856907205338
 20
6.5390970344717321
 30
0.0
 40
0.0651018277734629
 50
50.8191304497181591
 51
129.9525825499258076
  0
ARC
  5
E281
  8
0
 10
-1.541909797416231
 20
6.5402590977710231
 30
0.0
 40
0.0636026920010314
 50
319.8597162738603856
 51
50.8191304497179033
  0
ARC
  5
E282
  8
0
 10
-1.5398889415335171
 20
6.544151718304545
 30
0.0
 40
0.0647088374076123
 50
154.3749666043532045
 51
316.0685496382341171
  0
ARC
  5
E283
  8
0
 10
-1.540847436568145
 20
6.5398538796860457
 30
0.0
 40
0.0658432271996777
 50
131.7162236570914047
 51
150.6395336748545901
  0
ARC
  5
E284
  8
0
 10
-1.4496146575701201
 20
7.0499641762022982
 30
0.0
 40
0.0226452758778545
 50
81.7585271461402954
 51
166.1198079658855136
  0
ARC
  5
E285
  8
0
 10
-1.4500016950335539
 20
7.0472920248772501
 30
0.0
 40
0.0253453111928173
 50
23.3446374371211789
 51
81.7585271461409064
  0
ARC
  5
E286
  8
0
 10
-1.4488599790234591
 20
7.0493085009527121
 30
0.0
 40
0.02353961616272
 50
165.0110753232266916
 51
19.9374773293743708
  0
ARC
  5
E287
  8
0
 10
-1.4503366426438249
 20
7.0541235338288031
 30
0.0
 40
0.0626268043628675
 50
73.5287276807489292
 51
146.6099616447083065
  0
ARC
  5
E288
  8
0
 10
-1.448629293573543
 20
7.0522285383570056
 30
0.0
 40
0.0639968967545797
 50
335.7510527748431173
 51
75.4759818382783578
  0
ARC
  5
E289
  8
0
 10
-1.4475529460835179
 20
7.0552938475272553
 30
0.0
 40
0.0643558999633647
 50
148.844380559470892
 51
332.8680259085543867
  0
ARC
  5
E28A
  8
0
 10
-1.181359992096334
 20
7.4984475138872142
 30
0.0
 40
0.0241022666195101
 50
38.382753381733032
 51
122.9776368626884988
  0
ARC
  5
E28B
  8
0
 10
-1.181241750135438
 20
7.49916801278939
 30
0.0
 40
0.0235673356925551
 50
124.1723116918791021
 51
37.1880785525389825
  0
ARC
  5
E28C
  8
0
 10
-1.182058358950411
 20
7.503569642071203
 30
0.0
 40
0.063409488600342
 50
68.5084535691048728
 51
132.965025897075094
  0
ARC
  5
E28D
  8
0
 10
-1.183131473917673
 20
7.500844201850084
 30
0.0
 40
0.0663385840463571
 50
359.3907682087536841
 51
68.5084535691048586
  0
ARC
  5
E28E
  8
0
 10
-1.1806770621832341
 20
7.5040045699340032
 30
0.0
 40
0.0639972833395154
 50
181.3689906502648057
 51
356.5369548653781067
  0
ARC
  5
E28F
  8
0
 10
-1.1833116021774319
 20
7.5051452721678977
 30
0.0
 40
0.0614025399666542
 50
133.1113275849554896
 51
182.4919002206169125
  0
ARC
  5
E290
  8
0
 10
-0.7710345189352781
 20
7.8332520250919018
 30
0.0
 40
0.0235102647222793
 50
55.2977174382037404
 51
158.5394939163620052
  0
ARC
  5
E291
  8
0
 10
-0.7710366189395482
 20
7.8332589289589603
 30
0.0
 40
0.0235057851446061
 50
158.5532827489791998
 51
55.283928605591079
  0
ARC
  5
E292
  8
0
 10
-0.7714835032532071
 20
7.8375854571034456
 30
0.0
 40
0.0635765360253266
 50
68.7189630509335956
 51
141.3074736069011976
  0
ARC
  5
E293
  8
0
 10
-0.7714835032532
 20
7.8375854571034642
 30
0.0
 40
0.0635765360253069
 50
141.3074736104979934
 51
68.7189630509335529
  0
ARC
  5
E294
  8
0
 10
-0.1535751133116285
 20
5.449948970391544
 30
0.0
 40
0.0237850683247098
 50
34.1886473257027887
 51
171.4399529353057119
  0
ARC
  5
E295
  8
0
 10
-0.1538839282949622
 20
5.4513066560567429
 30
0.0
 40
0.0233136906994101
 50
174.6281146608085066
 51
31.0004856001999194
  0
ARC
  5
E296
  8
0
 10
-0.1552877625808176
 20
5.4541306602050801
 30
0.0
 40
0.0625861656787978
 50
94.3943154485094453
 51
158.4946039491798047
  0
ARC
  5
E297
  8
0
 10
-0.1547874954830677
 20
5.4476206654012831
 30
0.0
 40
0.0691153539525869
 50
47.5790990390036512
 51
94.3943154485102838
  0
ARC
  5
E298
  8
0
 10
-0.1474416712471527
 20
5.4556594782696992
 30
0.0
 40
0.0582257421120122
 50
333.8915163567272089
 51
47.5790990390034381
  0
ARC
  5
E299
  8
0
 10
-0.1525129447211952
 20
5.4581448006794231
 30
0.0
 40
0.0638732762755926
 50
162.7611130070804961
 51
333.8915163567273225
  0
ARC
  5
E29A
  8
0
 10
-0.5570969700001669
 20
5.5792556803998439
 30
0.0
 40
0.0533007264718791
 50
81.7412455385632342
 51
172.5096020073424086
  0
ARC
  5
E29B
  8
0
 10
-0.5576923971778234
 20
5.5751535045032252
 30
0.0
 40
0.0574458899922624
 50
352.4834835429443842
 51
81.7412455385629357
  0
ARC
  5
E29C
  8
0
 10
-0.5541748894158474
 20
5.583783606109737
 30
0.0
 40
0.0558204748392292
 50
177.5148931347420955
 51
343.1883980194281207
  0
ARC
  5
E29D
  8
0
 10
-0.5621877536584954
 20
5.6049859317146531
 30
0.0
 40
0.1193034225815494
 50
112.6663645290708047
 51
165.3901785508635953
  0
ARC
  5
E29E
  8
0
 10
-0.5557178725130916
 20
5.5894936431532827
 30
0.0
 40
0.1360924179923662
 50
65.3207175505349085
 51
112.6663645290708047
  0
ARC
  5
E29F
  8
0
 10
-0.5524129588126457
 20
5.59668589010254
 30
0.0
 40
0.1281771876895578
 50
14.2626651806700604
 51
65.3207175505350648
  0
ARC
  5
E2A0
  8
0
 10
-0.5425553888593752
 20
5.5991917136257987
 30
0.0
 40
0.1180061092357582
 50
269.7849539743434093
 51
14.2626651806701208
  0
ARC
  5
E2A1
  8
0
 10
-0.5529093718351233
 20
5.6083556705600399
 30
0.0
 40
0.1275548656947176
 50
167.9069273218844955
 51
274.4564023076206922
  0
ARC
  5
E2A2
  8
0
 10
-0.871363801361018
 20
5.8585384518153401
 30
0.0
 40
0.0228360432150478
 50
62.0470123575548413
 51
196.2357894500084114
  0
ARC
  5
E2A3
  8
0
 10
-0.8721679738776346
 20
5.8570230248717898
 30
0.0
 40
0.0245516224926445
 50
330.8663882319251002
 51
62.0470123575547277
  0
ARC
  5
E2A4
  8
0
 10
-0.8701309578437737
 20
5.8598781592121307
 30
0.0
 40
0.0244124552060396
 50
198.4462327032734095
 51
322.6575752971277211
  0
ARC
  5
E2A5
  8
0
 10
-0.8752253558548942
 20
5.8642258888425829
 30
0.0
 40
0.059109033177398
 50
132.4353746528269085
 51
199.1234932856563091
  0
ARC
  5
E2A6
  8
0
 10
-0.8717746655006406
 20
5.8604515831539761
 30
0.0
 40
0.064222999089681
 50
75.3996377555000237
 51
132.4353746528277043
  0
ARC
  5
E2A7
  8
0
 10
-0.8726438704477423
 20
5.8571147404552661
 30
0.0
 40
0.0676711923029452
 50
25.7064312776313315
 51
75.3996377555000663
  0
ARC
  5
E2A8
  8
0
 10
-0.863225875562632
 20
5.861648617365705
 30
0.0
 40
0.057218696548582
 50
325.377626629950214
 51
25.7064312776302515
  0
ARC
  5
E2A9
  8
0
 10
-0.8696294518422008
 20
5.8660698402600921
 30
0.0
 40
0.0650002774323172
 50
199.0432304418964122
 51
325.3776266299499866
  0
ARC
  5
E2AA
  8
0
 10
-1.025654004228199
 20
6.1187323433028169
 30
0.0
 40
0.0223411554221259
 50
94.6608021182444759
 51
185.4893414803013059
  0
ARC
  5
E2AB
  8
0
 10
-1.025376380131882
 20
6.1153270094011392
 30
0.0
 40
0.0257577874071031
 50
19.0306325488605417
 51
94.6608021182444759
  0
ARC
  5
E2AC
  8
0
 10
-1.024229181210957
 20
6.118646469889752
 30
0.0
 40
0.0237522649329868
 50
184.9543531293282967
 51
12.3481979933137005
  0
ARC
  5
E2AD
  8
0
 10
-1.0262847458038611
 20
6.1224305302641167
 30
0.0
 40
0.0621393448805225
 50
92.988577153771999
 51
150.4026360721018989
  0
ARC
  5
E2AE
  8
0
 10
-1.0259224521882759
 20
6.115491085448431
 30
0.0
 40
0.0690882405491766
 50
55.9739349389262912
 51
92.9885771537718426
  0
ARC
  5
E2AF
  8
0
 10
-1.0220787810955581
 20
6.1211839740595364
 30
0.0
 40
0.0622192676850982
 50
17.0753615094683191
 51
55.9739349389264689
  0
ARC
  5
E2B0
  8
0
 10
-1.020603553395093
 20
6.1216371190304493
 30
0.0
 40
0.060676012316443
 50
328.4629453062460129
 51
17.0753615094681805
  0
ARC
  5
E2B1
  8
0
 10
-1.023276351789864
 20
6.123277390626285
 30
0.0
 40
0.063811987789434
 50
203.2500672664772026
 51
328.4629453062461266
  0
ARC
  5
E2B2
  8
0
 10
-1.021845589260314
 20
6.1238920967101702
 30
0.0
 40
0.0653692112754926
 50
153.4396802249794121
 51
203.2500672664770889
  0
ARC
  5
E2B3
  8
0
 10
-1.113615717746425
 20
6.5218040048610861
 30
0.0
 40
0.0517385950135242
 50
104.5441421974691991
 51
179.8525578256316919
  0
ARC
  5
E2B4
  8
0
 10
-1.111950320279073
 20
6.5153847966793803
 30
0.0
 40
0.0583703204605214
 50
38.0004118742568195
 51
104.5441421974691991
  0
ARC
  5
E2B5
  8
0
 10
-1.1065951678379
 20
6.5195687623037548
 30
0.0
 40
0.0515744963004831
 50
297.4516143661243746
 51
38.0004118742569901
  0
ARC
  5
E2B6
  8
0
 10
-1.1088735000197709
 20
6.5239544363812083
 30
0.0
 40
0.0565166552057169
 50
182.045534438216805
 51
297.4516143661243746
  0
ARC
  5
E2B7
  8
0
 10
-1.113632502468402
 20
6.5425940354485048
 30
0.0
 40
0.1220632130066856
 50
117.562840353896803
 51
170.5874466007394972
  0
ARC
  5
E2B8
  8
0
 10
-1.109411327993989
 20
6.534506902997629
 30
0.0
 40
0.1311857140465018
 50
53.4857354423036
 51
117.5628403538970019
  0
ARC
  5
E2B9
  8
0
 10
-1.1098712961124031
 20
6.5338856153122054
 30
0.0
 40
0.1319587399568154
 50
345.6970377906504837
 51
53.4857354423032305
  0
ARC
  5
E2BA
  8
0
 10
-1.1053722764103391
 20
6.5428440138038191
 30
0.0
 40
0.1301811465248828
 50
171.2905648429525058
 51
341.3831889937840742
  0
ARC
  5
E2BB
  8
0
 10
-1.025130906378906
 20
6.9245697657726017
 30
0.0
 40
0.0227509222472197
 50
94.9469803004452189
 51
197.6657672211746899
  0
ARC
  5
E2BC
  8
0
 10
-1.0249631694172849
 20
6.922631871176443
 30
0.0
 40
0.024696062641667
 50
355.5597303052770144
 51
94.9469803004448636
  0
ARC
  5
E2BD
  8
0
 10
-1.0239121413239549
 20
6.9243206856488886
 30
0.0
 40
0.0238443592464376
 50
196.2065995528926123
 51
351.3144372272785176
  0
ARC
  5
E2BE
  8
0
 10
-1.026940203058669
 20
6.9298518854433446
 30
0.0
 40
0.0608840130735073
 50
118.1150658483544049
 51
184.2154740289975905
  0
ARC
  5
E2BF
  8
0
 10
-1.024911265634872
 20
6.9260544269110511
 30
0.0
 40
0.0651895070491356
 50
54.911754413998878
 51
118.1150658483541065
  0
ARC
  5
E2C0
  8
0
 10
-1.0243035323462519
 20
6.9269195211167123
 30
0.0
 40
0.0641322806141825
 50
342.6605009098103096
 51
54.9117544139986435
  0
ARC
  5
E2C1
  8
0
 10
-1.0235122709539779
 20
6.9297809049091148
 30
0.0
 40
0.0642982639822343
 50
183.9278568426130107
 51
340.015533378840928
  0
ARC
  5
E2C2
  8
0
 10
-0.8713563522217668
 20
7.1829527177932881
 30
0.0
 40
0.0229920098200991
 50
100.599097505794802
 51
197.2973898718624071
  0
ARC
  5
E2C3
  8
0
 10
-0.8710807610696997
 20
7.181479981198283
 30
0.0
 40
0.0244903100441404
 50
39.0212916463681765
 51
100.5990975057953989
  0
ARC
  5
E2C4
  8
0
 10
-0.8704186424545046
 20
7.1820165618000322
 30
0.0
 40
0.0236380660633687
 50
194.4539153825126903
 51
39.0212916463670823
  0
ARC
  5
E2C5
  8
0
 10
-0.8713538929129035
 20
7.1868964381526421
 30
0.0
 40
0.0631668105135744
 50
70.295937118863236
 51
168.6390821186408004
  0
ARC
  5
E2C6
  8
0
 10
-0.8712906038979149
 20
7.1849482832086062
 30
0.0
 40
0.0649835051212611
 50
3.7849847152541489
 51
70.9276217234421864
  0
ARC
  5
E2C7
  8
0
 10
-0.8704058585119192
 20
7.1875093875171121
 30
0.0
 40
0.0639803738427274
 50
169.3444939997513075
 51
1.548198254144459
  0
ARC
  5
E2C8
  8
0
 10
-0.5562978711852687
 20
7.4563878376508699
 30
0.0
 40
0.0545707466790422
 50
58.2415123794103735
 51
156.0411284023601866
  0
ARC
  5
E2C9
  8
0
 10
-0.5585833788110657
 20
7.4534127346356263
 30
0.0
 40
0.0583045754340205
 50
343.351736449444104
 51
57.8706465768377001
  0
ARC
  5
E2CA
  8
0
 10
-0.5548366890259944
 20
7.4566593021660283
 30
0.0
 40
0.0558021370343826
 50
156.9051159123135903
 51
339.0518258306826169
  0
ARC
  5
E2CB
  8
0
 10
-0.5526853693321332
 20
7.4665983583647968
 30
0.0
 40
0.1265575489930783
 50
69.3841843721985043
 51
155.4479485277101958
  0
ARC
  5
E2CC
  8
0
 10
-0.5534939229572124
 20
7.4644490379104678
 30
0.0
 40
0.128853923827469
 50
346.8821483833111188
 51
69.384184372198618
  0
ARC
  5
E2CD
  8
0
 10
-0.5510720083599506
 20
7.4681415170703804
 30
0.0
 40
0.1274007067271716
 50
156.3807346864001886
 51
345.0173375610738162
  0
ARC
  5
E2CE
  8
0
 10
-0.153633758389744
 20
7.5847358440786508
 30
0.0
 40
0.0237220015063544
 50
86.24889916797963
 51
195.5527567459652118
  0
ARC
  5
E2CF
  8
0
 10
-0.1536475221310418
 20
7.5845259117693899
 30
0.0
 40
0.0239323845262167
 50
345.1958325659194884
 51
86.2488991679777541
  0
ARC
  5
E2D0
  8
0
 10
-0.1535025116555229
 20
7.5844875870651993
 30
0.0
 40
0.0237823951233864
 50
194.8917730954771059
 51
345.1958325659197158
  0
ARC
  5
E2D1
  8
0
 10
-0.1541040350708354
 20
7.5891207936693519
 30
0.0
 40
0.0633750724778443
 50
94.166090393378397
 51
179.7388498596997977
  0
ARC
  5
E2D2
  8
0
 10
-0.1539692356111448
 20
7.5872701799694298
 30
0.0
 40
0.0652305891068933
 50
40.1486459674342768
 51
94.166090393378397
  0
ARC
  5
E2D3
  8
0
 10
-0.151765071748561
 20
7.589129458989694
 30
0.0
 40
0.062346970406664
 50
336.7644018141758124
 51
40.1486459674346676
  0
ARC
  5
E2D4
  8
0
 10
-0.1533777625772688
 20
7.5898218455125921
 30
0.0
 40
0.0641020119463686
 50
180.3684302896832889
 51
336.7644018141755851
  0
ARC
  5
E2D5
  8
0
 10
0.1536047181520228
 20
7.584535155376483
 30
0.0
 40
0.0238991587093024
 50
50.04768000734569
 51
165.3547663840982125
  0
ARC
  5
E2D6
  8
0
 10
0.1536047932503033
 20
7.584534920079812
 30
0.0
 40
0.0238992908593656
 50
165.3542661351291088
 51
50.048180256312321
  0
ARC
  5
E2D7
  8
0
 10
0.1535819687126008
 20
7.588166947210663
 30
0.0
 40
0.0643477237511507
 50
111.9905545946923979
 51
174.5411893259721978
  0
ARC
  5
E2D8
  8
0
 10
0.1536173676394963
 20
7.5880792901900547
 30
0.0
 40
0.0644422585980966
 50
41.5913006076430491
 51
111.9905545946925969
  0
ARC
  5
E2D9
  8
0
 10
0.15489485484719
 20
7.5892131495941477
 30
0.0
 40
0.0627341571040182
 50
320.519917903740577
 51
41.5913006076431415
  0
ARC
  5
E2DA
  8
0
 10
0.1536906289420994
 20
7.590205133926256
 30
0.0
 40
0.0642943471391223
 50
176.3587945606091125
 51
320.5199179037402928
  0
ARC
  5
E2DB
  8
0
 10
0.5561793931996794
 20
7.4546704350302821
 30
0.0
 40
0.0561806796523684
 50
74.6711272027231558
 51
179.5847025780257127
  0
ARC
  5
E2DC
  8
0
 10
0.5566505262404294
 20
7.4563892039175643
 30
0.0
 40
0.054398508832843
 50
316.8786646197427217
 51
74.6711272027231558
  0
ARC
  5
E2DD
  8
0
 10
0.5556817571780019
 20
7.4572964388506007
 30
0.0
 40
0.0557257573853157
 50
182.2819081997141097
 51
316.8786646197430059
  0
ARC
  5
E2DE
  8
0
 10
0.5515176843377576
 20
7.4655375662926069
 30
0.0
 40
0.1273318484115099
 50
93.2502549067946234
 51
180.412199108043211
  0
ARC
  5
E2DF
  8
0
 10
0.5515835845201629
 20
7.464377118466329
 30
0.0
 40
0.1284941659204373
 50
25.2889500890528289
 51
93.2502549067950639
  0
ARC
  5
E2E0
  8
0
 10
0.5521057669342886
 20
7.4646238297649639
 30
0.0
 40
0.1279166358878868
 50
180.0010348534163995
 51
25.2889500890528609
  0
ARC
  5
E2E1
  8
0
 10
0.870829073028851
 20
7.1818117039825706
 30
0.0
 40
0.0241245390734037
 50
40.0070772441585589
 51
193.2244557510790059
  0
ARC
  5
E2E2
  8
0
 10
0.8708290830710083
 20
7.1818117124110561
 30
0.0
 40
0.0241245259629376
 50
193.2244691053174108
 51
40.0070772441586868
  0
ARC
  5
E2E3
  8
0
 10
0.8767795311290429
 20
7.191808343719706
 30
0.0
 40
0.0711634519941061
 50
117.4785412222603043
 51
190.593045336684412
  0
ARC
  5
E2E4
  8
0
 10
0.8723975740793097
 20
7.2002337077507548
 30
0.0
 40
0.0616666995680699
 50
28.810630729064421
 51
117.4785412222607022
  0
ARC
  5
E2E5
  8
0
 10
0.8607338979951837
 20
7.1938187291274494
 30
0.0
 40
0.0749780965846448
 50
336.5336636526844813
 51
28.8106307290645987
  0
ARC
  5
E2E6
  8
0
 10
0.870357556875942
 20
7.189521956464997
 30
0.0
 40
0.0644394439451124
 50
189.6444149960827872
 51
336.6307273646568206
  0
ARC
  5
E2E7
  8
0
 10
1.0245098124629259
 20
6.923163533178176
 30
0.0
 40
0.0242477984060199
 50
65.0871297496690033
 51
192.6507974046461982
  0
ARC
  5
E2E8
  8
0
 10
1.0251105187932761
 20
6.9244568833734341
 30
0.0
 40
0.0228217539386587
 50
322.0508838329224091
 51
65.0871297496679517
  0
ARC
  5
E2E9
  8
0
 10
1.0237405504758541
 20
6.9241566966755741
 30
0.0
 40
0.0237419891101204
 50
195.3970068293893121
 51
324.6561609603558054
  0
ARC
  5
E2EA
  8
0
 10
1.0228577168426281
 20
6.92730649205535
 30
0.0
 40
0.0629248289768235
 50
131.464695122956897
 51
195.9408272192409868
  0
ARC
  5
E2EB
  8
0
 10
1.0249238222648169
 20
6.924968283091701
 30
0.0
 40
0.0660450874233778
 50
56.8432988842956703
 51
131.4646951229572949
  0
ARC
  5
E2EC
  8
0
 10
1.024671086637208
 20
6.9289028667221944
 30
0.0
 40
0.062933767751696
 50
285.6174398143205053
 51
54.6910026887249785
  0
ARC
  5
E2ED
  8
0
 10
1.0224763565134249
 20
6.9280810941234297
 30
0.0
 40
0.0627766224540768
 50
196.7162327314215133
 51
287.7490092385399976
  0
ARC
  5
E2EE
  8
0
 10
1.1106601721280309
 20
6.518275152160462
 30
0.0
 40
0.0555523828569448
 50
96.0932157182682261
 51
178.8854482139414017
  0
ARC
  5
E2EF
  8
0
 10
1.1106730938415881
 20
6.5181541049963112
 30
0.0
 40
0.0556741177600363
 50
19.2040377766937702
 51
96.0932157182688513
  0
ARC
  5
E2F0
  8
0
 10
1.1156704901175649
 20
6.5198947774008236
 30
0.0
 40
0.0503822456944068
 50
289.0053217588127836
 51
19.2040377766941788
  0
ARC
  5
E2F1
  8
0
 10
1.108899428305792
 20
6.5208109026439569
 30
0.0
 40
0.0538008123936213
 50
181.54991948504221
 51
295.5194633339938264
  0
ARC
  5
E2F2
  8
0
 10
1.1077714226398441
 20
6.534374909932632
 30
0.0
 40
0.1305517238819396
 50
109.3594452428799002
 51
180.3497189368443969
  0
ARC
  5
E2F3
  8
0
 10
1.108042084341273
 20
6.5336045844813304
 30
0.0
 40
0.1313682158032374
 50
30.7937583627856704
 51
109.3594452428799002
  0
ARC
  5
E2F4
  8
0
 10
1.1113295342934111
 20
6.5419503697440353
 30
0.0
 40
0.1243926641113656
 50
331.2386466785376911
 51
28.2659936583573597
  0
ARC
  5
E2F5
  8
0
 10
1.103998972770778
 20
6.5442039590008756
 30
0.0
 40
0.1319123331787997
 50
227.0278188705460138
 51
331.9126060903994926
  0
ARC
  5
E2F6
  8
0
 10
1.099236196856755
 20
6.5350838492419019
 30
0.0
 40
0.1220233574072811
 50
180.7070576370552999
 51
225.7449966751748036
  0
ARC
  5
E2F7
  8
0
 10
1.023746763864414
 20
6.1172244905839701
 30
0.0
 40
0.0236126342396751
 50
111.658210843299301
 51
185.7934073895501967
  0
ARC
  5
E2F8
  8
0
 10
1.024335265052096
 20
6.1157425069998288
 30
0.0
 40
0.0252071902881008
 50
40.5980426136495112
 51
111.6582108432976952
  0
ARC
  5
E2F9
  8
0
 10
1.0276050393260809
 20
6.1185448487405587
 30
0.0
 40
0.0209008527450551
 50
314.2941213052727107
 51
40.5980426136516428
  0
ARC
  5
E2FA
  8
0
 10
1.023782410656735
 20
6.1187324001714893
 30
0.0
 40
0.0238473185233736
 50
189.3915390673566037
 51
320.5657377710604123
  0
ARC
  5
E2FB
  8
0
 10
1.0211464682842879
 20
6.121502939103892
 30
0.0
 40
0.0612278779032976
 50
136.75692460730329
 51
187.3480146900639056
  0
ARC
  5
E2FC
  8
0
 10
1.025539507262204
 20
6.1173713813369348
 30
0.0
 40
0.0672585131138878
 50
91.4431420739729504
 51
136.7569246073032048
  0
ARC
  5
E2FD
  8
0
 10
1.025459654105745
 20
6.1205410493503623
 30
0.0
 40
0.0640878393933773
 50
45.7188129660559071
 51
91.4431420739729504
  0
ARC
  5
E2FE
  8
0
 10
1.029391484101307
 20
6.1245727928168918
 30
0.0
 40
0.0584562994180315
 50
355.7306144921707869
 51
45.7188129660558573
  0
ARC
  5
E2FF
  8
0
 10
1.0244328835668359
 20
6.1249429674938289
 30
0.0
 40
0.0634286980898902
 50
316.2996865425764099
 51
355.7306144921706732
  0
ARC
  5
E300
  8
0
 10
1.0231980565571801
 20
6.1238671728486684
 30
0.0
 40
0.0635990949375337
 50
189.2243885552148015
 51
317.769095604800782
  0
ARC
  5
E301
  8
0
 10
0.8709822927478506
 20
5.8567380495998229
 30
0.0
 40
0.0243930478775149
 50
53.7482521896168066
 51
166.4513180141111945
  0
ARC
  5
E302
  8
0
 10
0.8702514204189526
 20
5.8587352753166337
 30
0.0
 40
0.0232820330772633
 50
170.8124393544578936
 51
49.3871308492701928
  0
ARC
  5
E303
  8
0
 10
0.8714172080665223
 20
5.8582149486328214
 30
0.0
 40
0.0663078689152615
 50
58.2584035671085232
 51
117.2086303632102045
  0
ARC
  5
E304
  8
0
 10
0.8752270889467288
 20
5.8643736660391701
 30
0.0
 40
0.0590659774211385
 50
355.7151793124991741
 51
58.2584035671089424
  0
ARC
  5
E305
  8
0
 10
0.8698861965302455
 20
5.8647738268287508
 30
0.0
 40
0.0644218396730982
 50
232.1499281739789069
 51
355.7151793124987762
  0
ARC
  5
E306
  8
0
 10
0.8677981967821883
 20
5.8620868457992428
 30
0.0
 40
0.061018957071418
 50
136.7797227859288967
 51
232.1499281739785943
  0
ARC
  5
E307
  8
0
 10
0.8702150271370152
 20
5.8598156809090858
 30
0.0
 40
0.0643354701382245
 50
116.9082807404194
 51
136.7797227859294082
  0
ARC
  5
E308
  8
0
 10
0.5547632877862645
 20
5.5787990627174882
 30
0.0
 40
0.0548019438846913
 50
68.1816867343624153
 51
175.9199051503115925
  0
ARC
  5
E309
  8
0
 10
0.5546121579680801
 20
5.5784215611918349
 30
0.0
 40
0.0552085734751226
 50
345.2067196166537997
 51
68.1816867343623585
  0
ARC
  5
E30A
  8
0
 10
0.5548700316001023
 20
5.5783534603928118
 30
0.0
 40
0.054941859154322
 50
175.464304762000495
 51
345.2067196166543113
  0
ARC
  5
E30B
  8
0
 10
0.5471060600617142
 20
5.6001357196255306
 30
0.0
 40
0.122150764807145
 50
128.2338639067654071
 51
181.950093931883714
  0
ARC
  5
E30C
  8
0
 10
0.5562339267886225
 20
5.5885503664278779
 30
0.0
 40
0.1368999464691403
 50
71.0188214558483963
 51
128.2338639067652082
  0
ARC
  5
E30D
  8
0
 10
0.5618162613637825
 20
5.6047799604029613
 30
0.0
 40
0.1197371326000497
 50
17.0429414493954496
 51
71.0188214558482969
  0
ARC
  5
E30E
  8
0
 10
0.5641347510205917
 20
5.6054906943183811
 30
0.0
 40
0.1173121507470749
 50
316.5355685862253949
 51
17.042941449395439
  0
ARC
  5
E30F
  8
0
 10
0.5524903212051262
 20
5.6087001112227002
 30
0.0
 40
0.1280974960210708
 50
185.6993020896501037
 51
319.0773482614280852
  0
ARC
  5
E310
  8
0
 10
0.1524432797933599
 20
5.4506339136689084
 30
0.0
 40
0.0225842344319246
 50
95.6521723151640231
 51
195.2956269349174931
  0
ARC
  5
E311
  8
0
 10
0.1526499315673009
 20
5.4485458950290182
 30
0.0
 40
0.0246824543432315
 50
4.600178924901936
 51
95.6521723151644352
  0
ARC
  5
E312
  8
0
 10
0.153401590742245
 20
5.4520167634015593
 30
0.0
 40
0.023897859123085
 50
197.8883924938448047
 51
356.4222777285082771
  0
ARC
  5
E313
  8
0
 10
0.1499964944777892
 20
5.455037656386299
 30
0.0
 40
0.0604650938015005
 50
126.9330044355264988
 51
180.5346795907514093
  0
ARC
  5
E314
  8
0
 10
0.1537069644969993
 20
5.45076631191559
 30
0.0
 40
0.0661101008734037
 50
72.5881683494246914
 51
127.2791149656106029
  0
ARC
  5
E315
  8
0
 10
0.1546443954238708
 20
5.4537554943494841
 30
0.0
 40
0.0629773722918389
 50
4.992669224301264
 51
72.5881683494243788
  0
ARC
  5
E316
  8
0
 10
0.1534245401249494
 20
5.4577644851235956
 30
0.0
 40
0.0639752141373257
 50
182.9487674444544041
 51
1.318270185115002
  0
ARC
  5
E317
  8
0
 10
-0.3055524012241593
 20
6.6844436076677969
 30
0.0
 40
0.4619113136406204
 50
138.2795980092085983
 51
173.6625284551309107
  0
ARC
  5
E318
  8
0
 10
-0.2921694622225184
 20
6.6725112929250487
 30
0.0
 40
0.4798412659953162
 50
95.7643695221808855
 51
138.2795980092085983
  0
ARC
  5
E319
  8
0
 10
0.0000107194098664
 20
3.7781494733172849
 30
0.0
 40
3.388913214459619
 50
84.2356550037989251
 51
95.7643695221808855
  0
ARC
  5
E31A
  8
0
 10
0.2922729086288758
 20
6.6733360689040264
 30
0.0
 40
0.4790124239665431
 50
32.2877106645926233
 51
84.2356550037990246
  0
ARC
  5
E31B
  8
0
 10
0.3146623729976739
 20
6.6874833801276488
 30
0.0
 40
0.4525278146702032
 50
6.0794719971189259
 51
32.2877106645927583
  0
ARC
  5
E31C
  8
0
 10
-1.1783500411243271
 20
6.5284673887681048
 30
0.0
 40
1.9539844921106351
 50
353.9540901260575083
 51
6.0794719971189011
  0
ARC
  5
E31D
  8
0
 10
0.3103336901811478
 20
6.3707942942970108
 30
0.0
 40
0.4569741192094719
 50
317.354616372822818
 51
353.9540901260575083
  0
ARC
  5
E31E
  8
0
 10
0.2768486313197167
 20
6.4016343705604717
 30
0.0
 40
0.502497294306224
 50
277.277713444655717
 51
317.354616372822818
  0
ARC
  5
E31F
  8
0
 10
0.0157649372988988
 20
8.4460206008128527
 30
0.0
 40
2.5634872879085928
 50
269.647649333976176
 51
277.277713444655717
  0
ARC
  5
E320
  8
0
 10
0.0193312603798788
 20
9.025933468103549
 30
0.0
 40
3.143411121105363
 50
263.4261573376239767
 51
269.647649333976176
  0
ARC
  5
E321
  8
0
 10
-0.2849285324410422
 20
6.385736618508373
 30
0.0
 40
0.4857404443397632
 50
225.44687377232259
 51
263.426157337624204
  0
ARC
  5
E322
  8
0
 10
-0.2907256237460691
 20
6.3798483866274882
 30
0.0
 40
0.4774774217522417
 50
186.8619905854833121
 51
225.446873772322391
  0
ARC
  5
E323
  8
0
 10
0.964239504107736
 20
6.528521549563945
 30
0.0
 40
1.7412177784658229
 50
173.1753859730322063
 51
186.7852278063832046
  0
ARC
  5
E324
  8
0
 10
-0.4681073237957625
 20
6.7564446641270441
 30
0.0
 40
0.1431890633106103
 50
137.1714499051188056
 51
192.9673212281348071
  0
ARC
  5
E325
  8
0
 10
-0.4793359152828334
 20
6.7668528515746971
 30
0.0
 40
0.1278785560450421
 50
93.460118807798807
 51
137.1714499051188056
  0
ARC
  5
E326
  8
0
 10
-0.4774148163344743
 20
6.7350802375270851
 30
0.0
 40
0.1597091957588133
 50
55.6227615523113386
 51
93.4601188077988354
  0
ARC
  5
E327
  8
0
 10
-0.4612066822131107
 20
6.7587718049023477
 30
0.0
 40
0.1310039004913409
 50
1.899962268275269
 51
55.622761552311637
  0
ARC
  5
E328
  8
0
 10
-0.4730563000935986
 20
6.7583787204038677
 30
0.0
 40
0.142860036427493
 50
305.3887015531316251
 51
1.8999622682748369
  0
ARC
  5
E329
  8
0
 10
-0.4713544785134296
 20
6.7559830244562518
 30
0.0
 40
0.1399214048132639
 50
193.0814773199249998
 51
305.388701553131682
  0
ARC
  5
E32A
  8
0
 10
-0.4704003223053786
 20
6.7844243600067298
 30
0.0
 40
0.0897496050525474
 50
81.6401802400090304
 51
159.1673860479488951
  0
ARC
  5
E32B
  8
0
 10
-0.4719239755725689
 20
6.7893535070911746
 30
0.0
 40
0.0851234160082203
 50
24.3254948357683283
 51
80.1429829916898342
  0
ARC
  5
E32C
  8
0
 10
-0.4768558369025176
 20
6.787124043866263
 30
0.0
 40
0.0905357872490971
 50
332.4385027750349764
 51
24.3254948357680512
  0
ARC
  5
E32D
  8
0
 10
-0.4719326995252322
 20
6.7845545009075652
 30
0.0
 40
0.0849824249655595
 50
230.0932739716477897
 51
332.4385027750356016
  0
ARC
  5
E32E
  8
0
 10
-0.4686989293957158
 20
6.7884211241042776
 30
0.0
 40
0.0900230642301669
 50
161.9310301493011082
 51
230.0932739716477897
  0
ARC
  5
E32F
  8
0
 10
-0.4726590970798484
 20
6.786654978427153
 30
0.0
 40
0.0567926516022018
 50
115.8427885737360015
 51
189.5674353762287865
  0
ARC
  5
E330
  8
0
 10
-0.4723978475095337
 20
6.7861155861073907
 30
0.0
 40
0.0573919807376579
 50
41.6697701984409576
 51
115.8427885737363994
  0
ARC
  5
E331
  8
0
 10
-0.471709291749149
 20
6.7867284155424583
 30
0.0
 40
0.0564702058455919
 50
333.2109008346732253
 51
41.6697701984402826
  0
ARC
  5
E332
  8
0
 10
-0.4723383503454049
 20
6.7870460256987659
 30
0.0
 40
0.0571748979265143
 50
189.9004370954544072
 51
333.2109008346732253
  0
ARC
  5
E333
  8
0
 10
-0.4782152848576713
 20
6.7554463585324811
 30
0.0
 40
0.1545474103848246
 50
148.5699090532361026
 51
205.5539283392585901
  0
ARC
  5
E334
  8
0
 10
-0.4764912278243126
 20
6.7543927464121856
 30
0.0
 40
0.1565679229817427
 50
94.6016595578472135
 51
148.5699090532361026
  0
ARC
  5
E335
  8
0
 10
-0.475514217983541
 20
6.7422540543997922
 30
0.0
 40
0.1687458699351798
 50
48.1008039554857803
 51
94.6016595578472135
  0
ARC
  5
E336
  8
0
 10
-0.4666167997197555
 20
6.7521706690295851
 30
0.0
 40
0.1554228335891892
 50
351.0599616289184723
 51
48.1008039554859366
  0
ARC
  5
E337
  8
0
 10
-0.4670825808959949
 20
6.7522439419220879
 30
0.0
 40
0.1558943428901734
 50
279.3803519919903238
 51
351.0599616289184155
  0
ARC
  5
E338
  8
0
 10
-0.4687381401987798
 20
6.7622656920356041
 30
0.0
 40
0.1660519189761692
 50
206.2661930591767998
 51
279.3803519919903806
  0
ARC
  5
E339
  8
0
 10
0.0043325972637716
 20
6.7566219853819938
 30
0.0
 40
0.1431890633106103
 50
137.1714499051188056
 51
192.9673212281348071
  0
ARC
  5
E33A
  8
0
 10
-0.0068959942232993
 20
6.7670301728296467
 30
0.0
 40
0.1278785560450421
 50
93.460118807798807
 51
137.1714499051188056
  0
ARC
  5
E33B
  8
0
 10
-0.0049748952749402
 20
6.7352575587820347
 30
0.0
 40
0.1597091957588133
 50
55.6227615523113386
 51
93.4601188077988354
  0
ARC
  5
E33C
  8
0
 10
0.0112332388464234
 20
6.7589491261572991
 30
0.0
 40
0.1310039004913409
 50
1.899962268275269
 51
55.622761552311637
  0
ARC
  5
E33D
  8
0
 10
-0.0006163790340645
 20
6.7585560416588191
 30
0.0
 40
0.142860036427493
 50
305.3887015531316251
 51
1.8999622682748369
  0
ARC
  5
E33E
  8
0
 10
0.0010854425461044
 20
6.7561603457112032
 30
0.0
 40
0.1399214048132639
 50
193.0814773199249998
 51
305.388701553131682
  0
ARC
  5
E33F
  8
0
 10
0.0020395987541555
 20
6.7846016812616812
 30
0.0
 40
0.0897496050525474
 50
81.6401802400090304
 51
159.1673860479488951
  0
ARC
  5
E340
  8
0
 10
0.0005159454869652
 20
6.7895308283461251
 30
0.0
 40
0.0851234160082203
 50
24.3254948357683283
 51
80.1429829916898342
  0
ARC
  5
E341
  8
0
 10
-0.0044159158429835
 20
6.7873013651212144
 30
0.0
 40
0.0905357872490971
 50
332.4385027750349764
 51
24.3254948357680512
  0
ARC
  5
E342
  8
0
 10
0.0005072215343018
 20
6.7847318221625148
 30
0.0
 40
0.0849824249655595
 50
230.0932739716477897
 51
332.4385027750356016
  0
ARC
  5
E343
  8
0
 10
0.0037409916638183
 20
6.7885984453592281
 30
0.0
 40
0.0900230642301669
 50
161.9310301493011082
 51
230.0932739716477897
  0
ARC
  5
E344
  8
0
 10
-0.0002191760203143
 20
6.7868322996821044
 30
0.0
 40
0.0567926516022018
 50
115.8427885737360015
 51
189.5674353762287865
  0
ARC
  5
E345
  8
0
 10
0.0000420735500004
 20
6.7862929073623421
 30
0.0
 40
0.0573919807376579
 50
41.6697701984409576
 51
115.8427885737363994
  0
ARC
  5
E346
  8
0
 10
0.000730629310385
 20
6.7869057367974079
 30
0.0
 40
0.0564702058455919
 50
333.2109008346732253
 51
41.6697701984402826
  0
ARC
  5
E347
  8
0
 10
0.0001015707141292
 20
6.7872233469537173
 30
0.0
 40
0.0571748979265143
 50
189.9004370954544072
 51
333.2109008346732253
  0
ARC
  5
E348
  8
0
 10
-0.0057753637981373
 20
6.7556236797874307
 30
0.0
 40
0.1545474103848246
 50
148.5699090532361026
 51
205.5539283392585901
  0
ARC
  5
E349
  8
0
 10
-0.0040513067647785
 20
6.7545700676671361
 30
0.0
 40
0.1565679229817427
 50
94.6016595578472135
 51
148.5699090532361026
  0
ARC
  5
E34A
  8
0
 10
-0.003074296924007
 20
6.7424313756547418
 30
0.0
 40
0.1687458699351798
 50
48.1008039554857803
 51
94.6016595578472135
  0
ARC
  5
E34B
  8
0
 10
0.0058231213397786
 20
6.7523479902845356
 30
0.0
 40
0.1554228335891892
 50
351.0599616289184723
 51
48.1008039554859366
  0
ARC
  5
E34C
  8
0
 10
0.0053573401635392
 20
6.7524212631770393
 30
0.0
 40
0.1558943428901734
 50
279.3803519919903238
 51
351.0599616289184155
  0
ARC
  5
E34D
  8
0
 10
0.0037017808607542
 20
6.7624430132905538
 30
0.0
 40
0.1660519189761692
 50
206.2661930591767998
 51
279.3803519919903806
  0
ARC
  5
E34E
  8
0
 10
0.4767628364555172
 20
6.7566219843774444
 30
0.0
 40
0.1431890633106103
 50
137.1714499051188056
 51
192.9673212281348071
  0
ARC
  5
E34F
  8
0
 10
0.4655342449684463
 20
6.7670301718250974
 30
0.0
 40
0.1278785560450421
 50
93.460118807798807
 51
137.1714499051188056
  0
ARC
  5
E350
  8
0
 10
0.4674553439168055
 20
6.7352575577774854
 30
0.0
 40
0.1597091957588133
 50
55.6227615523113386
 51
93.4601188077988354
  0
ARC
  5
E351
  8
0
 10
0.483663478038169
 20
6.758949125152748
 30
0.0
 40
0.1310039004913409
 50
1.899962268275269
 51
55.622761552311637
  0
ARC
  5
E352
  8
0
 10
0.4718138601576812
 20
6.758556040654268
 30
0.0
 40
0.142860036427493
 50
305.3887015531316251
 51
1.8999622682748369
  0
ARC
  5
E353
  8
0
 10
0.4735156817378501
 20
6.7561603447066521
 30
0.0
 40
0.1399214048132639
 50
193.0814773199249998
 51
305.388701553131682
  0
ARC
  5
E354
  8
0
 10
0.4744698379459012
 20
6.7846016802571301
 30
0.0
 40
0.0897496050525474
 50
81.6401802400090304
 51
159.1673860479488951
  0
ARC
  5
E355
  8
0
 10
0.4729461846787109
 20
6.7895308273415749
 30
0.0
 40
0.0851234160082203
 50
24.3254948357683283
 51
80.1429829916898342
  0
ARC
  5
E356
  8
0
 10
0.4680143233487622
 20
6.7873013641166642
 30
0.0
 40
0.0905357872490971
 50
332.4385027750349764
 51
24.3254948357680512
  0
ARC
  5
E357
  8
0
 10
0.4729374607260475
 20
6.7847318211579646
 30
0.0
 40
0.0849824249655595
 50
230.0932739716477897
 51
332.4385027750356016
  0
ARC
  5
E358
  8
0
 10
0.4761712308555639
 20
6.7885984443546779
 30
0.0
 40
0.0900230642301669
 50
161.9310301493011082
 51
230.0932739716477897
  0
ARC
  5
E359
  8
0
 10
0.4722110631714314
 20
6.7868322986775542
 30
0.0
 40
0.0567926516022018
 50
115.8427885737360015
 51
189.5674353762287865
  0
ARC
  5
E35A
  8
0
 10
0.4724723127417461
 20
6.786292906357791
 30
0.0
 40
0.0573919807376579
 50
41.6697701984409576
 51
115.8427885737363994
  0
ARC
  5
E35B
  8
0
 10
0.4731608685021307
 20
6.7869057357928577
 30
0.0
 40
0.0564702058455919
 50
333.2109008346732253
 51
41.6697701984402826
  0
ARC
  5
E35C
  8
0
 10
0.4725318099058749
 20
6.7872233459491671
 30
0.0
 40
0.0571748979265143
 50
189.9004370954544072
 51
333.2109008346732253
  0
ARC
  5
E35D
  8
0
 10
0.4666548753936084
 20
6.7556236787828814
 30
0.0
 40
0.1545474103848246
 50
148.5699090532361026
 51
205.5539283392585901
  0
ARC
  5
E35E
  8
0
 10
0.4683789324269672
 20
6.7545700666625859
 30
0.0
 40
0.1565679229817427
 50
94.6016595578472135
 51
148.5699090532361026
  0
ARC
  5
E35F
  8
0
 10
0.4693559422677387
 20
6.7424313746501916
 30
0.0
 40
0.1687458699351798
 50
48.1008039554857803
 51
94.6016595578472135
  0
ARC
  5
E360
  8
0
 10
0.4782533605315243
 20
6.7523479892799863
 30
0.0
 40
0.1554228335891892
 50
351.0599616289184723
 51
48.1008039554859366
  0
ARC
  5
E361
  8
0
 10
0.4777875793552849
 20
6.7524212621724891
 30
0.0
 40
0.1558943428901734
 50
279.3803519919903238
 51
351.0599616289184155
  0
ARC
  5
E362
  8
0
 10
0.4761320200524999
 20
6.7624430122860044
 30
0.0
 40
0.1660519189761692
 50
206.2661930591767998
 51
279.3803519919903806
  0
ARC
  5
E363
  8
0
 10
0.4767735421637714
 20
6.3001176109819941
 30
0.0
 40
0.1431890633106103
 50
137.1714499051188056
 51
192.9673212281348071
  0
ARC
  5
E364
  8
0
 10
0.4655449506767005
 20
6.310525798429647
 30
0.0
 40
0.1278785560450421
 50
93.460118807798807
 51
137.1714499051188056
  0
ARC
  5
E365
  8
0
 10
0.4674660496250596
 20
6.278753184382035
 30
0.0
 40
0.1597091957588133
 50
55.6227615523113386
 51
93.4601188077988354
  0
ARC
  5
E366
  8
0
 10
0.4836741837464232
 20
6.3024447517572977
 30
0.0
 40
0.1310039004913409
 50
1.8999622682752759
 51
55.622761552311637
  0
ARC
  5
E367
  8
0
 10
0.4718245658659353
 20
6.3020516672588176
 30
0.0
 40
0.142860036427493
 50
305.3887015531316251
 51
1.8999622682748369
  0
ARC
  5
E368
  8
0
 10
0.4735263874461042
 20
6.2996559713112017
 30
0.0
 40
0.1399214048132639
 50
193.0814773199249998
 51
305.388701553131682
  0
ARC
  5
E369
  8
0
 10
0.4744805436541553
 20
6.3280973068616797
 30
0.0
 40
0.0897496050525474
 50
81.6401802400090304
 51
159.1673860479488951
  0
ARC
  5
E36A
  8
0
 10
0.472956890386965
 20
6.3330264539461254
 30
0.0
 40
0.0851234160082203
 50
24.3254948357683283
 51
80.1429829916898342
  0
ARC
  5
E36B
  8
0
 10
0.4680250290570163
 20
6.3307969907212129
 30
0.0
 40
0.0905357872490971
 50
332.4385027750349764
 51
24.3254948357680512
  0
ARC
  5
E36C
  8
0
 10
0.4729481664343016
 20
6.3282274477625151
 30
0.0
 40
0.0849824249655595
 50
230.0932739716477897
 51
332.4385027750356016
  0
ARC
  5
E36D
  8
0
 10
0.4761819365638181
 20
6.3320940709592284
 30
0.0
 40
0.0900230642301669
 50
161.9310301493011082
 51
230.0932739716477897
  0
ARC
  5
E36E
  8
0
 10
0.4722217688796855
 20
6.330327925282103
 30
0.0
 40
0.0567926516022018
 50
115.8427885737360015
 51
189.5674353762287865
  0
ARC
  5
E36F
  8
0
 10
0.4724830184500002
 20
6.3297885329623407
 30
0.0
 40
0.0573919807376579
 50
41.6697701984409576
 51
115.8427885737363994
  0
ARC
  5
E370
  8
0
 10
0.4731715742103848
 20
6.3304013623974082
 30
0.0
 40
0.0564702058455919
 50
333.2109008346732253
 51
41.6697701984402826
  0
ARC
  5
E371
  8
0
 10
0.472542515614129
 20
6.3307189725537159
 30
0.0
 40
0.0571748979265143
 50
189.9004370954544072
 51
333.2109008346732253
  0
ARC
  5
E372
  8
0
 10
0.4666655811018626
 20
6.299119305387431
 30
0.0
 40
0.1545474103848246
 50
148.5699090532361026
 51
205.5539283392585901
  0
ARC
  5
E373
  8
0
 10
0.4683896381352213
 20
6.2980656932671364
 30
0.0
 40
0.1565679229817427
 50
94.6016595578472135
 51
148.5699090532361026
  0
ARC
  5
E374
  8
0
 10
0.4693666479759929
 20
6.2859270012547421
 30
0.0
 40
0.1687458699351798
 50
48.1008039554857803
 51
94.6016595578472135
  0
ARC
  5
E375
  8
0
 10
0.4782640662397784
 20
6.295843615884535
 30
0.0
 40
0.1554228335891892
 50
351.0599616289184723
 51
48.1008039554859366
  0
ARC
  5
E376
  8
0
 10
0.477798285063539
 20
6.2959168887770378
 30
0.0
 40
0.1558943428901734
 50
279.3803519919903238
 51
351.0599616289184155
  0
ARC
  5
E377
  8
0
 10
0.476142725760754
 20
6.3059386388905541
 30
0.0
 40
0.1660519189761692
 50
206.2661930591767998
 51
279.3803519919903806
  0
ARC
  5
E378
  8
0
 10
0.0035613178637703
 20
6.3001002584819954
 30
0.0
 40
0.1431890633106103
 50
137.1714499051188056
 51
192.9673212281348071
  0
ARC
  5
E379
  8
0
 10
-0.0076672736233006
 20
6.3105084459296483
 30
0.0
 40
0.1278785560450421
 50
93.460118807798807
 51
137.1714499051188056
  0
ARC
  5
E37A
  8
0
 10
-0.0057461746749414
 20
6.2787358318820363
 30
0.0
 40
0.1597091957588133
 50
55.6227615523113386
 51
93.4601188077988354
  0
ARC
  5
E37B
  8
0
 10
0.0104619594464222
 20
6.302427399257299
 30
0.0
 40
0.1310039004913409
 50
1.8999622682752759
 51
55.622761552311637
  0
ARC
  5
E37C
  8
0
 10
-0.0013876584340657
 20
6.3020343147588189
 30
0.0
 40
0.142860036427493
 50
305.3887015531316251
 51
1.8999622682748369
  0
ARC
  5
E37D
  8
0
 10
0.0003141631461032
 20
6.299638618811203
 30
0.0
 40
0.1399214048132639
 50
193.0814773199249998
 51
305.388701553131682
  0
ARC
  5
E37E
  8
0
 10
0.0012683193541543
 20
6.328079954361681
 30
0.0
 40
0.0897496050525474
 50
81.6401802400090304
 51
159.1673860479488951
  0
ARC
  5
E37F
  8
0
 10
-0.000255333913036
 20
6.3330091014461258
 30
0.0
 40
0.0851234160082203
 50
24.3254948357683283
 51
80.1429829916898342
  0
ARC
  5
E380
  8
0
 10
-0.0051871952429847
 20
6.3307796382212151
 30
0.0
 40
0.0905357872490971
 50
332.4385027750349764
 51
24.3254948357680512
  0
ARC
  5
E381
  8
0
 10
-0.0002640578656994
 20
6.3282100952625164
 30
0.0
 40
0.0849824249655595
 50
230.0932739716477897
 51
332.4385027750356016
  0
ARC
  5
E382
  8
0
 10
0.002969712263817
 20
6.3320767184592288
 30
0.0
 40
0.0900230642301669
 50
161.9310301493011082
 51
230.0932739716477897
  0
ARC
  5
E383
  8
0
 10
-0.0009904554203155
 20
6.3303105727821052
 30
0.0
 40
0.0567926516022018
 50
115.8427885737360015
 51
189.5674353762287865
  0
ARC
  5
E384
  8
0
 10
-0.0007292058500008
 20
6.329771180462342
 30
0.0
 40
0.0573919807376579
 50
41.6697701984409576
 51
115.8427885737363994
  0
ARC
  5
E385
  8
0
 10
-0.0000406500896162
 20
6.3303840098974087
 30
0.0
 40
0.0564702058455919
 50
333.2109008346732253
 51
41.6697701984402826
  0
ARC
  5
E386
  8
0
 10
-0.000669708685872
 20
6.3307016200537181
 30
0.0
 40
0.0571748979265143
 50
189.9004370954544072
 51
333.2109008346732253
  0
ARC
  5
E387
  8
0
 10
-0.0065466431981385
 20
6.2991019528874324
 30
0.0
 40
0.1545474103848246
 50
148.5699090532361026
 51
205.5539283392585901
  0
ARC
  5
E388
  8
0
 10
-0.0048225861647797
 20
6.2980483407671368
 30
0.0
 40
0.1565679229817427
 50
94.6016595578472135
 51
148.5699090532361026
  0
ARC
  5
E389
  8
0
 10
-0.0038455763240082
 20
6.2859096487547426
 30
0.0
 40
0.1687458699351798
 50
48.1008039554857803
 51
94.6016595578472135
  0
ARC
  5
E38A
  8
0
 10
0.0050518419397774
 20
6.2958262633845372
 30
0.0
 40
0.1554228335891892
 50
351.0599616289184723
 51
48.1008039554859366
  0
ARC
  5
E38B
  8
0
 10
0.004586060763538
 20
6.29589953627704
 30
0.0
 40
0.1558943428901734
 50
279.3803519919903238
 51
351.0599616289184155
  0
ARC
  5
E38C
  8
0
 10
0.002930501460753
 20
6.3059212863905554
 30
0.0
 40
0.1660519189761692
 50
206.2661930591767998
 51
279.3803519919903806
  0
ARC
  5
E38D
  8
0
 10
-0.4681083476362291
 20
6.3001176109819941
 30
0.0
 40
0.1431890633106103
 50
137.1714499051188056
 51
192.9673212281348071
  0
ARC
  5
E38E
  8
0
 10
-0.4793369391233
 20
6.310525798429647
 30
0.0
 40
0.1278785560450421
 50
93.460118807798807
 51
137.1714499051188056
  0
ARC
  5
E38F
  8
0
 10
-0.4774158401749409
 20
6.278753184382035
 30
0.0
 40
0.1597091957588133
 50
55.6227615523113386
 51
93.4601188077988354
  0
ARC
  5
E390
  8
0
 10
-0.4612077060535773
 20
6.3024447517572977
 30
0.0
 40
0.1310039004913409
 50
1.8999622682752759
 51
55.622761552311637
  0
ARC
  5
E391
  8
0
 10
-0.4730573239340652
 20
6.3020516672588176
 30
0.0
 40
0.142860036427493
 50
305.3887015531316251
 51
1.8999622682748369
  0
ARC
  5
E392
  8
0
 10
-0.4713555023538963
 20
6.2996559713112017
 30
0.0
 40
0.1399214048132639
 50
193.0814773199249998
 51
305.388701553131682
  0
ARC
  5
E393
  8
0
 10
-0.4704013461458452
 20
6.3280973068616797
 30
0.0
 40
0.0897496050525474
 50
81.6401802400090304
 51
159.1673860479488951
  0
ARC
  5
E394
  8
0
 10
-0.4719249994130355
 20
6.3330264539461254
 30
0.0
 40
0.0851234160082203
 50
24.3254948357683283
 51
80.1429829916898342
  0
ARC
  5
E395
  8
0
 10
-0.4768568607429842
 20
6.3307969907212129
 30
0.0
 40
0.0905357872490971
 50
332.4385027750349764
 51
24.3254948357680512
  0
ARC
  5
E396
  8
0
 10
-0.4719337233656989
 20
6.3282274477625151
 30
0.0
 40
0.0849824249655595
 50
230.0932739716477897
 51
332.4385027750356016
  0
ARC
  5
E397
  8
0
 10
-0.4686999532361824
 20
6.3320940709592284
 30
0.0
 40
0.0900230642301669
 50
161.9310301493011082
 51
230.0932739716477897
  0
ARC
  5
E398
  8
0
 10
-0.472660120920315
 20
6.330327925282103
 30
0.0
 40
0.0567926516022018
 50
115.8427885737360015
 51
189.5674353762287865
  0
ARC
  5
E399
  8
0
 10
-0.4723988713500003
 20
6.3297885329623407
 30
0.0
 40
0.0573919807376579
 50
41.6697701984409576
 51
115.8427885737363994
  0
ARC
  5
E39A
  8
0
 10
-0.4717103155896157
 20
6.3304013623974082
 30
0.0
 40
0.0564702058455919
 50
333.2109008346732253
 51
41.6697701984402826
  0
ARC
  5
E39B
  8
0
 10
-0.4723393741858715
 20
6.3307189725537159
 30
0.0
 40
0.0571748979265143
 50
189.9004370954544072
 51
333.2109008346732253
  0
ARC
  5
E39C
  8
0
 10
-0.478216308698138
 20
6.299119305387431
 30
0.0
 40
0.1545474103848246
 50
148.5699090532361026
 51
205.5539283392585901
  0
ARC
  5
E39D
  8
0
 10
-0.4764922516647792
 20
6.2980656932671364
 30
0.0
 40
0.1565679229817427
 50
94.6016595578472135
 51
148.5699090532361026
  0
ARC
  5
E39E
  8
0
 10
-0.4755152418240077
 20
6.2859270012547421
 30
0.0
 40
0.1687458699351798
 50
48.1008039554857803
 51
94.6016595578472135
  0
ARC
  5
E39F
  8
0
 10
-0.4666178235602221
 20
6.295843615884535
 30
0.0
 40
0.1554228335891892
 50
351.0599616289184723
 51
48.1008039554859366
  0
ARC
  5
E3A0
  8
0
 10
-0.4670836047364615
 20
6.2959168887770378
 30
0.0
 40
0.1558943428901734
 50
279.3803519919903238
 51
351.0599616289184155
  0
ARC
  5
E3A1
  8
0
 10
-0.4687391640392465
 20
6.3059386388905541
 30
0.0
 40
0.1660519189761692
 50
206.2661930591767998
 51
279.3803519919903806
  0
ARC
  5
E3A2
  8
0
 10
-0.3062298321787624
 20
6.6883137046774106
 30
0.0
 40
0.4849520159697876
 50
135.6172404650330918
 51
173.7012167809342031
  0
ARC
  5
E3A3
  8
0
 10
-0.2910699888144341
 20
6.673477022733973
 30
0.0
 40
0.5061639932920866
 50
95.8512460599822163
 51
135.6172404650328929
  0
ARC
  5
E3A4
  8
0
 10
0.0000005721825866
 20
3.8332105594751109
 30
0.0
 40
3.3613059606541511
 50
84.1487675165133169
 51
95.8512460599821452
  0
ARC
  5
E3A5
  8
0
 10
0.29105524400644
 20
6.6733286120806561
 30
0.0
 40
0.5063132505537565
 50
46.0327152143522724
 51
84.1487675165132742
  0
ARC
  5
E3A6
  8
0
 10
0.3049818827423518
 20
6.6877665574138936
 30
0.0
 40
0.4862532024001217
 50
6.3466452418191759
 51
46.0327152143522014
  0
ARC
  5
E3A7
  8
0
 10
-1.0887955183003131
 20
6.5327434738604531
 30
0.0
 40
1.8886253356413889
 50
353.6621152590159909
 51
6.3466452418192034
  0
ARC
  5
E3A8
  8
0
 10
0.3028372374927564
 20
6.3781743374868141
 30
0.0
 40
0.4884348682707869
 50
314.0028433302712756
 51
353.6621152590158772
  0
ARC
  5
E3A9
  8
0
 10
0.2772030236337146
 20
6.404716706920575
 30
0.0
 40
0.5253348722725399
 50
277.1617674867944174
 51
314.0028433302712187
  0
ARC
  5
E3AA
  8
0
 10
-0.0000033472707948
 20
8.6108691545791025
 30
0.0
 40
2.748834814791036
 50
262.8383790819461865
 51
277.1617674867944174
  0
ARC
  5
E3AB
  8
0
 10
-0.2772046871490756
 20
6.4047111227205047
 30
0.0
 40
0.5253299588564891
 50
225.9969450896616081
 51
262.8383790819460728
  0
ARC
  5
E3AC
  8
0
 10
-0.3028455928726412
 20
6.378162020545262
 30
0.0
 40
0.4884204631590907
 50
186.336721673090608
 51
225.9969450896614944
  0
ARC
  5
E3AD
  8
0
 10
1.088706752368477
 20
6.5327623551359597
 30
0.0
 40
1.8885344555879069
 50
173.6536040314585136
 51
186.3387939799387141
  0
ARC
  5
E3AE
  8
0
 10
-0.2677920031196885
 20
8.0108488775781161
 30
0.0
 40
0.0236640196824211
 50
81.7082104625763463
 51
176.1429726803685014
  0
ARC
  5
E3AF
  8
0
 10
-0.2678276439438276
 20
8.0106043232802921
 30
0.0
 40
0.0239111574434564
 50
347.4286929020789785
 51
81.7082104625762327
  0
ARC
  5
E3B0
  8
0
 10
-0.2676976909025148
 20
8.0105753436565905
 30
0.0
 40
0.0237780123664308
 50
175.5006283509241882
 51
347.4286929020785806
  0
ARC
  5
E3B1
  8
0
 10
-0.2684184678954491
 20
8.0156499664837888
 30
0.0
 40
0.0631947276795314
 50
120.0619493814996019
 51
188.03357948185689
  0
ARC
  5
E3B2
  8
0
 10
-0.2678935992337923
 20
8.0147431330476397
 30
0.0
 40
0.0642425034155125
 50
53.6285904823427089
 51
120.0619493814999004
  0
ARC
  5
E3B3
  8
0
 10
-0.2678222345812271
 20
8.0148400309013041
 30
0.0
 40
0.064122161786469
 50
350.6988457046595045
 51
53.6285904823426591
  0
ARC
  5
E3B4
  8
0
 10
-0.2675982101045715
 20
8.0148189145435111
 30
0.0
 40
0.0638976716248421
 50
187.1928845777428023
 51
350.685064683553378
  0
ARC
  5
E3B5
  8
0
 10
0.2687208555695317
 20
5.0488786770620786
 30
0.0
 40
0.022203803553354
 50
5.4764213233070134
 51
70.2847122856311728
  0
ARC
  5
E3B6
  8
0
 10
0.267509907018626
 20
5.045499470219724
 30
0.0
 40
0.0257934324027415
 50
70.2847122856310733
 51
136.9338585530373962
  0
ARC
  5
E3B7
  8
0
 10
0.2641006729330826
 20
5.0486859982533954
 30
0.0
 40
0.0211268664319871
 50
136.9338585530375951
 51
199.1408044376177884
  0
ARC
  5
E3B8
  8
0
 10
0.2666986717781237
 20
5.0503388726296921
 30
0.0
 40
0.024133634330316
 50
200.8257985579928118
 51
1.564371341174654
  0
ARC
  5
E3B9
  8
0
 10
0.2682128411234643
 20
5.0511225039287506
 30
0.0
 40
0.0636184140034869
 50
32.1706627352145418
 51
99.0485724145884916
  0
ARC
  5
E3BA
  8
0
 10
0.2664391741181511
 20
5.0501816461073128
 30
0.0
 40
0.0642966817874984
 50
97.355594235303883
 51
155.3686801569564011
  0
ARC
  5
E3BB
  8
0
 10
0.2621227374104675
 20
5.0530966198293532
 30
0.0
 40
0.0591642251387666
 50
156.19258246636781
 51
217.754946235466889
  0
ARC
  5
E3BC
  8
0
 10
0.2662968433696475
 20
5.0600381928118408
 30
0.0
 40
0.0667790712797665
 50
220.2718267241637022
 51
329.0369240728492741
  0
ARC
  5
E3BD
  8
0
 10
0.2723019924419789
 20
5.0540644196280979
 30
0.0
 40
0.058591520617925
 50
331.0253072258007023
 51
31.8645914022645194
  0
ARC
  5
E3BE
  8
0
 10
0.7713296964283414
 20
5.232330337525549
 30
0.0
 40
0.0227136679042605
 50
12.1229667134483297
 51
99.3429820137468056
  0
ARC
  5
E3BF
  8
0
 10
0.7701334217901908
 20
5.2313367238857076
 30
0.0
 40
0.0235381633244444
 50
96.075261068669306
 51
198.2554596269133924
  0
ARC
  5
E3C0
  8
0
 10
0.7696339178439962
 20
5.2341001214010818
 30
0.0
 40
0.0240904784156542
 50
204.8839386701615126
 51
7.1544231307029387
  0
ARC
  5
E3C1
  8
0
 10
0.7731560182422728
 20
5.2366068414308282
 30
0.0
 40
0.0613342518985878
 50
25.4269366850730982
 51
79.9655157882112633
  0
ARC
  5
E3C2
  8
0
 10
0.7718853858800819
 20
5.2294260025732484
 30
0.0
 40
0.0686266419936384
 50
79.9655157882110501
 51
139.6393704559035882
  0
ARC
  5
E3C3
  8
0
 10
0.7639249288389998
 20
5.2361914560916363
 30
0.0
 40
0.0581796214799997
 50
139.639370455903304
 51
214.3940882130891055
  0
ARC
  5
E3C4
  8
0
 10
0.7690860064254892
 20
5.2397245375395318
 30
0.0
 40
0.064434170734041
 50
214.3940882130891055
 51
323.5688316451689843
  0
ARC
  5
E3C5
  8
0
 10
0.7701964140214175
 20
5.2389615648359689
 30
0.0
 40
0.063087689167895
 50
323.5274568052943778
 51
22.3399816003244105
  0
ARC
  5
E3C6
  8
0
 10
1.1817845407975589
 20
5.572324353191437
 30
0.0
 40
0.0223025492753584
 50
20.9471180584537002
 51
99.0093221691350323
  0
ARC
  5
E3C7
  8
0
 10
1.182553539784184
 20
5.567474192186058
 30
0.0
 40
0.0272132947604693
 50
99.0093221691358281
 51
148.3733103494012937
  0
ARC
  5
E3C8
  8
0
 10
1.1778916495390319
 20
5.5711159253997451
 30
0.0
 40
0.0213442052662329
 50
150.1352308123036892
 51
222.4684979684238044
  0
ARC
  5
E3C9
  8
0
 10
1.1818702621077981
 20
5.5728805162210877
 30
0.0
 40
0.0220290842743699
 50
310.6000968545210981
 51
19.6757884632374207
  0
ARC
  5
E3CA
  8
0
 10
1.1794663319507841
 20
5.5743609387740891
 30
0.0
 40
0.0247325633703965
 50
225.5521898532489047
 51
312.5969809830602912
  0
ARC
  5
E3CB
  8
0
 10
1.1817933458517791
 20
5.5738945217529361
 30
0.0
 40
0.0641549076120082
 50
36.8737653935433585
 51
104.9564969667188024
  0
ARC
  5
E3CC
  8
0
 10
1.1823715940464941
 20
5.5717298972990941
 30
0.0
 40
0.0663954365676044
 50
104.956496966718106
 51
177.9715157609956862
  0
ARC
  5
E3CD
  8
0
 10
1.168862249513835
 20
5.5722083783990737
 30
0.0
 40
0.0528776211425755
 50
177.9715157609954872
 51
234.657087259812613
  0
ARC
  5
E3CE
  8
0
 10
1.1776256391220279
 20
5.5845657222048271
 30
0.0
 40
0.06802690968556
 50
234.6570872598124993
 51
336.4696128496373149
  0
ARC
  5
E3CF
  8
0
 10
1.190187154319599
 20
5.579095896504513
 30
0.0
 40
0.0543261557920457
 50
336.4696128496373149
 51
37.7975310970302232
  0
ARC
  5
E3D0
  8
0
 10
1.4492401514621669
 20
6.0255153836207844
 30
0.0
 40
0.022204514343205
 50
314.0251161753178053
 51
52.8092305344693003
  0
ARC
  5
E3D1
  8
0
 10
1.4487822437701301
 20
6.0227972050296978
 30
0.0
 40
0.0246798075620965
 50
55.7781640256453031
 51
159.3448920919184104
  0
ARC
  5
E3D2
  8
0
 10
1.447453403038474
 20
6.0245626320610128
 30
0.0
 40
0.0228443062996823
 50
162.3138255830938874
 51
318.9139945889825185
  0
ARC
  5
E3D3
  8
0
 10
1.451321720250708
 20
6.0302734761301284
 30
0.0
 40
0.0606772434834065
 50
24.43823991077209
 51
83.0142379909047321
  0
ARC
  5
E3D4
  8
0
 10
1.4503569430292069
 20
6.022399821221998
 30
0.0
 40
0.0686097863732658
 50
83.0142379909050447
 51
144.6723438151871903
  0
ARC
  5
E3D5
  8
0
 10
1.4426986613708579
 20
6.027827738544361
 30
0.0
 40
0.0592230103336971
 50
144.6723438151869061
 51
217.4208952050580876
  0
ARC
  5
E3D6
  8
0
 10
1.446401948107886
 20
6.033216948094676
 30
0.0
 40
0.0654704418929867
 50
219.1974623654766958
 51
344.2686790870631057
  0
ARC
  5
E3D7
  8
0
 10
1.4524732583494631
 20
6.0314464772712881
 30
0.0
 40
0.059146547252794
 50
344.324923690602418
 51
23.8652352072598504
  0
ARC
  5
E3D8
  8
0
 10
1.5413589438396951
 20
6.5371595750033951
 30
0.0
 40
0.0234897455086432
 50
29.260434799207669
 51
148.5507104559341087
  0
ARC
  5
E3D9
  8
0
 10
1.5413897874501381
 20
6.5387741122613594
 30
0.0
 40
0.022716462144609
 50
152.0675172782084132
 51
25.7436279769385798
  0
ARC
  5
E3DA
  8
0
 10
1.5421047591053381
 20
6.5390970344717321
 30
0.0
 40
0.0651018277734629
 50
50.0474174500742208
 51
129.1808695502818125
  0
ARC
  5
E3DB
  8
0
 10
1.5411576493162309
 20
6.5402590977710231
 30
0.0
 40
0.0636026920010314
 50
129.1808695502820967
 51
220.140283726139586
  0
ARC
  5
E3DC
  8
0
 10
1.5391367934335169
 20
6.544151718304545
 30
0.0
 40
0.0647088374076123
 50
223.9314503617659113
 51
25.6250333956467884
  0
ARC
  5
E3DD
  8
0
 10
1.5400952884681449
 20
6.5398538796860457
 30
0.0
 40
0.0658432271996777
 50
29.3604663251453708
 51
48.2837763429085527
  0
ARC
  5
E3DE
  8
0
 10
1.44886250947012
 20
7.0499641762022982
 30
0.0
 40
0.0226452758778545
 50
13.8801920341145006
 51
98.2414728538597615
  0
ARC
  5
E3DF
  8
0
 10
1.449249546933554
 20
7.0472920248772501
 30
0.0
 40
0.0253453111928173
 50
98.2414728538591362
 51
156.6553625628787927
  0
ARC
  5
E3E0
  8
0
 10
1.448107830923459
 20
7.0493085009527121
 30
0.0
 40
0.02353961616272
 50
160.0625226706256115
 51
14.9889246767732995
  0
ARC
  5
E3E1
  8
0
 10
1.449584494543825
 20
7.0541235338288031
 30
0.0
 40
0.0626268043628675
 50
33.3900383552917077
 51
106.4712723192509998
  0
ARC
  5
E3E2
  8
0
 10
1.4478771454735431
 20
7.0522285383570056
 30
0.0
 40
0.0639968967545797
 50
104.5240181617215995
 51
204.2489472251567975
  0
ARC
  5
E3E3
  8
0
 10
1.446800797983518
 20
7.0552938475272553
 30
0.0
 40
0.0643558999633647
 50
207.1319740914454997
 51
31.1556194405290583
  0
ARC
  5
E3E4
  8
0
 10
1.1806078439963339
 20
7.4984475138872142
 30
0.0
 40
0.0241022666195101
 50
57.0223631373114586
 51
141.6172466182669893
  0
ARC
  5
E3E5
  8
0
 10
1.1804896020354381
 20
7.49916801278939
 30
0.0
 40
0.0235673356925551
 50
142.8119214474610033
 51
55.8276883081208126
  0
ARC
  5
E3E6
  8
0
 10
1.1813062108504111
 20
7.503569642071203
 30
0.0
 40
0.063409488600342
 50
47.034974102924842
 51
111.4915464308950988
  0
ARC
  5
E3E7
  8
0
 10
1.1823793258176729
 20
7.500844201850084
 30
0.0
 40
0.0663385840463571
 50
111.4915464308950988
 51
180.6092317912462875
  0
ARC
  5
E3E8
  8
0
 10
1.179924914083234
 20
7.5040045699340032
 30
0.0
 40
0.0639972833395154
 50
183.4630451346218081
 51
358.6310093497352227
  0
ARC
  5
E3E9
  8
0
 10
1.182559454077432
 20
7.5051452721678977
 30
0.0
 40
0.0614025399666542
 50
357.5080997793829738
 51
46.8886724150445033
  0
ARC
  5
E3EA
  8
0
 10
0.770282370835278
 20
7.8332520250919018
 30
0.0
 40
0.0235102647222793
 50
21.4605060836379984
 51
124.7022825617962951
  0
ARC
  5
E3EB
  8
0
 10
0.770284470839548
 20
7.8332589289589603
 30
0.0
 40
0.0235057851446061
 50
124.7160713944088997
 51
21.4467172510207504
  0
ARC
  5
E3EC
  8
0
 10
0.7707313551532069
 20
7.8375854571034456
 30
0.0
 40
0.0635765360253266
 50
38.69252639309871
 51
111.2810369490663049
  0
ARC
  5
E3ED
  8
0
 10
0.7707313551531998
 20
7.8375854571034642
 30
0.0
 40
0.0635765360253069
 50
111.2810369490664044
 51
38.6925263895019498
  0
ARC
  5
E3EE
  8
0
 10
0.2670398550196884
 20
8.0108488775781161
 30
0.0
 40
0.0236640196824211
 50
3.857027319631444
 51
98.2917895374236679
  0
ARC
  5
E3EF
  8
0
 10
0.2670754958438275
 20
8.0106043232802921
 30
0.0
 40
0.0239111574434564
 50
98.2917895374237816
 51
192.5713070979209078
  0
ARC
  5
E3F0
  8
0
 10
0.2669455428025147
 20
8.0105753436565905
 30
0.0
 40
0.0237780123664308
 50
192.5713070979213057
 51
4.4993716490758331
  0
ARC
  5
E3F1
  8
0
 10
0.267666319795449
 20
8.0156499664837888
 30
0.0
 40
0.0631947276795314
 50
351.9664205181430248
 51
59.938050618500391
  0
ARC
  5
E3F2
  8
0
 10
0.2671414511337922
 20
8.0147431330476397
 30
0.0
 40
0.0642425034155125
 50
59.9380506185000499
 51
126.3714095176572982
  0
ARC
  5
E3F3
  8
0
 10
0.267070086481227
 20
8.0148400309013041
 30
0.0
 40
0.064122161786469
 50
126.3714095176572982
 51
189.3011542953404955
  0
ARC
  5
E3F4
  8
0
 10
0.2668460620045714
 20
8.0148189145435111
 30
0.0
 40
0.0638976716248421
 50
189.3149353164465083
 51
352.807115422257084
  0
ARC
  5
E3F5
  8
0
 10
0.219023213282532
 20
8.4622918774581031
 30
0.0
 40
0.0637483000328943
 50
348.576539883549799
 51
62.9659586215506266
  0
ARC
  5
E3F6
  8
0
 10
0.2190087992542864
 20
8.4622636298369631
 30
0.0
 40
0.0637800126851089
 50
62.9659586215507474
 51
112.1047339187022942
  0
ARC
  5
E3F7
  8
0
 10
0.2193208411979102
 20
8.4614953453065702
 30
0.0
 40
0.0646092480523099
 50
112.1047339187031042
 51
145.6463125095671103
  0
ARC
  5
E3F8
  8
0
 10
0.2189194056004355
 20
8.4617697376492185
 30
0.0
 40
0.0641229953437082
 50
145.6463125095665134
 51
190.7098688988270965
  0
ARC
  5
E3F9
  8
0
 10
0.219169438853366
 20
8.4618170265288075
 30
0.0
 40
0.0643774611875917
 50
190.7098688988268975
 51
274.7282942236413987
  0
ARC
  5
E3FA
  8
0
 10
0.2192661867097554
 20
8.4606473331415568
 30
0.0
 40
0.0632037735085675
 50
274.7282942236413987
 51
349.9943469652164936
  0
ARC
  5
E3FB
  8
0
 10
0.2188466099599493
 20
8.4575259836320917
 30
0.0
 40
0.0237071320215189
 50
13.0563971963218997
 51
149.5496689948685969
  0
ARC
  5
E3FC
  8
0
 10
0.2190859810970318
 20
8.4573852626218144
 30
0.0
 40
0.0239848025889224
 50
149.5496689948676874
 51
238.720910525799809
  0
ARC
  5
E3FD
  8
0
 10
0.2187577047839078
 20
8.4573942472539301
 30
0.0
 40
0.0238237453220368
 50
239.4068908049773086
 51
13.3167286655028807
  0
ARC
  5
E3FE
  8
0
 10
0.6501906356927654
 20
8.3674411047394344
 30
0.0
 40
0.0632208722195704
 50
343.7049665077740883
 51
82.2132996570232137
  0
ARC
  5
E3FF
  8
0
 10
0.6500199317304141
 20
8.3661927804665321
 30
0.0
 40
0.0644808140170655
 50
82.2132996570232137
 51
148.6366129334082871
  0
ARC
  5
E400
  8
0
 10
0.6503436507118315
 20
8.3659954653822375
 30
0.0
 40
0.0648599277485769
 50
148.6366129334080881
 51
207.2805519924548889
  0
ARC
  5
E401
  8
0
 10
0.6487288642800353
 20
8.3651627059597153
 30
0.0
 40
0.0630430558554279
 50
207.2805519924555142
 51
291.5600613753657058
  0
ARC
  5
E402
  8
0
 10
0.6478300178914242
 20
8.3674375643977861
 30
0.0
 40
0.0654890537588585
 50
291.5600613753651942
 51
344.2874339152575089
  0
ARC
  5
E403
  8
0
 10
0.6495426596209466
 20
8.3622280123632962
 30
0.0
 40
0.0236489724367828
 50
336.9526543584577212
 51
116.0226367540044947
  0
ARC
  5
E404
  8
0
 10
0.6496562392045604
 20
8.3619953730289822
 30
0.0
 40
0.0239078573179289
 50
116.0226367540042958
 51
234.5409298817698129
  0
ARC
  5
E405
  8
0
 10
0.6494420821180729
 20
8.361694681739678
 30
0.0
 40
0.0235386981257682
 50
234.5409298817693866
 51
338.2431735506809218
  0
ARC
  5
E406
  8
0
 10
1.048506723376371
 20
8.181671704164998
 30
0.0
 40
0.0631008668033895
 50
5.7312363150055301
 51
79.6745638032025028
  0
ARC
  5
E407
  8
0
 10
1.048253870377704
 20
8.1802838465989591
 30
0.0
 40
0.0645115699126733
 50
79.6745638032026022
 51
140.8827713051753108
  0
ARC
  5
E408
  8
0
 10
1.0490437267422561
 20
8.1796415532783673
 30
0.0
 40
0.0655296140110812
 50
140.8827713051755097
 51
198.2103259180055943
  0
ARC
  5
E409
  8
0
 10
1.045988460804014
 20
8.1786364227675996
 30
0.0
 40
0.0623132593513683
 50
198.2103259180061059
 51
295.6398495180517898
  0
ARC
  5
E40A
  8
0
 10
1.043600368251008
 20
8.1836118729715235
 30
0.0
 40
0.0678321442725683
 50
295.6398495180521877
 51
3.6863375843145318
  0
ARC
  5
E40B
  8
0
 10
1.0476568263152051
 20
8.1767596169937047
 30
0.0
 40
0.0234600827701005
 50
9.9762423877202711
 51
141.1266579950234075
  0
ARC
  5
E40C
  8
0
 10
1.0476568263152051
 20
8.1767596169937047
 30
0.0
 40
0.0234600827701007
 50
141.1266579950236917
 51
9.9762423877202444
  0
ARC
  5
E40D
  8
0
 10
1.3946897681036581
 20
7.9156131419121749
 30
0.0
 40
0.0620357894019371
 50
339.7815438900074128
 51
67.7051665944538996
  0
ARC
  5
E40E
  8
0
 10
1.393929140035933
 20
7.913758062587962
 30
0.0
 40
0.0640407518346359
 50
67.7051665944536865
 51
126.1602984560913967
  0
ARC
  5
E40F
  8
0
 10
1.3954789399097409
 20
7.9116374479876876
 30
0.0
 40
0.0666673248741215
 50
126.1602984560916951
 51
186.8939040730344061
  0
ARC
  5
E410
  8
0
 10
1.3922324951609311
 20
7.913721469278066
 30
0.0
 40
0.0637419334243045
 50
189.1044426904288969
 51
342.1411593363832253
  0
ARC
  5
E411
  8
0
 10
1.392837002460205
 20
7.9100504335230362
 30
0.0
 40
0.0235837696735932
 50
2.4859905293409401
 51
110.8221666243376973
  0
ARC
  5
E412
  8
0
 10
1.3930145841333259
 20
7.9095834907393829
 30
0.0
 40
0.0240833403030659
 50
110.8221666243379957
 51
214.1771813313947064
  0
ARC
  5
E413
  8
0
 10
1.3925753408241111
 20
7.9098188392504873
 30
0.0
 40
0.0238562451524729
 50
215.2374802982529047
 51
3.0144383376761419
  0
ARC
  5
E414
  8
0
 10
1.6710144866487751
 20
7.5817849818671501
 30
0.0
 40
0.0610096579977862
 50
348.9443858945477928
 51
79.4342900508727894
  0
ARC
  5
E415
  8
0
 10
1.6700540290254811
 20
7.5766357804038602
 30
0.0
 40
0.0662476685510113
 50
79.4342900508731162
 51
132.7686005440154133
  0
ARC
  5
E416
  8
0
 10
1.669200453531102
 20
7.5775585719867919
 30
0.0
 40
0.0649906341719531
 50
132.7686005440152996
 51
193.4160881724509125
  0
ARC
  5
E417
  8
0
 10
1.6675950115724709
 20
7.5801198012868056
 30
0.0
 40
0.0640872817600768
 50
195.9772847178051052
 51
350.9921459240596846
  0
ARC
  5
E418
  8
0
 10
1.668837671991283
 20
7.5757238529931854
 30
0.0
 40
0.0229654003088803
 50
340.2174143387525191
 51
66.3158062630111402
  0
ARC
  5
E419
  8
0
 10
1.6686368463044801
 20
7.5752660161782943
 30
0.0
 40
0.0234653458114598
 50
66.315806263011126
 51
150.555304722025312
  0
ARC
  5
E41A
  8
0
 10
1.669765729359026
 20
7.5746287625423001
 30
0.0
 40
0.024761674916057
 50
150.5553047220257952
 51
219.9937134058249057
  0
ARC
  5
E41B
  8
0
 10
1.6678006857248591
 20
7.5754424746376241
 30
0.0
 40
0.0238539028390833
 50
224.5293293797755894
 51
341.6965585568319739
  0
ARC
  5
E41C
  8
0
 10
1.8634176559322471
 20
7.1967842907226753
 30
0.0
 40
0.0602095868288692
 50
356.0250830833894042
 51
81.9705267065933327
  0
ARC
  5
E41D
  8
0
 10
1.8623777781903139
 20
7.1894126924870001
 30
0.0
 40
0.0676541691721812
 50
81.9705267065934464
 51
138.9904254964303902
  0
ARC
  5
E41E
  8
0
 10
1.859075358624529
 20
7.192284411030454
 30
0.0
 40
0.0632777845477117
 50
138.9904254964303902
 51
204.0770949284178073
  0
ARC
  5
E41F
  8
0
 10
1.858348875593737
 20
7.1945002609565138
 30
0.0
 40
0.0635608321933047
 50
206.1683817072282068
 51
316.8742511004647895
  0
ARC
  5
E420
  8
0
 10
1.858089745131456
 20
7.197095055354036
 30
0.0
 40
0.065546250264566
 50
315.3734805938661907
 51
356.0769296601466749
  0
ARC
  5
E421
  8
0
 10
1.8610359399776359
 20
7.190703867277775
 30
0.0
 40
0.0223753961060033
 50
354.0412672654888979
 51
100.2410209982705993
  0
ARC
  5
E422
  8
0
 10
1.861522926641388
 20
7.188008383429354
 30
0.0
 40
0.0251145180798768
 50
100.2410209982712956
 51
174.597467254971491
  0
ARC
  5
E423
  8
0
 10
1.859917864652743
 20
7.1896742209045641
 30
0.0
 40
0.0234083238904585
 50
178.2894320157724906
 51
356.833086396658814
  0
ARC
  5
E424
  8
0
 10
1.961640958568686
 20
6.7786336559700313
 30
0.0
 40
0.0607842216037486
 50
7.1032149983120778
 51
76.2555161996515238
  0
ARC
  5
E425
  8
0
 10
1.9603508303327779
 20
6.7733591375826272
 30
0.0
 40
0.0662142285175697
 50
76.2555161996512254
 51
118.5582609948687036
  0
ARC
  5
E426
  8
0
 10
1.960451440045188
 20
6.7731742860377624
 30
0.0
 40
0.066424686132947
 50
118.558260994869002
 51
179.5680367695672999
  0
ARC
  5
E427
  8
0
 10
1.9514200491094009
 20
6.7732423766153413
 30
0.0
 40
0.0573930385223623
 50
179.5680367695667883
 51
239.6592156138574126
  0
ARC
  5
E428
  8
0
 10
1.9559017714701179
 20
6.7808994077406659
 30
0.0
 40
0.0662652401078063
 50
239.6592156138572989
 51
4.5447042175030257
  0
ARC
  5
E429
  8
0
 10
1.959379571780395
 20
6.7735374147365599
 30
0.0
 40
0.0223273071202395
 50
11.6381666249170692
 51
120.0615631663066978
  0
ARC
  5
E42A
  8
0
 10
1.961303056127405
 20
6.7702140937478861
 30
0.0
 40
0.0261671319114165
 50
120.0615631663078062
 51
188.8604882972518908
  0
ARC
  5
E42B
  8
0
 10
1.957999807240739
 20
6.7734574956672899
 30
0.0
 40
0.0236956719027244
 50
197.8768242938490118
 51
11.1544080645358399
  0
ARC
  5
E42C
  8
0
 10
1.963416095663596
 20
6.3517583602304688
 30
0.0
 40
0.0585922767874526
 50
345.3179556406548727
 51
53.5657701389712599
  0
ARC
  5
E42D
  8
0
 10
1.9607763405076939
 20
6.3481823582183692
 30
0.0
 40
0.0630370599850516
 50
53.5657701389710112
 51
105.6183316638724961
  0
ARC
  5
E42E
  8
0
 10
1.962844517378471
 20
6.3407841205662718
 30
0.0
 40
0.0707189396980979
 50
105.6183316638721976
 51
150.4342719586742021
  0
ARC
  5
E42F
  8
0
 10
1.9523319057962329
 20
6.3467478004491733
 30
0.0
 40
0.0586325638961995
 50
150.434271958674401
 51
227.728745822008193
  0
ARC
  5
E430
  8
0
 10
1.956117173091287
 20
6.353295923683504
 30
0.0
 40
0.0660435675016809
 50
229.1200426961073902
 51
345.6325197820972903
  0
ARC
  5
E431
  8
0
 10
1.9601085777337519
 20
6.345720685676552
 30
0.0
 40
0.0215884760328774
 50
353.3038072306231925
 51
91.107394151616873
  0
ARC
  5
E432
  8
0
 10
1.9601816005180159
 20
6.3419430096339973
 30
0.0
 40
0.0253668577776895
 50
91.1073941516166741
 51
171.6130105803206902
  0
ARC
  5
E433
  8
0
 10
1.9583384363448879
 20
6.344814156622248
 30
0.0
 40
0.02326717403468
 50
177.9585812901025008
 51
356.0302300164876783
  0
ARC
  5
E434
  8
0
 10
1.865723004170883
 20
5.9341685972189548
 30
0.0
 40
0.0580271938429836
 50
0.2311933213020798
 51
69.2135468248960422
  0
ARC
  5
E435
  8
0
 10
1.862261347956417
 20
5.9250492283403666
 30
0.0
 40
0.0677814725190769
 50
69.2135468248962553
 51
131.2836344275482077
  0
ARC
  5
E436
  8
0
 10
1.8596041374586529
 20
5.9280756105315771
 30
0.0
 40
0.0637540965996104
 50
131.2836344275486056
 51
181.9192150596622071
  0
ARC
  5
E437
  8
0
 10
1.852991940200311
 20
5.9278540413856424
 30
0.0
 40
0.0571381880853051
 50
181.9192150596624913
 51
256.3508763552972027
  0
ARC
  5
E438
  8
0
 10
1.8557129242841159
 20
5.9385377121407661
 30
0.0
 40
0.0681623379895584
 50
256.2474365295386747
 51
356.5220979567073982
  0
ARC
  5
E439
  8
0
 10
1.8623490259679829
 20
5.9282625945370384
 30
0.0
 40
0.0211153471601287
 50
355.4105273269320264
 51
93.8867896687893762
  0
ARC
  5
E43A
  8
0
 10
1.8627365240028579
 20
5.9225591898505439
 30
0.0
 40
0.0268319002951003
 50
93.8867896687879409
 51
154.1051924323784021
  0
ARC
  5
E43B
  8
0
 10
1.857112831721442
 20
5.9252892783172637
 30
0.0
 40
0.0205805566065658
 50
154.1051924323778906
 51
232.2304278858514976
  0
ARC
  5
E43C
  8
0
 10
1.858889538368542
 20
5.9290135668878374
 30
0.0
 40
0.0246283504438537
 50
234.2702594687060014
 51
354.312971678224585
  0
ARC
  5
E43D
  8
0
 10
1.0508927589085679
 20
4.9301062481770561
 30
0.0
 40
0.0206589294142362
 50
350.7427138241856142
 51
85.2006315200251407
  0
ARC
  5
E43E
  8
0
 10
1.0493909394611951
 20
4.9252745302462166
 30
0.0
 40
0.0256226518615193
 50
82.7573598880431263
 51
163.7752989879739118
  0
ARC
  5
E43F
  8
0
 10
1.0431486762080371
 20
4.9270909940076741
 30
0.0
 40
0.0191214680371367
 50
163.775298987974395
 51
235.5044167644304025
  0
ARC
  5
E440
  8
0
 10
1.046614850753963
 20
4.9321351422280024
 30
0.0
 40
0.0252417455840675
 50
235.5044167644292941
 51
347.7580796067907158
  0
ARC
  5
E441
  8
0
 10
1.05832903976642
 20
4.9368104973626616
 30
0.0
 40
0.0535106836115924
 50
344.654446571039216
 51
45.8609497031276589
  0
ARC
  5
E442
  8
0
 10
1.049235368932006
 20
4.927439345705336
 30
0.0
 40
0.0665687589915738
 50
45.8609497031282132
 51
96.4308724836605649
  0
ARC
  5
E443
  8
0
 10
1.0493211394827071
 20
4.926678385693509
 30
0.0
 40
0.0673345375019586
 50
96.4308724836607638
 51
142.6028178476722985
  0
ARC
  5
E444
  8
0
 10
1.0427672882658721
 20
4.931688672591525
 30
0.0
 40
0.0590849350525772
 50
142.6028178476722132
 51
194.6673593417330039
  0
ARC
  5
E445
  8
0
 10
1.041456544403065
 20
4.931345603363356
 30
0.0
 40
0.057730038019883
 50
194.6673593417326913
 51
263.4732705033378011
  0
ARC
  5
E446
  8
0
 10
1.042887274884559
 20
4.9438510915319389
 30
0.0
 40
0.0703171037639411
 50
263.4732705033375737
 51
342.4513868671792807
  0
ARC
  5
E447
  8
0
 10
1.3962321019401791
 20
5.2033679005162581
 30
0.0
 40
0.0203544008133307
 50
352.5972153148970278
 51
82.3096754509496549
  0
ARC
  5
E448
  8
0
 10
1.395310031589694
 20
5.1965394368122038
 30
0.0
 40
0.0272448384111069
 50
82.3096754509495554
 51
133.3375206471436059
  0
ARC
  5
E449
  8
0
 10
1.39124554003321
 20
5.2008469154616934
 30
0.0
 40
0.0213224686211889
 50
133.3375206471436911
 51
227.3508156811753054
  0
ARC
  5
E44A
  8
0
 10
1.3928283092281439
 20
5.2025652012579302
 30
0.0
 40
0.0236586330850006
 50
227.3508156811724916
 51
355.5884099807756797
  0
ARC
  5
E44B
  8
0
 10
1.395812967397283
 20
5.2050301081178061
 30
0.0
 40
0.0625845417717215
 50
34.7598982838905002
 51
105.6562806190145949
  0
ARC
  5
E44C
  8
0
 10
1.398200707389458
 20
5.196510503047115
 30
0.0
 40
0.0714324213386455
 50
105.6562806190146944
 51
158.0867092299538115
  0
ARC
  5
E44D
  8
0
 10
1.3798502293559849
 20
5.2038922929915516
 30
0.0
 40
0.0516528645478387
 50
158.0867092299540104
 51
216.4963080219361871
  0
ARC
  5
E44E
  8
0
 10
1.3914399827355921
 20
5.212467103695146
 30
0.0
 40
0.0660698601434058
 50
216.4963080219361871
 51
321.1698317992531884
  0
ARC
  5
E44F
  8
0
 10
1.3958356367539331
 20
5.2089290948663747
 30
0.0
 40
0.0604272294872827
 50
321.1698317992534157
 51
31.7335356498005901
  0
ARC
  5
E450
  8
0
 10
1.671396155319895
 20
5.5413333959364506
 30
0.0
 40
0.0204988116628824
 50
354.0520001394310725
 51
79.4132381506902902
  0
ARC
  5
E451
  8
0
 10
1.6703831867045049
 20
5.5359137208264988
 30
0.0
 40
0.0260123390014572
 50
79.4132381506892671
 51
146.375684086939998
  0
ARC
  5
E452
  8
0
 10
1.6665822238158261
 20
5.5384414003525091
 30
0.0
 40
0.0214476393763642
 50
146.3756840869411064
 51
209.836971004312403
  0
ARC
  5
E453
  8
0
 10
1.6676118519124641
 20
5.5421803947069179
 30
0.0
 40
0.0243546756359726
 50
216.2755737682468862
 51
352.9926129496985254
  0
ARC
  5
E454
  8
0
 10
1.6716092724476499
 20
5.5434062899791101
 30
0.0
 40
0.0621266659846145
 50
39.0443073374571696
 51
93.1635522948851644
  0
ARC
  5
E455
  8
0
 10
1.670314374013848
 20
5.5385356131996639
 30
0.0
 40
0.0669366804425642
 50
91.8266457779404419
 51
159.6998720569119996
  0
ARC
  5
E456
  8
0
 10
1.662769966363969
 20
5.542363051339203
 30
0.0
 40
0.0585410615125893
 50
160.6515028875408859
 51
203.8462983807179967
  0
ARC
  5
E457
  8
0
 10
1.6667170936132889
 20
5.5469035815027343
 30
0.0
 40
0.0640379778922069
 50
206.1348357282936092
 51
245.174697794872003
  0
ARC
  5
E458
  8
0
 10
1.6657758556619691
 20
5.5507894236490039
 30
0.0
 40
0.0672155354145542
 50
247.2940743549926026
 51
334.3737665805198844
  0
ARC
  5
E459
  8
0
 10
1.6769170383211269
 20
5.5471777580842261
 30
0.0
 40
0.0556301568182138
 50
332.7646394606400122
 51
39.4710459285902289
  0
ARC
  5
E45A
  8
0
 10
-0.4557453700867172
 20
4.4577748414982006
 30
0.0
 40
0.2421021023045653
 50
141.9660665384375022
 51
177.0596241824580943
  0
ARC
  5
E45B
  8
0
 10
-0.4325309813514418
 20
4.4396156219343501
 30
0.0
 40
0.2715752273428201
 50
103.3197724959205033
 51
141.9660665384375022
  0
ARC
  5
E45C
  8
0
 10
-0.4216110523698707
 20
4.4118286016962207
 30
0.0
 40
0.3011601849126565
 50
59.5208466101535407
 51
104.1235009108922043
  0
ARC
  5
E45D
  8
0
 10
-0.4139562071799654
 20
4.42366901400037
 30
0.0
 40
0.2870738359756475
 50
33.1128898305769468
 51
59.6388615734176071
  0
ARC
  5
E45E
  8
0
 10
-0.387703711186302
 20
4.4407912179342182
 30
0.0
 40
0.2557311587854396
 50
347.2130550540426839
 51
33.1128898305769894
  0
ARC
  5
E45F
  8
0
 10
-0.387621702228671
 20
4.4407726056057273
 30
0.0
 40
0.2556470642677611
 50
316.4617167142804988
 51
347.213055054042627
  0
ARC
  5
E460
  8
0
 10
-0.4005172895268938
 20
4.4530264472397549
 30
0.0
 40
0.2734361847226329
 50
285.9763270923588721
 51
316.4617167142803282
  0
ARC
  5
E461
  8
0
 10
-0.4048420020025417
 20
4.4681320644546547
 30
0.0
 40
0.2891486895974164
 50
236.0645891674145105
 51
285.9763270923588721
  0
ARC
  5
E462
  8
0
 10
-0.3832816665333567
 20
4.5001744329701632
 30
0.0
 40
0.3277694281406831
 50
212.1311420551348021
 51
236.0645891674143968
  0
ARC
  5
E463
  8
0
 10
-0.4399207394308205
 20
4.4588228621603916
 30
0.0
 40
0.2578588359508997
 50
177.4725592967714078
 51
211.0436661050302973
  0
ARC
  5
E464
  8
0
 10
0.3889526305641304
 20
4.4403056591316599
 30
0.0
 40
0.2569717777918784
 50
150.2530492871925958
 51
183.7572197394875957
  0
ARC
  5
E465
  8
0
 10
0.4113107759586719
 20
4.427618187402186
 30
0.0
 40
0.2826788408840709
 50
110.0638137401568031
 51
150.2688315726998951
  0
ARC
  5
E466
  8
0
 10
0.421644735629986
 20
4.4159769640452122
 30
0.0
 40
0.2972137209502585
 50
67.2515520502969366
 51
111.1652301017403062
  0
ARC
  5
E467
  8
0
 10
0.4320926185988112
 20
4.4381415758121081
 30
0.0
 40
0.2727352894627437
 50
36.0577725227133428
 51
67.4751626672715616
  0
ARC
  5
E468
  8
0
 10
0.4611349395774589
 20
4.4592868318634817
 30
0.0
 40
0.2368106703095087
 50
356.5586851566885116
 51
36.0577725227133286
  0
ARC
  5
E469
  8
0
 10
0.433506508421802
 20
4.4609482566137713
 30
0.0
 40
0.2644890109448096
 50
326.7829903839672738
 51
356.5586851566883979
  0
ARC
  5
E46A
  8
0
 10
0.4037893491903715
 20
4.4804072232255301
 30
0.0
 40
0.3000102853361339
 50
299.7095993963312139
 51
326.7829903839672738
  0
ARC
  5
E46B
  8
0
 10
0.4023112896663319
 20
4.4829975289369033
 30
0.0
 40
0.3029926239545629
 50
256.8925089062979055
 51
299.7095993963309866
  0
ARC
  5
E46C
  8
0
 10
0.3921634435767025
 20
4.4394155712379906
 30
0.0
 40
0.2582448215825076
 50
218.7443972917156998
 51
256.8925089062977918
  0
ARC
  5
E46D
  8
0
 10
0.388524792320494
 20
4.4412972729369082
 30
0.0
 40
0.2566118557828836
 50
183.984409767349689
 51
219.5805728722527022
  0
ARC
  5
E46E
  8
0
 10
-0.0237311921454566
 20
3.8788147049488919
 30
0.0
 40
0.259106301373122
 50
155.8858084085381961
 51
197.3879724697914071
  0
ARC
  5
E46F
  8
0
 10
-0.0259522608010174
 20
3.8798088972618938
 30
0.0
 40
0.2566728749148238
 50
118.201334805771495
 51
155.885808408538395
  0
ARC
  5
E470
  8
0
 10
0.0007262045954795
 20
3.8418402465590149
 30
0.0
 40
0.3027930472503708
 50
87.760543383021087
 51
119.2551149403094968
  0
ARC
  5
E471
  8
0
 10
-0.0016807050337748
 20
3.838184974353628
 30
0.0
 40
0.3065479274323523
 50
64.7732376151525386
 51
87.3377126746702288
  0
ARC
  5
E472
  8
0
 10
0.0110940561306841
 20
3.865299841954414
 30
0.0
 40
0.2765744296748808
 50
30.0721901296799601
 51
64.7732376151525386
  0
ARC
  5
E473
  8
0
 10
0.0374951606766771
 20
3.8805869113687952
 30
0.0
 40
0.2460668435276853
 50
346.7268899023085851
 51
30.0721901296799494
  0
ARC
  5
E474
  8
0
 10
-0.0068963918303311
 20
3.891058634231559
 30
0.0
 40
0.2916767866727608
 50
282.1549975585531911
 51
346.7268899023085282
  0
ARC
  5
E475
  8
0
 10
0.0014186770262219
 20
3.886272274732669
 30
0.0
 40
0.2853358017047574
 50
197.3078493534567031
 51
280.7249723654788909
  0
ARC
  5
E476
  8
0
 10
0.5191029349429668
 20
0.0126849175138855
 30
0.0
 40
0.0127136656350647
 50
273.8537970537433921
 51
354.939178413545676
  0
LINE
  5
E477
  8
0
 10
0.5317670378499982
 20
0.0115634044999999
 30
0.0
 11
0.607248758092088
 21
3.3247261172027049
 31
0.0
  0
ARC
  5
E478
  8
0
 10
1.837750562668883
 20
3.3080583736620071
 30
0.0
 40
1.230614685733165
 50
155.4856376701476108
 51
179.2239483484788138
  0
ARC
  5
E479
  8
0
 10
1.835566261869761
 20
3.3090544782165932
 30
0.0
 40
1.2282139786988291
 50
133.2863857650964974
 51
155.4856376701476108
  0
ARC
  5
E47A
  8
0
 10
-17.5496492632473391
 20
23.8899411314289907
 30
0.0
 40
27.044732036663941
 50
313.2863857650967248
 51
314.4401013684873192
  0
ARC
  5
E47B
  8
0
 10
7.8911822391507007
 20
-2.0530327339860359
 30
0.0
 40
9.2908400727031566
 50
131.4113391078909103
 51
134.4401013684874044
  0
ARC
  5
E47C
  8
0
 10
0.0659903476339574
 20
6.66782082155515
 30
0.0
 40
2.4277513444778851
 50
313.7777196458151252
 51
327.9048725383142937
  0
ARC
  5
E47D
  8
0
 10
0.1214202363040417
 20
6.6284535372277329
 30
0.0
 40
2.359879304536689
 50
327.9995440758847849
 51
346.1399766181734776
  0
ARC
  5
E47E
  8
0
 10
-0.1323029951748635
 20
6.656559959260929
 30
0.0
 40
2.6131626373891872
 50
346.8743260059615068
 51
9.6702631476078302
  0
ARC
  5
E47F
  8
0
 10
0.1249983100718834
 20
6.7463299777439572
 30
0.0
 40
2.344875113733027
 50
8.5639590538827086
 51
35.7278273853404897
  0
ARC
  5
E480
  8
0
 10
0.0423264992149681
 20
6.6827327974368256
 30
0.0
 40
2.4491270414492798
 50
35.8062729913317312
 51
66.885377740179095
  0
ARC
  5
E481
  8
0
 10
0.0051426302597344
 20
6.6165670476573943
 30
0.0
 40
2.524591828750566
 50
66.6987334755101671
 51
86.0250633115940957
  0
ARC
  5
E482
  8
0
 10
-0.0267487006504554
 20
5.8642109823349617
 30
0.0
 40
3.2774118974933728
 50
86.3806285275699963
 51
89.5323693616661132
  0
ARC
  5
E483
  8
0
 10
-0.0017683982964956
 20
3.8072365250228959
 30
0.0
 40
0.5432810964024167
 50
270.1865249612764046
 51
284.9583398789653188
  0
ARC
  5
E484
  8
0
 10
-0.0014554754518326
 20
3.8060652752384252
 30
0.0
 40
0.5420687652742435
 50
284.9583398789653188
 51
299.7105713486154741
  0
ARC
  5
E485
  8
0
 10
-0.0437689057212625
 20
3.8802168226215792
 30
0.0
 40
0.6274436934468759
 50
299.7105713486157015
 51
322.9475535325860278
  0
ARC
  5
E486
  8
0
 10
-0.0729541211544351
 20
3.9022513739105831
 30
0.0
 40
0.6640127821747677
 50
322.9475535325860847
 51
334.670942796227223
  0
ARC
  5
E487
  8
0
 10
-0.0380348597389393
 20
3.8857234433958872
 30
0.0
 40
0.6253795412428662
 50
334.6709427962272798
 51
342.6086946959018178
  0
ARC
  5
E488
  8
0
 10
1.7655627096692199
 20
3.320810788987786
 30
0.0
 40
1.2646179453918189
 50
145.1220189450407929
 51
162.6086946959017041
  0
ARC
  5
E489
  8
0
 10
1.9464044641223801
 20
3.1947571258953791
 30
0.0
 40
1.4850567489920721
 50
137.8808622706912104
 51
145.1220189450407929
  0
ARC
  5
E48A
  8
0
 10
2.2741819509100081
 20
2.8983885101886719
 30
0.0
 40
1.926953159048461
 50
132.9369472886259871
 51
137.8808622706912104
  0
ARC
  5
E48B
  8
0
 10
16.967291061251089
 20
-11.9256298245546493
 30
0.0
 40
22.798040242399221
 50
133.81179787554521
 51
134.5930215109158041
  0
ARC
  5
E48C
  8
0
 10
-0.6983089666300009
 20
7.3556899541868503
 30
0.0
 40
3.353609490614414
 50
311.0453770217897045
 51
318.142194143344625
  0
ARC
  5
E48D
  8
0
 10
0.076693132658022
 20
6.6356408904511062
 30
0.0
 40
2.2959879351777039
 50
318.6200361238871892
 51
337.6875272985396919
  0
ARC
  5
E48E
  8
0
 10
0.1338345913031373
 20
6.6076857771402437
 30
0.0
 40
2.2325153440239411
 50
337.7944919042524248
 51
355.5470053659997802
  0
ARC
  5
E48F
  8
0
 10
0.2421918755813568
 20
6.6130437049467226
 30
0.0
 40
2.1249456642767841
 50
355.1761279911698921
 51
13.4211046367528795
  0
ARC
  5
E490
  8
0
 10
0.0489982746289215
 20
6.5669432897008413
 30
0.0
 40
2.3235634271652321
 50
13.4211046367529594
 51
31.5595309701399316
  0
ARC
  5
E491
  8
0
 10
0.1225206444712317
 20
6.6121030000119001
 30
0.0
 40
2.2372793712649202
 50
31.5595309701399316
 51
52.1800159669106165
  0
ARC
  5
E492
  8
0
 10
0.0142358743389322
 20
6.495872126581907
 30
0.0
 40
2.3955357541301519
 50
51.8387593621281084
 51
74.4549359445678789
  0
ARC
  5
E493
  8
0
 10
0.0003710947194007
 20
6.4529553724446638
 30
0.0
 40
2.4405990261082509
 50
74.4113624351135314
 51
90.0087063108197327
  0
ARC
  5
E494
  8
0
 10
0.0010207785161063
 20
3.7855626293486622
 30
0.0
 40
0.5501428024039413
 50
269.8937134386118259
 51
284.2599353983658261
  0
ARC
  5
E495
  8
0
 10
-0.010603951273322
 20
3.8313018665054628
 30
0.0
 40
0.5973361510704992
 50
284.259935398365883
 51
298.6687644479080177
  0
ARC
  5
E496
  8
0
 10
-0.0277692677328387
 20
3.8626955770111362
 30
0.0
 40
0.633116217426913
 50
298.6687644479080177
 51
317.1450475009550019
  0
ARC
  5
E497
  8
0
 10
-0.0870873770024314
 20
3.917730519253618
 30
0.0
 40
0.7140327358576555
 50
317.1450475009550019
 51
334.7361775397330916
  0
ARC
  5
E498
  8
0
 10
0.0008969174251536
 20
3.8762084816799121
 30
0.0
 40
0.6167428819663469
 50
334.7361775397330916
 51
343.9327076078371874
  0
ARC
  5
E499
  8
0
 10
1.8207722564890001
 20
3.2958365316110578
 30
0.0
 40
1.293798816091859
 50
152.3697146692585989
 51
161.539688183287609
  0
ARC
  5
E49A
  8
0
 10
1.9676061539544341
 20
3.2008753799830871
 30
0.0
 40
1.468014747353499
 50
141.8261036294628923
 51
151.7438531421740038
  0
ARC
  5
E49B
  8
0
 10
2.8172256206925712
 20
2.4105488340136931
 30
0.0
 40
2.6261574392925038
 50
132.8357858791291051
 51
139.7268359870473944
  0
ARC
  5
E49C
  8
0
 10
16.9437868701031213
 20
-11.8899961368809599
 30
0.0
 40
22.7263700296703917
 50
132.8926977410656889
 51
134.4398033804112913
  0
ARC
  5
E49D
  8
0
 10
-1.0272803091492879
 20
7.6574733567979907
 30
0.0
 40
3.828790775818316
 50
310.8210354719435031
 51
319.1379679645576175
  0
ARC
  5
E49E
  8
0
 10
0.0878406915653845
 20
6.6288150328614801
 30
0.0
 40
2.3129564045683688
 50
320.3371172492937831
 51
339.5089943248632949
  0
ARC
  5
E49F
  8
0
 10
0.1422100662172996
 20
6.6063485089633378
 30
0.0
 40
2.2541633943946882
 50
339.5601460783440757
 51
354.5063202719072137
  0
ARC
  5
E4A0
  8
0
 10
0.1588593408183661
 20
6.6050701502240994
 30
0.0
 40
2.2374682320260382
 50
354.4980888400683057
 51
10.2492782267790599
  0
ARC
  5
E4A1
  8
0
 10
0.1352968742077945
 20
6.6001903194916718
 30
0.0
 40
2.261523066937535
 50
10.2647190784810096
 51
24.4609910350590702
  0
ARC
  5
E4A2
  8
0
 10
0.105996006472802
 20
6.5868612294857751
 30
0.0
 40
2.2937132127963031
 50
24.4609910350590205
 51
36.0511178544341604
  0
ARC
  5
E4A3
  8
0
 10
0.0654525473749077
 20
6.5573493806804048
 30
0.0
 40
2.3438602096708281
 50
36.051117854434203
 51
46.8808675054689274
  0
ARC
  5
E4A4
  8
0
 10
0.0412381538605535
 20
6.5314906287434953
 30
0.0
 40
2.3792863568647111
 50
46.8808675054690625
 51
56.1694542009324067
  0
ARC
  5
E4A5
  8
0
 10
0.0168905659987244
 20
6.4951625472011898
 30
0.0
 40
2.4230188910153161
 50
56.1694542009324067
 51
67.7210973215119196
  0
ARC
  5
E4A6
  8
0
 10
0.0025738411102498
 20
6.4602181198742841
 30
0.0
 40
2.4607823867848779
 50
67.7210973215119196
 51
85.9261866522771811
  0
ARC
  5
E4A7
  8
0
 10
-0.001113873217105
 20
6.4084400252157501
 30
0.0
 40
2.5126916376312178
 50
85.9261866522773659
 51
89.9745954565303236
  0
ARC
  5
E4A8
  8
0
 10
0.3858270081500006
 20
-0.0196850394000003
 30
0.0
 40
0.0196850394000003
 50
90.0000000000026148
 51
179.9999999999990052
  0
LINE
  5
E4A9
  8
0
 10
0.36614196875
 20
-0.0196850394
 30
0.0
 11
0.3661419687499983
 21
-0.1015685725311184
 31
0.0
  0
LINE
  5
E4AA
  8
0
 10
0.3661419687499983
 20
-0.1015685725311184
 30
0.0
 11
0.4051026885500005
 21
-0.1296640195000001
 31
0.0
  0
LINE
  5
E4AB
  8
0
 10
0.4051026885500005
 20
-0.1296640195000001
 30
0.0
 11
0.36614196875
 21
-0.1653564002728656
 31
0.0
  0
LINE
  5
E4AC
  8
0
 10
0.36614196875
 20
-0.1653564002728656
 30
0.0
 11
0.4051026885500005
 21
-0.2012049325877145
 31
0.0
  0
LINE
  5
E4AD
  8
0
 10
0.4051026885500005
 20
-0.2012049325877145
 30
0.0
 11
0.36614196875
 21
-0.2367882446795673
 31
0.0
  0
LINE
  5
E4AE
  8
0
 10
0.36614196875
 20
-0.2367882446795673
 30
0.0
 11
0.4051026885500005
 21
-0.2721966462747682
 31
0.0
  0
LINE
  5
E4AF
  8
0
 10
0.4051026885500005
 20
-0.2721966462747682
 30
0.0
 11
0.36614196875
 21
-0.3082547438802361
 31
0.0
  0
LINE
  5
E4B0
  8
0
 10
0.36614196875
 20
-0.3082547438802361
 30
0.0
 11
0.4051026885500005
 21
-0.3457709041951065
 31
0.0
  0
LINE
  5
E4B1
  8
0
 10
0.4051026885500005
 20
-0.3457709041951065
 30
0.0
 11
0.36614196875
 21
-0.3721310199800367
 31
0.0
  0
LINE
  5
E4B2
  8
0
 10
0.36614196875
 20
-0.3721310199800367
 30
0.0
 11
0.36614196875
 21
-0.3779527559000007
 31
0.0
  0
ARC
  5
E4B3
  8
0
 10
0.3503939372500016
 20
-0.3779527559000007
 30
0.0
 40
0.0157480314999985
 50
269.9999999999935199
 51
359.9999999999968168
  0
LINE
  5
E4B4
  8
0
 10
-0.1130453188500002
 20
-0.0796780119367543
 30
0.0
 11
-0.36614149585
 21
-0.1220838862338269
 31
0.0
  0
LINE
  5
E4B5
  8
0
 10
-0.3661414958499947
 20
-0.1372303863238784
 30
0.0
 11
0.3662039142499998
 21
-0.1015685491
 31
0.0
  0
LINE
  5
E4B6
  8
0
 10
-0.4051374534500001
 20
-0.1637684713126684
 30
0.0
 11
0.4051026885500005
 21
-0.1296640195000001
 31
0.0
  0
LINE
  5
E4B7
  8
0
 10
0.36614196875
 20
-0.1653564002728656
 30
0.0
 11
-0.36614149585
 21
-0.1994511867107926
 31
0.0
  0
LINE
  5
E4B8
  8
0
 10
-0.4051374534500001
 20
-0.2361305120626194
 30
0.0
 11
0.4051026885500005
 21
-0.2012049325877145
 31
0.0
  0
LINE
  5
E4B9
  8
0
 10
0.36614196875
 20
-0.2367882446795673
 30
0.0
 11
-0.3661414958500009
 21
-0.2707959122711616
 31
0.0
  0
LINE
  5
E4BA
  8
0
 10
-0.4051374534500001
 20
-0.30748977468231
 30
0.0
 11
0.4051026885500005
 21
-0.2721966462747682
 31
0.0
  0
LINE
  5
E4BB
  8
0
 10
0.36614196875
 20
-0.3082547438802361
 30
0.0
 11
-0.3661414958499991
 21
-0.3364392603149515
 31
0.0
  0
LINE
  5
E4BC
  8
0
 10
0.4051026885500005
 20
-0.3457709041951065
 30
0.0
 11
-0.36614149585
 21
-0.3571960081074757
 31
0.0
  0
LINE
  5
E4BD
  8
0
 10
-0.1130453188500002
 20
-0.0796780119367543
 30
0.0
 11
-0.36614149585
 21
-0.065805302880498
 31
0.0
  0
LINE
  5
E4BE
  8
0
 62
     1
 10
0.0
 20
0.0
 30
0.0
 11
2.1575777790249289
 21
-1.518293768160436
 31
0.0
  0
ENDBLK
  5
E4C2
  8
0
  0
ENDSEC
  0
SECTION
  2
ENTITIES
  0
ATTDEF
  5
E6B8
  8
DEFPOINTS
 10
3840.3561182257599285
 20
42.2344315740331169
 30
0.0
 40
0.001
  1
K-23958T
  3

  2
MODELNUMBER
 70
     0
1001
ACDBATTR
1070
     0
1070
     1
  0
ATTDEF
  5
E6B9
  8
DEFPOINTS
 10
3840.3561182257599285
 20
42.2327649073664588
 30
0.0
 40
0.001
  1
MAXSTOW
  3

  2
TRADENAME
 70
     0
1001
ACDBATTR
1070
     0
1070
     1
  0
ATTDEF
  5
E6BA
  8
DEFPOINTS
 10
3840.3561182257599285
 20
42.2310982406997866
 30
0.0
 40
0.001
  1
MIRROR CABINET
  3

  2
PRODUCT
 70
     0
1001
ACDBATTR
1070
     0
1070
     1
  0
ARC
  5
E81B
  8
0
 10
3815.168283624841024
 20
65.9249221314146325
 30
0.0
 40
0.0118110236
 50
90.0
 51
180.0000000000171099
  0
ARC
  5
E81C
  8
0
 10
3816.7194647270662244
 20
65.9249221313333607
 30
0.0
 40
0.0118110237815972
 50
4.6794828696059136
 51
90.0004333166756396
  0
LINE
  5
E81D
  8
0
 10
3816.7312363807409383
 20
65.9367331551146236
 30
0.0
 11
3863.9753308689410005
 21
65.9367331551146236
 31
0.0
  0
LINE
  5
E81E
  8
0
 10
3816.8296615775411738
 20
65.8973630763146332
 30
0.0
 11
3816.7902914988408156
 21
65.9367331551146236
 31
0.0
  0
LINE
  5
E81F
  8
0
 10
3816.7902914988408156
 20
65.9367331551146236
 30
0.0
 11
3816.7902914988408156
 21
18.6926386669146183
 31
0.0
  0
LINE
  5
E820
  8
0
 10
3816.7902914988408156
 20
18.6926386669146183
 30
0.0
 11
3816.8296615775411738
 21
18.7320087456146211
 31
0.0
  0
LINE
  5
E821
  8
0
 10
3816.8296615775411738
 20
18.7320087456146211
 30
0.0
 11
3816.8296615775411738
 21
65.8973630763146332
 31
0.0
  0
LINE
  5
E822
  8
0
 10
3816.8296615775411738
 20
65.8973630763146332
 30
0.0
 11
3840.2745434673411182
 21
65.8973630763146332
 31
0.0
  0
LINE
  5
E823
  8
0
 10
3863.8769056720420849
 20
65.8951977220146148
 30
0.0
 11
3863.9162757508411232
 21
65.9345678007146319
 31
0.0
  0
LINE
  5
E824
  8
0
 10
3863.9162757508411232
 20
65.9345678007146319
 30
0.0
 11
3840.3139135460419311
 21
65.9345678007146319
 31
0.0
  0
LINE
  5
E825
  8
0
 10
3840.2745434673411182
 20
65.8973630763146332
 30
0.0
 11
3840.3139135460419311
 21
65.9367331551146236
 31
0.0
  0
LINE
  5
E826
  8
0
 10
3840.3139135460419311
 20
65.9367331551146236
 30
0.0
 11
3840.3139135460419311
 21
18.6926386669146183
 31
0.0
  0
LINE
  5
E827
  8
0
 10
3840.3139135460419311
 20
18.6926386669146183
 30
0.0
 11
3815.168283624841024
 21
18.6926386669146183
 31
0.0
  0
LINE
  5
E828
  8
0
 10
3815.1564726012411484
 20
18.7044496905146183
 30
0.0
 11
3815.1564726012411484
 21
65.9249221314146325
 31
0.0
  0
LINE
  5
E829
  8
0
 10
3815.168283624841024
 20
65.9367331550146218
 30
0.0
 11
3816.7194646377411118
 21
65.9367331551146236
 31
0.0
  0
LINE
  5
E82A
  8
0
 10
3816.7312363807409383
 20
65.9367331551146236
 30
0.0
 11
3816.7312757508411778
 21
18.7044496905146183
 31
0.0
  0
ARC
  5
E82B
  8
0
 10
3816.7194647272422117
 20
18.7044496905146289
 30
0.0
 40
0.0118110236000035
 50
270.0000000000259774
 51
359.9999999999653824
  0
LINE
  5
E82C
  8
0
 10
3816.7312363807409383
 20
18.7034861281888283
 30
0.0
 11
3816.7312363807409383
 21
18.6926386669146183
 31
0.0
  0
LINE
  5
E82D
  8
0
 10
3816.7312363807409383
 20
18.6940363047146185
 30
0.0
 11
3816.7250380273999326
 21
18.6940363047146185
 31
0.0
  0
ARC
  5
E82E
  8
0
 10
3815.168283624841024
 20
18.7044496905146183
 30
0.0
 40
0.0118110235999964
 50
179.9999999999828901
 51
270.0000000000259774
  0
LINE
  5
E82F
  8
0
 10
3815.5178126161417822
 20
18.6926386669146183
 30
0.0
 11
3815.5178126161417822
 21
18.5759260684146206
 31
0.0
  0
LINE
  5
E830
  8
0
 10
3815.5178126161417822
 20
18.5759260684146206
 30
0.0
 11
3818.2230985627420523
 21
18.5759260684146206
 31
0.0
  0
LINE
  5
E831
  8
0
 10
3818.2292180185418147
 20
18.6926386669146183
 30
0.0
 11
3818.2292180185418147
 21
18.6121268558146191
 31
0.0
  0
LINE
  5
E832
  8
0
 10
3817.7548584279411443
 20
18.5759260684146206
 30
0.0
 11
3817.7548584279411443
 21
18.5502016590146184
 31
0.0
  0
LINE
  5
E833
  8
0
 10
3817.7548584279411443
 20
18.5502016590146184
 30
0.0
 11
3818.2028519862410576
 21
18.5502016590146184
 31
0.0
  0
LINE
  5
E834
  8
0
 10
3818.2196167255410728
 20
18.5727567771146305
 30
0.0
 11
3818.2028519862410576
 21
18.5727567771146305
 31
0.0
  0
LINE
  5
E835
  8
0
 10
3818.2028519862410576
 20
18.5727567771146305
 30
0.0
 11
3818.2028519862410576
 21
18.468541963114621
 31
0.0
  0
LINE
  5
E836
  8
0
 10
3818.2028519862410576
 20
18.468541963114621
 30
0.0
 11
3818.3092670935420756
 21
18.3621268558146191
 31
0.0
  0
LINE
  5
E837
  8
0
 10
3818.3092670935420756
 20
18.3621268558146191
 30
0.0
 11
3819.5924998710411273
 21
18.3621268558146191
 31
0.0
  0
LINE
  5
E838
  8
0
 10
3819.5924998710411273
 20
18.3621268558146191
 30
0.0
 11
3819.5924998710411273
 21
18.3621268558146191
 31
0.0
  0
LINE
  5
E839
  8
0
 10
3819.5924998710411273
 20
18.3621268558146191
 30
0.0
 11
3819.6989149783407811
 21
18.468541963114621
 31
0.0
  0
LINE
  5
E83A
  8
0
 10
3819.6989149783407811
 20
18.468541963114621
 30
0.0
 11
3819.6989149783407811
 21
18.6926386669146183
 31
0.0
  0
LINE
  5
E83B
  8
0
 10
3818.2028519862410576
 20
18.468541963114621
 30
0.0
 11
3819.6989149783407811
 21
18.468541963114621
 31
0.0
  0
ARC
  5
E83C
  8
0
 10
3818.141011547042126
 20
18.6084198433472103
 30
0.0
 40
0.0882843335803904
 50
338.4040873906924958
 51
2.406526991927568
  0
ARC
  5
E83D
  8
0
 10
3818.2179204463100177
 20
18.5781175866257797
 30
0.0
 40
0.0056227788365866
 50
287.558528437691109
 51
337.0606110673255102
  0
LINE
  5
E83E
  8
0
 10
3818.2281556326411192
 20
18.6926386669146183
 30
0.0
 11
3818.2281556326411192
 21
18.6475599267146208
 31
0.0
  0
LINE
  5
E83F
  8
0
 10
3818.2292180185418147
 20
18.6475599267146208
 30
0.0
 11
3818.2028519862410576
 21
18.6475599267146208
 31
0.0
  0
LINE
  5
E840
  8
0
 10
3818.2028519862410576
 20
18.6475599267146208
 30
0.0
 11
3818.2028519862410576
 21
18.6926386669146183
 31
0.0
  0
LINE
  5
E841
  8
0
 10
3817.7548584279411443
 20
18.5698866984146207
 30
0.0
 11
3818.2028519862410576
 21
18.5698866984146207
 31
0.0
  0
LINE
  5
E842
  8
0
 10
3819.6989149783407811
 20
18.5502016590146184
 30
0.0
 11
3822.0225749634410022
 21
18.5502016590146184
 31
0.0
  0
LINE
  5
E843
  8
0
 10
3827.5580080342410838
 20
18.6926386669146183
 30
0.0
 11
3827.5580080342410838
 21
18.1436229188146214
 31
0.0
  0
LINE
  5
E844
  8
0
 10
3827.5580080342410838
 20
18.6160638637146185
 30
0.0
 11
3827.1643072468409628
 21
18.6160638637146185
 31
0.0
  0
LINE
  5
E845
  8
0
 10
3827.1643072468409628
 20
18.6160638637146185
 30
0.0
 11
3827.1643072468409628
 21
18.6926386669146183
 31
0.0
  0
LINE
  5
E846
  8
0
 10
3827.1643072468409628
 20
18.6919339425146198
 30
0.0
 11
3822.0225749634410022
 21
18.6919339425146198
 31
0.0
  0
LINE
  5
E847
  8
0
 10
3822.0225749634410022
 20
18.6919339425146198
 30
0.0
 11
3822.0225749634410022
 21
17.9675244936146186
 31
0.0
  0
LINE
  5
E848
  8
0
 10
3822.0225749634410022
 20
17.9675244936146186
 30
0.0
 11
3859.4241497665420866
 21
17.9675244936146186
 31
0.0
  0
LINE
  5
E849
  8
0
 10
3822.0225749634410022
 20
18.4320914228146187
 30
0.0
 11
3827.5580080342410838
 21
18.4320914228146187
 31
0.0
  0
LINE
  5
E84A
  8
0
 10
3822.0225749634410022
 20
18.1328788244146217
 30
0.0
 11
3822.9305871022529573
 21
18.1328788244146217
 31
0.0
  0
LINE
  5
E84B
  8
0
 10
3823.0830667616291976
 20
18.1328788244146217
 30
0.0
 11
3840.6471225352529473
 21
18.1328788244146217
 31
0.0
  0
LINE
  5
E84C
  8
0
 10
3840.7996021946300971
 20
18.1328788244146217
 30
0.0
 11
3858.3636579683529817
 21
18.1328788244146217
 31
0.0
  0
LINE
  5
E84D
  8
0
 10
3822.0225749634410022
 20
18.172248903114621
 30
0.0
 11
3822.9305871022788779
 21
18.172248903114621
 31
0.0
  0
LINE
  5
E84E
  8
0
 10
3823.0830667616041865
 20
18.172248903114621
 30
0.0
 11
3827.5580080342410838
 21
18.172248903114621
 31
0.0
  0
LINE
  5
E84F
  8
0
 10
3827.5580080342410838
 20
18.1525638637146187
 30
0.0
 11
3823.085567089441156
 21
18.1525638637146187
 31
0.0
  0
LINE
  5
E850
  8
0
 10
3822.9280867744409989
 20
18.1525638637146187
 30
0.0
 11
3822.0225749634410022
 21
18.1525638637146187
 31
0.0
  0
LINE
  5
E851
  8
0
 10
3822.0225749634410022
 20
18.3139811866146189
 30
0.0
 11
3827.5580080342410838
 21
18.3139811866146189
 31
0.0
  0
LINE
  5
E852
  8
0
 10
3827.5580080342410838
 20
18.1436229188146214
 30
0.0
 11
3853.1485592153408106
 21
18.1436229188146214
 31
0.0
  0
LINE
  5
E853
  8
0
 10
3840.3139135460419311
 20
18.6926386669146183
 30
0.0
 11
3840.2745434673411182
 21
18.7320087456146211
 31
0.0
  0
LINE
  5
E854
  8
0
 10
3840.2745434673411182
 20
18.7320087456146211
 30
0.0
 11
3840.2745434673411182
 21
65.8973630763146332
 31
0.0
  0
LINE
  5
E855
  8
0
 10
3840.3139135460419311
 20
65.5995678007146239
 30
0.0
 11
3840.412338742942211
 21
65.5995678007146239
 31
0.0
  0
LINE
  5
E856
  8
0
 10
3840.3139135460419311
 20
65.5845678007146233
 30
0.0
 11
3840.412338742942211
 21
65.5845678007146233
 31
0.0
  0
LINE
  5
E857
  8
0
 10
3840.3139135460419311
 20
65.9195678007146171
 30
0.0
 11
3840.412338742942211
 21
65.9195678007146171
 31
0.0
  0
LINE
  5
E858
  8
0
 10
3840.3139135460419311
 20
19.0298040212146198
 30
0.0
 11
3840.412338742942211
 21
19.0298040212146198
 31
0.0
  0
LINE
  5
E859
  8
0
 10
3840.3139135460419311
 20
19.0448040212146203
 30
0.0
 11
3840.412338742942211
 21
19.0448040212146203
 31
0.0
  0
LINE
  5
E85A
  8
0
 10
3840.3139135460419311
 20
18.7098040212146195
 30
0.0
 11
3840.412338742942211
 21
18.7098040212146195
 31
0.0
  0
LINE
  5
E85B
  8
0
 10
3840.3139135460419311
 20
18.6948040212146189
 30
0.0
 11
3840.412338742942211
 21
18.6948040212146189
 31
0.0
  0
LINE
  5
E85C
  8
0
 10
3840.3139135460419311
 20
28.4227567771146283
 30
0.0
 11
3840.412338742942211
 21
28.4227567771146283
 31
0.0
  0
LINE
  5
E85D
  8
0
 10
3840.3139135460419311
 20
28.4077567771146313
 30
0.0
 11
3840.412338742942211
 21
28.4077567771146313
 31
0.0
  0
LINE
  5
E85E
  8
0
 10
3840.3139135460419311
 20
28.087756777114631
 30
0.0
 11
3840.412338742942211
 21
28.087756777114631
 31
0.0
  0
LINE
  5
E85F
  8
0
 10
3840.3139135460419311
 20
28.0727567771146305
 30
0.0
 11
3840.412338742942211
 21
28.0727567771146305
 31
0.0
  0
LINE
  5
E860
  8
0
 10
3840.3139135460419311
 20
37.8007095330146328
 30
0.0
 11
3840.412338742942211
 21
37.8007095330146328
 31
0.0
  0
LINE
  5
E861
  8
0
 10
3840.3139135460419311
 20
37.7857095330146322
 30
0.0
 11
3840.412338742942211
 21
37.7857095330146322
 31
0.0
  0
LINE
  5
E862
  8
0
 10
3840.3139135460419311
 20
37.4657095330146319
 30
0.0
 11
3840.412338742942211
 21
37.4657095330146319
 31
0.0
  0
LINE
  5
E863
  8
0
 10
3840.3139135460419311
 20
37.4507095330146313
 30
0.0
 11
3840.412338742942211
 21
37.4507095330146313
 31
0.0
  0
LINE
  5
E864
  8
0
 10
3840.412338742942211
 20
47.178662288914623
 30
0.0
 11
3840.3139135460419311
 21
47.178662288914623
 31
0.0
  0
LINE
  5
E865
  8
0
 10
3840.3139135460419311
 20
47.1636622889146224
 30
0.0
 11
3840.412338742942211
 21
47.1636622889146224
 31
0.0
  0
LINE
  5
E866
  8
0
 10
3840.412338742942211
 20
46.8436622889146221
 30
0.0
 11
3840.3139135460419311
 21
46.8436622889146221
 31
0.0
  0
LINE
  5
E867
  8
0
 10
3840.3139135460419311
 20
46.8286622889146216
 30
0.0
 11
3840.412338742942211
 21
46.8286622889146216
 31
0.0
  0
LINE
  5
E868
  8
0
 10
3840.412338742942211
 20
56.5566150448146203
 30
0.0
 11
3840.3139135460419311
 21
56.5566150448146203
 31
0.0
  0
LINE
  5
E869
  8
0
 10
3840.3139135460419311
 20
56.5416150448146269
 30
0.0
 11
3840.412338742942211
 21
56.5416150448146269
 31
0.0
  0
LINE
  5
E86A
  8
0
 10
3840.412338742942211
 20
56.2216150448146266
 30
0.0
 11
3840.3139135460419311
 21
56.2216150448146266
 31
0.0
  0
LINE
  5
E86B
  8
0
 10
3840.3139135460419311
 20
56.2066150448146189
 30
0.0
 11
3840.412338742942211
 21
56.2066150448146189
 31
0.0
  0
LINE
  5
E86C
  8
0
 10
3817.7548584279411443
 20
65.9367331551146236
 30
0.0
 11
3817.7548584279411443
 21
66.0791701629146218
 31
0.0
  0
LINE
  5
E86D
  8
0
 10
3817.7548584279411443
 20
66.0791701629146218
 30
0.0
 11
3827.5580080342410838
 21
66.0791701629146218
 31
0.0
  0
LINE
  5
E86E
  8
0
 10
3827.5580080342410838
 20
65.9367331551146236
 30
0.0
 11
3827.5580080342410838
 21
66.4857489031146258
 31
0.0
  0
LINE
  5
E86F
  8
0
 10
3827.5580080342410838
 20
66.4857489031146258
 30
0.0
 11
3853.1485592153408106
 21
66.4857489031146258
 31
0.0
  0
LINE
  5
E870
  8
0
 10
3853.1485592153408106
 20
66.4857489031146258
 30
0.0
 11
3853.1485592153408106
 21
65.9367331551146236
 31
0.0
  0
LINE
  5
E871
  8
0
 10
3827.1643072468409628
 20
65.9367331551146236
 30
0.0
 11
3827.1643072468409628
 21
66.0133079582146252
 31
0.0
  0
LINE
  5
E872
  8
0
 10
3827.1643072468409628
 20
66.0133079582146252
 30
0.0
 11
3827.5580080342410838
 21
66.0133079582146252
 31
0.0
  0
LINE
  5
E873
  8
0
 10
3827.282417483142126
 20
66.0133079582146252
 30
0.0
 11
3827.282417483142126
 21
65.9367331551146236
 31
0.0
  0
LINE
  5
E874
  8
0
 10
3829.2509214201418217
 20
66.4857489031146258
 30
0.0
 11
3829.2509214201418217
 21
66.4903168324146208
 31
0.0
  0
LINE
  5
E875
  8
0
 10
3829.2509214201418217
 20
66.4903168324146208
 30
0.0
 11
3829.4871418925417856
 21
66.490316832414635
 31
0.0
  0
ARC
  5
E876
  8
0
 10
3829.4871418925417856
 20
66.3623640765144387
 30
0.0
 40
0.1279527559001894
 50
74.7895387690190034
 51
90.0
  0
LINE
  5
E877
  8
0
 10
3840.4517088216421143
 20
65.8951977220146148
 30
0.0
 11
3840.412338742942211
 21
65.9345678007146319
 31
0.0
  0
LINE
  5
E878
  8
0
 10
3840.412338742942211
 20
65.9345678007146319
 30
0.0
 11
3840.412338742942211
 21
18.6904733125146301
 31
0.0
  0
LINE
  5
E879
  8
0
 10
3840.412338742942211
 20
18.6904733125146301
 30
0.0
 11
3840.4517088216421143
 21
18.7298433913146205
 31
0.0
  0
LINE
  5
E87A
  8
0
 10
3840.4517088216421143
 20
18.7298433913146205
 30
0.0
 11
3840.4517088216421143
 21
65.8951977220146148
 31
0.0
  0
LINE
  5
E87B
  8
0
 10
3840.4517088216421143
 20
65.8951977220146148
 30
0.0
 11
3863.8769056720420849
 21
65.8951977220146148
 31
0.0
  0
LINE
  5
E87C
  8
0
 10
3863.8769056720420849
 20
65.8951977220146148
 30
0.0
 11
3863.8769056720420849
 21
18.7298433913146205
 31
0.0
  0
LINE
  5
E87D
  8
0
 10
3863.8769056720420849
 20
18.7298433913146205
 30
0.0
 11
3840.4517088216421143
 21
18.7298433913146205
 31
0.0
  0
LINE
  5
E87E
  8
0
 10
3840.412338742942211
 20
18.6904733125146194
 30
0.0
 11
3863.9162757508411232
 21
18.6904733125146194
 31
0.0
  0
LINE
  5
E87F
  8
0
 10
3863.9162757508411232
 20
18.6904733125146194
 30
0.0
 11
3863.9162757508411232
 21
65.9345678007146319
 31
0.0
  0
LINE
  5
E880
  8
0
 10
3853.1485592153408106
 20
18.6904733125146301
 30
0.0
 11
3853.1485592153408106
 21
18.1436229188146214
 31
0.0
  0
LINE
  5
E881
  8
0
 10
3853.1485592153408106
 20
18.6160638637146185
 30
0.0
 11
3853.5422600027409317
 21
18.6160638637146185
 31
0.0
  0
LINE
  5
E882
  8
0
 10
3853.5422600027409317
 20
18.6160638637146185
 30
0.0
 11
3853.5422600027409317
 21
18.6904733125146194
 31
0.0
  0
LINE
  5
E883
  8
0
 10
3859.4241497665420866
 20
18.6904733125146194
 30
0.0
 11
3859.4241497665420866
 21
17.9675244936146186
 31
0.0
  0
LINE
  5
E884
  8
0
 10
3859.4241497665420866
 20
18.4320914228146187
 30
0.0
 11
3853.1485592153408106
 21
18.4320914228146187
 31
0.0
  0
LINE
  5
E885
  8
0
 10
3859.4241497665789211
 20
18.1328788244146217
 30
0.0
 11
3858.516137627766966
 21
18.1328788244146217
 31
0.0
  0
LINE
  5
E886
  8
0
 10
3859.4241497665789211
 20
18.172248903114621
 30
0.0
 11
3858.5161376277410454
 21
18.172248903114621
 31
0.0
  0
LINE
  5
E887
  8
0
 10
3858.3636579683789023
 20
18.172248903114621
 30
0.0
 11
3853.1485592153408106
 21
18.172248903114621
 31
0.0
  0
LINE
  5
E888
  8
0
 10
3853.1485592153408106
 20
18.1525638637146187
 30
0.0
 11
3858.3611576405410233
 21
18.152563863714839
 31
0.0
  0
LINE
  5
E889
  8
0
 10
3858.5186379555798339
 20
18.1525638637146187
 30
0.0
 11
3859.4241497665789211
 21
18.1525638637146187
 31
0.0
  0
LINE
  5
E88A
  8
0
 10
3859.4241497665420866
 20
18.3139811866146189
 30
0.0
 11
3853.1485592153408106
 21
18.3139811866146189
 31
0.0
  0
ARC
  5
E88B
  8
0
 10
3840.7233623649408401
 20
18.1525638637146187
 30
0.0
 40
0.0787401574999998
 50
186.5199983467942104
 51
353.480001653205818
  0
CIRCLE
  5
E88C
  8
0
 10
3858.4398977980408745
 20
18.1525638637146187
 30
0.0
 40
0.0787401575000004
  0
LINE
  5
E88D
  8
0
 10
3853.5422600027409317
 20
18.6604378795146211
 30
0.0
 11
3859.4241497665420866
 21
18.6604378795146211
 31
0.0
  0
LINE
  5
E88E
  8
0
 10
3862.9517088216412048
 20
18.6904733125146194
 30
0.0
 11
3862.9517088216412048
 21
18.5502016590146184
 31
0.0
  0
LINE
  5
E88F
  8
0
 10
3862.9517088216412048
 20
18.5502016590146184
 30
0.0
 11
3859.4241497665420866
 21
18.5502016590146184
 31
0.0
  0
LINE
  5
E890
  8
0
 10
3863.8769056720420849
 20
18.7298433913146205
 30
0.0
 11
3863.9162757508411232
 21
18.6904733125146194
 31
0.0
  0
LINE
  5
E891
  8
0
 10
3863.9162757508411232
 20
18.6926386669146183
 30
0.0
 11
3863.9753308689410005
 21
18.6926386669146183
 31
0.0
  0
LINE
  5
E892
  8
0
 10
3863.9752914988412158
 20
18.7044497003598096
 30
0.0
 11
3863.9752914988412158
 21
65.9249221314146325
 31
0.0
  0
LINE
  5
E893
  8
0
 10
3863.9871026119421913
 20
65.9367331551146236
 30
0.0
 11
3865.5382835353420887
 21
65.9367331551146236
 31
0.0
  0
ARC
  5
E894
  8
0
 10
3865.5382836246699298
 20
65.9249221313436635
 30
0.0
 40
0.0118110237712837
 50
0.0000003441704174
 51
90.0004333373894525
  0
LINE
  5
E895
  8
0
 10
3865.5500946484421547
 20
65.9249221313436635
 30
0.0
 11
3865.5500946484421547
 21
18.7044496905146183
 31
0.0
  0
LINE
  5
E896
  8
0
 10
3865.5382835353420887
 20
18.6926386669146183
 30
0.0
 11
3863.9871026119421913
 21
18.6926386669146183
 31
0.0
  0
ARC
  5
E897
  8
0
 10
3863.9871025224420009
 20
18.7044496905148314
 30
0.0
 40
0.0118110236005416
 50
180.0000000009823111
 51
270.0004341657593727
  0
LINE
  5
E898
  8
0
 10
3863.9753308689410005
 20
18.7034861281887999
 30
0.0
 11
3863.9753308689410005
 21
18.6926386669146183
 31
0.0
  0
ARC
  5
E899
  8
0
 10
3865.5382836248418243
 20
18.7044496905146183
 30
0.0
 40
0.0118110235999964
 50
269.9999999999739089
 51
0.0
  0
ARC
  5
E89A
  8
0
 10
3863.9871025224410914
 20
65.9249221314146325
 30
0.0
 40
0.0118110235999964
 50
89.9999999999739515
 51
180.0000000000171099
  0
LINE
  5
E89B
  8
0
 10
3863.9753308689410005
 20
65.9367331551146236
 30
0.0
 11
3863.9753308689410005
 21
65.9258856937404545
 31
0.0
  0
LINE
  5
E89C
  8
0
 10
3865.3729292941411586
 20
42.3934260684146267
 30
0.0
 11
3865.3729292941411586
 21
42.747756777114617
 31
0.0
  0
LINE
  5
E89D
  8
0
 10
3865.3729292941411586
 20
42.747756777114617
 30
0.0
 11
3865.4122993728419715
 21
42.747756777114617
 31
0.0
  0
LINE
  5
E89E
  8
0
 10
3865.4122993728419715
 20
42.747756777114617
 30
0.0
 11
3865.4122993728419715
 21
42.3934260685146285
 31
0.0
  0
LINE
  5
E89F
  8
0
 10
3865.4122993728419715
 20
42.3934260685146285
 30
0.0
 11
3865.3729292941411586
 21
42.3934260684146267
 31
0.0
  0
LINE
  5
E8A0
  8
0
 10
3865.3729292941411586
 20
42.3934260684146267
 30
0.0
 11
3865.2941891366422169
 21
42.4327961472146171
 31
0.0
  0
LINE
  5
E8A1
  8
0
 10
3865.2941891366422169
 20
42.4327961472146171
 30
0.0
 11
3865.2941891366422169
 21
42.7083866983146194
 31
0.0
  0
LINE
  5
E8A2
  8
0
 10
3865.2941891366422169
 20
42.7083866983146194
 30
0.0
 11
3865.3729292941411586
 21
42.747756777114617
 31
0.0
  0
LINE
  5
E8A3
  8
0
 10
3865.5500946484421547
 20
42.747756777114617
 30
0.0
 11
3865.4831655145421792
 21
42.747756777114617
 31
0.0
  0
LINE
  5
E8A4
  8
0
 10
3865.4831655145421792
 20
42.747756777114617
 30
0.0
 11
3865.4831655145421792
 21
42.3934260685146285
 31
0.0
  0
LINE
  5
E8A5
  8
0
 10
3865.4831655145421792
 20
42.3934260685146285
 30
0.0
 11
3865.5500946484421547
 21
42.3934260684146267
 31
0.0
  0
LINE
  5
E8A6
  8
0
 10
3865.4122993728419715
 20
42.4426386669146183
 30
0.0
 11
3865.4831655145421792
 21
42.4426386669146183
 31
0.0
  0
LINE
  5
E8A7
  8
0
 10
3865.4122993728419715
 20
42.6985441787146272
 30
0.0
 11
3865.4831655145421792
 21
42.6985441787146272
 31
0.0
  0
LINE
  5
E8A8
  8
0
 10
3853.1485592153408106
 20
66.0791701629146218
 30
0.0
 11
3862.9517088216412048
 21
66.0791701629146218
 31
0.0
  0
LINE
  5
E8A9
  8
0
 10
3862.9517088216412048
 20
66.0791701629146218
 30
0.0
 11
3862.9517088216412048
 21
65.9367331551146236
 31
0.0
  0
LINE
  5
E8AA
  8
0
 10
3853.1485592153408106
 20
66.0133079582146252
 30
0.0
 11
3853.5422600027409317
 21
66.0133079582146252
 31
0.0
  0
LINE
  5
E8AB
  8
0
 10
3853.5422600027409317
 20
66.0133079582146252
 30
0.0
 11
3853.5422600027409317
 21
65.9367331551146236
 31
0.0
  0
LINE
  5
E8AC
  8
0
 10
3853.4241497665411771
 20
66.0133079582146252
 30
0.0
 11
3853.4241497665411771
 21
65.9367331551146236
 31
0.0
  0
CIRCLE
  5
E8AE
  8
0
 10
3823.00682693194085
 20
18.1525638637146187
 30
0.0
 40
0.0787401575000004
  0
ENDSEC
  0
EOF
