  0
SECTION
  2
HEADER
  9
$ACADVER
  1
AC1009
  9
$INSBASE
 10
585.964162483838777
 20
155.0004970634664971
 30
0.0
  9
$EXTMIN
 10
584.9954988010664465
 20
150.0270951410869884
 30
-0.0000000000112498
  9
$EXTMAX
 10
586.965843343213578
 20
155.9585889688208056
 30
0.0000000000002956
  9
$LIMMIN
 10
0.0
 20
0.0
  9
$LIMMAX
 10
11.6929133858000007
 20
8.2677165353999982
  9
$ORTHOMODE
 70
     1
  9
$REGENMODE
 70
     1
  9
$FILLMODE
 70
     1
  9
$QTEXTMODE
 70
     0
  9
$MIRRTEXT
 70
     0
  9
$DRAGMODE
 70
     2
  9
$LTSCALE
 40
0.6431102362
  9
$OSMODE
 70
     7
  9
$ATTMODE
 70
     1
  9
$TEXTSIZE
 40
0.2
  9
$TRACEWID
 40
0.05
  9
$TEXTSTYLE
  7
STANDARD
  9
$CLAYER
  8
0
  9
$CELTYPE
  6
BYLAYER
  9
$CECOLOR
 62
   256
  9
$DIMSCALE
 40
1.0
  9
$DIMASZ
 40
0.1875
  9
$DIMEXO
 40
0.0625
  9
$DIMDLI
 40
0.4443307087
  9
$DIMRND
 40
0.0
  9
$DIMDLE
 40
0.0
  9
$DIMEXE
 40
0.125
  9
$DIMTP
 40
0.01
  9
$DIMTM
 40
0.01
  9
$DIMTXT
 40
2.0
  9
$DIMCEN
 40
0.1052362205
  9
$DIMTSZ
 40
0.0
  9
$DIMTOL
 70
     1
  9
$DIMLIM
 70
     0
  9
$DIMTIH
 70
     1
  9
$DIMTOH
 70
     1
  9
$DIMSE1
 70
     0
  9
$DIMSE2
 70
     0
  9
$DIMTAD
 70
     0
  9
$DIMZIN
 70
     0
  9
$DIMBLK
  1

  9
$DIMASO
 70
     1
  9
$DIMSHO
 70
     1
  9
$DIMPOST
  1
\X
  9
$DIMAPOST
  1

  9
$DIMALT
 70
     1
  9
$DIMALTD
 70
     2
  9
$DIMALTF
 40
25.3999999999999986
  9
$DIMLFAC
 40
1.0
  9
$DIMTOFL
 70
     0
  9
$DIMTVP
 40
0.0
  9
$DIMTIX
 70
     0
  9
$DIMSOXD
 70
     0
  9
$DIMSAH
 70
     0
  9
$DIMBLK1
  1

  9
$DIMBLK2
  1

  9
$DIMSTYLE
  2
STANDARD
  9
$DIMCLRD
 70
     0
  9
$DIMCLRE
 70
     0
  9
$DIMCLRT
 70
     0
  9
$DIMTFAC
 40
1.0
  9
$DIMGAP
 40
0.09
  9
$LUNITS
 70
     2
  9
$LUPREC
 70
     4
  9
$SKETCHINC
 40
0.1
  9
$FILLETRAD
 40
0.0
  9
$AUNITS
 70
     0
  9
$AUPREC
 70
     0
  9
$MENU
  1
.
  9
$ELEVATION
 40
0.0
  9
$PELEVATION
 40
0.0
  9
$THICKNESS
 40
0.0
  9
$LIMCHECK
 70
     0
  9
$BLIPMODE
 70
     0
  9
$CHAMFERA
 40
0.0
  9
$CHAMFERB
 40
0.0
  9
$SKPOLY
 70
     0
  9
$TDCREATE
 40
2458106.4931018520146608
  9
$TDUPDATE
 40
2459660.6579629629850388
  9
$TDINDWG
 40
0.2316536574
  9
$TDUSRTIMER
 40
0.2316536574
  9
$USRTIMER
 70
     1
  9
$ANGBASE
 50
0.0
  9
$ANGDIR
 70
     0
  9
$PDMODE
 70
     0
  9
$PDSIZE
 40
0.3125
  9
$PLINEWID
 40
0.0
  9
$COORDS
 70
     1
  9
$SPLFRAME
 70
     0
  9
$SPLINETYPE
 70
     6
  9
$SPLINESEGS
 70
     8
  9
$ATTDIA
 70
     1
  9
$ATTREQ
 70
     1
  9
$HANDLING
 70
     1
  9
$HANDSEED
  5
2CAE
  9
$SURFTAB1
 70
     6
  9
$SURFTAB2
 70
     6
  9
$SURFTYPE
 70
     6
  9
$SURFU
 70
     6
  9
$SURFV
 70
     6
  9
$UCSNAME
  2

  9
$UCSORG
 10
0.0
 20
0.0
 30
0.0
  9
$UCSXDIR
 10
1.0
 20
0.0
 30
0.0
  9
$UCSYDIR
 10
0.0
 20
1.0
 30
0.0
  9
$PUCSNAME
  2

  9
$PUCSORG
 10
0.0
 20
0.0
 30
0.0
  9
$PUCSXDIR
 10
1.0
 20
0.0
 30
0.0
  9
$PUCSYDIR
 10
0.0
 20
1.0
 30
0.0
  9
$USERI1
 70
     0
  9
$USERI2
 70
     0
  9
$USERI3
 70
     0
  9
$USERI4
 70
     0
  9
$USERI5
 70
     0
  9
$USERR1
 40
0.0
  9
$USERR2
 40
0.0
  9
$USERR3
 40
0.0
  9
$USERR4
 40
0.0
  9
$USERR5
 40
0.0
  9
$WORLDVIEW
 70
     1
  9
$SHADEDGE
 70
     3
  9
$SHADEDIF
 70
    70
  9
$TILEMODE
 70
     1
  9
$MAXACTVP
 70
    64
  9
$PLIMCHECK
 70
     0
  9
$PEXTMIN
 10
1.0000000000000000E+20
 20
1.0000000000000000E+20
 30
1.0000000000000000E+20
  9
$PEXTMAX
 10
-1.0000000000000000E+20
 20
-1.0000000000000000E+20
 30
-1.0000000000000000E+20
  9
$PLIMMIN
 10
0.0
 20
0.0
  9
$PLIMMAX
 10
12.0
 20
9.0
  9
$UNITMODE
 70
     0
  9
$VISRETAIN
 70
     1
  9
$PLINEGEN
 70
     0
  9
$PSLTSCALE
 70
     1
  0
ENDSEC
  0
SECTION
  2
TABLES
  0
TABLE
  2
VPORT
 70
     1
  0
VPORT
  2
*ACTIVE
 70
     0
 10
0.0
 20
0.0
 11
1.0
 21
1.0
 12
312.4064695156270091
 22
170.5988027889754051
 13
0.0
 23
0.0
 14
1.0
 24
1.0
 15
0.0
 25
0.0
 16
-0.0000000000000568
 26
0.0
 36
193.9250709296327955
 17
273.5742015565131169
 27
-17.6059607340214797
 37
0.0
 40
5.973962757287949
 41
2.2831541218637992
 42
50.0
 43
0.0
 44
0.0
 50
0.0
 51
0.0
 71
     0
 72
   100
 73
     1
 74
     1
 75
     0
 76
     0
 77
     0
 78
     0
  0
ENDTAB
  0
TABLE
  2
LTYPE
 70
     2
  0
LTYPE
  2
CONTINUOUS
 70
     0
  3
Solid line
 72
    65
 73
     0
 40
0.0
  0
LTYPE
  2
PHANTOM2
 70
     0
  3
___ _ _ ___ _ _ ___ _ _ ___ _ _
 72
    65
 73
     6
 40
1.25
 49
0.625
 49
-0.125
 49
0.125
 49
-0.125
 49
0.125
 49
-0.125
  0
ENDTAB
  0
TABLE
  2
LAYER
 70
     2
  0
LAYER
  2
0
 70
     0
 62
   255
  6
CONTINUOUS
  0
LAYER
  2
DEFPOINTS
 70
     0
 62
     7
  6
CONTINUOUS
  0
ENDTAB
  0
TABLE
  2
STYLE
 70
     1
  0
STYLE
  2
STANDARD
 70
     0
 40
0.0
 41
0.8
 50
0.0
 71
     0
 42
0.2
  3
txt
  4

  0
ENDTAB
  0
TABLE
  2
VIEW
 70
     0
  0
ENDTAB
  0
TABLE
  2
UCS
 70
     0
  0
ENDTAB
  0
TABLE
  2
APPID
 70
     9
  0
APPID
  2
ACAD
 70
     0
  0
APPID
  2
ACAD_MLEADERVER
 70
     0
  0
APPID
  2
ACAD_EXEMPT_FROM_CAD_STANDARDS
 70
     0
  0
APPID
  2
ACAD_NAV_VCDISPLAY
 70
     0
  0
APPID
  2
ACAD_DSTYLE_DIMJAG
 70
     0
  0
APPID
  2
ACAD_DSTYLE_DIMTALN
 70
     0
  0
APPID
  2
ACAECLAYERSTANDARD
 70
     0
  0
APPID
  2
ACCMTRANSPARENCY
 70
     0
  0
APPID
  2
ACDBATTR
 70
     0
  0
ENDTAB
  0
TABLE
  2
DIMSTYLE
 70
     1
  0
DIMSTYLE
  2
STANDARD
 70
     0
  3

  4

  5

  6

  7

 40
1.0
 41
0.1875
 42
0.0625
 43
0.38
 44
0.125
 45
0.0
 46
0.0
 47
0.01
 48
0.01
140
0.15625
141
0.09
142
0.0
143
25.3999999999999986
144
1.0
145
0.0
146
1.0
147
0.09
 71
     1
 72
     0
 73
     1
 74
     1
 75
     0
 76
     0
 77
     0
 78
     4
170
     0
171
     2
172
     0
173
     0
174
     0
175
     0
176
     0
177
     0
178
     0
  0
ENDTAB
  0
ENDSEC
  0
SECTION
  2
BLOCKS
  0
BLOCK
  8
0
  2
$MODEL_SPACE
 70
     0
 10
0.0
 20
0.0
 30
0.0
  3
$MODEL_SPACE
  1

  0
ENDBLK
  5
21
  8
0
  0
BLOCK
 67
     1
  8
0
  2
$PAPER_SPACE
 70
     0
 10
0.0
 20
0.0
 30
0.0
  3
$PAPER_SPACE
  1

  0
ENDBLK
  5
1D
 67
     1
  8
0
  0
ENDSEC
  0
SECTION
  2
ENTITIES
  0
ATTDEF
  5
FAA
  8
DEFPOINTS
 10
585.9644722805670654
 20
155.0041094070545
 30
0.0
 40
0.001
  1
K-23966IN-4ND
  3

  2
MODELNUMBER
 70
     0
1001
ACDBATTR
1070
     0
1070
     1
  0
ATTDEF
  5
FAB
  8
DEFPOINTS
 10
585.9644722805670654
 20
155.0024427403878065
 30
0.0
 40
0.001
  1

  3

  2
TRADENAME
 70
     0
1001
ACDBATTR
1070
     0
1070
     1
  0
ATTDEF
  5
FAC
  8
DEFPOINTS
 10
585.9644722805670654
 20
155.0007760737211981
 30
0.0
 40
0.001
  1
BATHROOM SINK FAUCET
  3

  2
PRODUCT
 70
     0
1001
ACDBATTR
1070
     0
1070
     1
  0
LINE
  5
2B48
  8
0
 10
585.0661437558961779
 20
154.2093297293106957
 30
0.0
 11
585.007246839788877
 21
154.9244627930731895
 31
0.0
  0
LINE
  5
2B49
  8
0
 10
585.2311280889729233
 20
152.4145541618937898
 30
0.0
 11
585.441605080988893
 21
150.3779411728731077
 31
0.0
  0
ARC
  5
2B4A
  8
0
 10
1953.7213208008670335
 20
275.5249833987456896
 30
0.0
 40
1374.0165884499060667
 50
185.1295176891686936
 51
185.1405348039328089
  0
ARC
  5
2B4B
  8
0
 10
521.4906491131976054
 20
147.3348761400498006
 30
0.0
 40
63.9404442319848627
 50
4.7931855094569391
 51
5.0426027901291022
  0
ARC
  5
2B4C
  8
0
 10
452.1452455650439788
 20
141.1276814367888051
 30
0.0
 40
133.5630738561827968
 50
5.080334010185851
 51
5.6207660824914507
  0
ARC
  5
2B4D
  8
0
 10
585.725799769824448
 20
150.4091400918410102
 30
0.0
 40
0.2859020701344508
 50
186.2648490032754864
 51
210.8067683148368019
  0
ARC
  5
2B4E
  8
0
 10
585.8076353450564966
 20
150.459714414186891
 30
0.0
 40
0.3820949990889363
 50
211.0356895490301099
 51
232.6298629855207025
  0
ARC
  5
2B4F
  8
0
 10
585.9066265384670942
 20
150.5883114059244008
 30
0.0
 40
0.5443792393869433
 50
232.5648260817181949
 51
251.0285298120263064
  0
ARC
  5
2B50
  8
0
 10
585.9485907130122087
 20
155.0011018061717891
 30
0.0
 40
0.9444584829329336
 50
175.345560028423705
 51
184.654439971576295
  0
ARC
  5
2B51
  8
0
 10
585.9444993553048562
 20
155.0028647884840041
 30
0.0
 40
0.9402386387653882
 50
152.8437131480889946
 51
175.4324064095696087
  0
ARC
  5
2B52
  8
0
 10
585.9544876091915739
 20
155.0004356076507861
 30
0.0
 40
0.9502375851793519
 50
125.7362839196127027
 51
152.9882694641243859
  0
ARC
  5
2B53
  8
0
 10
585.9623965262369438
 20
154.9903420639732872
 30
0.0
 40
0.9630500424146049
 50
103.7389027028127941
 51
125.7674938596206005
  0
ARC
  5
2B54
  8
0
 10
585.9583164520333867
 20
153.6634896941901047
 30
0.0
 40
0.6692993332445987
 50
163.2600777477256884
 51
196.7399222522734874
  0
ARC
  5
2B55
  8
0
 10
585.8829363849081346
 20
153.6444964309472141
 30
0.0
 40
0.5916536213818262
 50
197.0811102647978998
 51
212.4728903611052999
  0
ARC
  5
2B56
  8
0
 10
585.9454342679273395
 20
153.671439926984192
 30
0.0
 40
0.6589345728768594
 50
211.5316446124456888
 51
241.6147171373168874
  0
ARC
  5
2B57
  8
0
 10
585.9647976114524681
 20
153.7076307808675892
 30
0.0
 40
0.6999795463424094
 50
241.628613067557211
 51
258.0559953341333994
  0
ARC
  5
2B58
  8
0
 10
585.9429237070837644
 20
153.6624347084442093
 30
0.0
 40
0.6548853933297664
 50
148.9490036196428946
 51
162.7837939391527868
  0
ARC
  5
2B59
  8
0
 10
585.9543979648210552
 20
153.6555263715455908
 30
0.0
 40
0.6682788137042448
 50
137.918748846449688
 51
148.9490036196428946
  0
ARC
  5
2B5A
  8
0
 10
585.9504731899738772
 20
153.6590703455914024
 30
0.0
 40
0.6629907507659379
 50
129.3869855960292057
 51
137.918748846449688
  0
ARC
  5
2B5B
  8
0
 10
584.8312831849140139
 20
154.5032577677191057
 30
0.0
 40
0.7732776507028597
 50
312.0600205805769747
 51
335.3508951164249083
  0
ARC
  5
2B5C
  8
0
 10
585.913895706561334
 20
153.7003792019662001
 30
0.0
 40
0.6098362658176396
 50
165.5434187749420119
 51
194.4565812250579029
  0
ARC
  5
2B5D
  8
0
 10
585.8662560058791087
 20
153.71124325500071
 30
0.0
 40
0.5609944860694588
 50
152.7856534542821123
 51
165.4031898771306999
  0
ARC
  5
2B5E
  8
0
 10
585.9095070623717447
 20
153.6847922757357878
 30
0.0
 40
0.6115657667807534
 50
138.0878040179748041
 51
152.434952048008995
  0
ARC
  5
2B5F
  8
0
 10
586.0229568872398431
 20
153.5851547855625086
 30
0.0
 40
0.7625503517391673
 50
130.681085541415996
 51
138.2107501315483091
  0
ARC
  5
2B60
  8
0
 10
585.8493569576335176
 20
153.6856931664644037
 30
0.0
 40
0.5436779748395013
 50
194.6558471655449978
 51
209.4488868126647958
  0
ARC
  5
2B61
  8
0
 10
585.9662857697712752
 20
153.7529082143863093
 30
0.0
 40
0.6785458303883536
 50
209.5369409465363049
 51
229.2452221456946972
  0
ARC
  5
2B62
  8
0
 10
584.1559683393192017
 20
154.8191771280733917
 30
0.0
 40
1.5188243370333661
 50
335.1439519921825081
 51
338.5662136501688906
  0
ARC
  5
2B63
  8
0
 10
582.8202297186711576
 20
155.3249790672325901
 30
0.0
 40
2.947067717817244
 50
338.9024071122503869
 51
342.72868779203651
  0
ARC
  5
2B64
  8
0
 10
575.385701286680046
 20
157.6672251742394053
 30
0.0
 40
10.7418155371531903
 50
342.5721611003488078
 51
343.7071175824673901
  0
ARC
  5
2B65
  8
0
 10
585.8449125054854676
 20
154.6178091363501039
 30
0.0
 40
0.1530380645967159
 50
150.4091241928358897
 51
209.5908758071668956
  0
ARC
  5
2B66
  8
0
 10
585.8509600893133893
 20
154.6213728986867011
 30
0.0
 40
0.1600567212760279
 50
209.631196360902095
 51
240.9406359938865023
  0
ARC
  5
2B67
  8
0
 10
585.8545211884797936
 20
154.6359349675713872
 30
0.0
 40
0.1745602813311556
 50
242.2406028074364883
 51
265.0086340238311777
  0
ARC
  5
2B68
  8
0
 10
585.8509600893133893
 20
154.6142453740133931
 30
0.0
 40
0.1600567212760279
 50
119.0593640061133982
 51
150.368803639097905
  0
ARC
  5
2B69
  8
0
 10
585.8545211884797936
 20
154.5996833051287069
 30
0.0
 40
0.1745602813311556
 50
94.9913659761688223
 51
117.7593971925634975
  0
LINE
  5
2B6A
  8
0
 10
586.8621812117813761
 20
154.2093297293106957
 30
0.0
 11
586.9210781278889044
 21
154.9244627930731895
 31
0.0
  0
LINE
  5
2B6B
  8
0
 10
586.6971968787047444
 20
152.4145541618937898
 30
0.0
 11
586.4867198866887747
 21
150.3779411728731077
 31
0.0
  0
ARC
  5
2B6C
  8
0
 10
-781.7929958331894795
 20
275.5249833987456896
 30
0.0
 40
1374.0165884499060667
 50
354.8594651960672195
 51
354.870482310831278
  0
ARC
  5
2B6D
  8
0
 10
650.4376758544799486
 20
147.3348761400498006
 30
0.0
 40
63.9404442319848627
 50
174.9573972098708907
 51
175.2068144905431097
  0
ARC
  5
2B6E
  8
0
 10
719.7830794026335752
 20
141.1276814367888051
 30
0.0
 40
133.5630738561827968
 50
174.3792339175085999
 51
174.9196659898140922
  0
ARC
  5
2B6F
  8
0
 10
586.2025251978532197
 20
150.4091400918410102
 30
0.0
 40
0.2859020701344508
 50
329.1932316851631981
 51
353.7351509967244851
  0
ARC
  5
2B70
  8
0
 10
586.1206896226210574
 20
150.459714414186891
 30
0.0
 40
0.3820949990889363
 50
307.3701370144792122
 51
328.9643104509698901
  0
ARC
  5
2B71
  8
0
 10
586.0216984292104598
 20
150.5883114059244008
 30
0.0
 40
0.5443792393869433
 50
288.9714701879736936
 51
307.4351739182818051
  0
ARC
  5
2B72
  8
0
 10
585.9797342546653454
 20
155.0011018061717891
 30
0.0
 40
0.9444584829329336
 50
355.345560028422824
 51
4.6544399715763163
  0
ARC
  5
2B73
  8
0
 10
585.9838256123728115
 20
155.0028647884840041
 30
0.0
 40
0.9402386387653882
 50
4.5675935904304339
 51
27.1562868519109699
  0
ARC
  5
2B74
  8
0
 10
585.9738373584859801
 20
155.0004356076507861
 30
0.0
 40
0.9502375851793519
 50
27.0117305358755289
 51
54.2637160803872902
  0
ARC
  5
2B75
  8
0
 10
585.9659284414406102
 20
154.9903420639732872
 30
0.0
 40
0.9630500424146049
 50
54.2325061403793782
 51
76.2610972971872201
  0
ARC
  5
2B76
  8
0
 10
585.9700085156441673
 20
153.6634896941901047
 30
0.0
 40
0.6692993332445987
 50
343.2600777477255747
 51
16.7399222522743401
  0
ARC
  5
2B77
  8
0
 10
586.0453885827695331
 20
153.6444964309472141
 30
0.0
 40
0.5916536213818262
 50
327.5271096388946717
 51
342.9188897352020717
  0
ARC
  5
2B78
  8
0
 10
585.9828906997503282
 20
153.671439926984192
 30
0.0
 40
0.6589345728768594
 50
298.3852828626830842
 51
328.4683553875543112
  0
ARC
  5
2B79
  8
0
 10
585.9635273562250859
 20
153.7076307808675892
 30
0.0
 40
0.6999795463424094
 50
281.9440046658666006
 51
298.3713869324428174
  0
ARC
  5
2B7A
  8
0
 10
585.9854012605936759
 20
153.6624347084442093
 30
0.0
 40
0.6548853933297664
 50
17.216206060847199
 51
31.0509963803570983
  0
ARC
  5
2B7B
  8
0
 10
585.9739270028564988
 20
153.6555263715455908
 30
0.0
 40
0.6682788137042448
 50
31.0509963803570983
 51
42.0812511535502267
  0
ARC
  5
2B7C
  8
0
 10
585.9778517777039042
 20
153.6590703455914024
 30
0.0
 40
0.6629907507659379
 50
42.0812511535496228
 51
50.6130144039702188
  0
ARC
  5
2B7D
  8
0
 10
587.0970417827636538
 20
154.5032577677191057
 30
0.0
 40
0.7732776507028597
 50
204.6491048835742959
 51
227.9399794194229969
  0
ARC
  5
2B7E
  8
0
 10
586.0144292611163337
 20
153.7003792019662001
 30
0.0
 40
0.6098362658176396
 50
345.5434187749419834
 51
14.4565812250579704
  0
ARC
  5
2B7F
  8
0
 10
586.0620689617984453
 20
153.71124325500071
 30
0.0
 40
0.5609944860694588
 50
14.5968101228693001
 51
27.2143465457178984
  0
ARC
  5
2B80
  8
0
 10
586.018817905305923
 20
153.6847922757357878
 30
0.0
 40
0.6115657667807534
 50
27.565047951990941
 51
41.9121959820251675
  0
ARC
  5
2B81
  8
0
 10
585.9053680804378246
 20
153.5851547855625086
 30
0.0
 40
0.7625503517391673
 50
41.7892498684516482
 51
49.3189144585839685
  0
ARC
  5
2B82
  8
0
 10
586.0789680100441501
 20
153.6856931664644037
 30
0.0
 40
0.5436779748395013
 50
330.5511131873350905
 51
345.3441528344541211
  0
ARC
  5
2B83
  8
0
 10
585.9620391979062788
 20
153.7529082143863093
 30
0.0
 40
0.6785458303883536
 50
310.754777854310305
 51
330.4630590534637236
  0
ARC
  5
2B84
  8
0
 10
587.7723566283583523
 20
154.8191771280733917
 30
0.0
 40
1.5188243370333661
 50
201.4337863498309957
 51
204.8560480078174919
  0
ARC
  5
2B85
  8
0
 10
589.1080952490063964
 20
155.3249790672325901
 30
0.0
 40
2.947067717817244
 50
197.27131220796349
 51
201.0975928877494994
  0
ARC
  5
2B86
  8
0
 10
596.5426236809977354
 20
157.6672251742394053
 30
0.0
 40
10.7418155371531903
 50
196.2928824175324962
 51
197.4278388996511922
  0
ARC
  5
2B87
  8
0
 10
586.0834124621920864
 20
154.6178091363501039
 30
0.0
 40
0.1530380645967159
 50
330.409124192833076
 51
29.5908758071640996
  0
ARC
  5
2B88
  8
0
 10
586.077364878364051
 20
154.6213728986867011
 30
0.0
 40
0.1600567212760279
 50
299.0593640061134124
 51
330.368803639097905
  0
ARC
  5
2B89
  8
0
 10
586.0738037791976467
 20
154.6359349675713872
 30
0.0
 40
0.1745602813311556
 50
274.9913659761688223
 51
297.7593971925634833
  0
ARC
  5
2B8A
  8
0
 10
586.077364878364051
 20
154.6142453740133931
 30
0.0
 40
0.1600567212760279
 50
29.6311963609020914
 51
60.9406359938865805
  0
ARC
  5
2B8B
  8
0
 10
586.0738037791976467
 20
154.5996833051287069
 30
0.0
 40
0.1745602813311556
 50
62.240602807436467
 51
85.0086340238312062
  0
ARC
  5
2B8C
  8
0
 10
585.964162483838777
 20
154.9891368694341054
 30
0.0
 40
0.9646412237389943
 50
76.1762086265415235
 51
103.8237913734584055
  0
ARC
  5
2B8E
  8
0
 10
585.964162483838777
 20
150.7581064569559999
 30
0.0
 40
0.723656331409771
 50
251.0910219794604927
 51
288.9089780205395073
  0
ARC
  5
2B8F
  8
0
 10
585.964162483838777
 20
153.6990767138815954
 30
0.0
 40
0.6914801833830336
 50
257.9607949704185899
 51
282.0392050295814101
  0
ARC
  5
2B90
  8
0
 10
585.965819649970399
 20
153.7488204826065896
 30
0.0
 40
0.6751490073130632
 50
229.0487215716680112
 51
241.4964121757452062
  0
ARC
  5
2B91
  8
0
 10
585.9413905200499357
 20
153.7094225753355943
 30
0.0
 40
0.628874366128899
 50
241.7393793965325131
 51
253.4396665283701111
  0
ARC
  5
2B92
  8
0
 10
585.9569760318905765
 20
153.7720476952997899
 30
0.0
 40
0.6933501718743438
 50
253.6801952490947087
 51
262.7255313746966863
  0
ARC
  5
2B93
  8
0
 10
585.9638080619887432
 20
153.7115534012727096
 30
0.0
 40
0.6423805221995949
 50
254.680012203426088
 51
263.6080129034784818
  0
ARC
  5
2B94
  8
0
 10
585.963646745422011
 20
153.7109645344119997
 30
0.0
 40
0.641769959168995
 50
247.3544318895895913
 51
254.680012203426088
  0
ARC
  5
2B95
  8
0
 10
585.9595394740143774
 20
153.7011195252206051
 30
0.0
 40
0.6311025375314135
 50
237.9108187156300005
 51
247.354431889589307
  0
ARC
  5
2B96
  8
0
 10
585.9638854689887921
 20
153.7097258157729129
 30
0.0
 40
0.642650073299796
 50
256.7860800281807769
 51
264.5285646697972766
  0
ARC
  5
2B97
  8
0
 10
585.9638854689887921
 20
153.7097258157731119
 30
0.0
 40
0.6426500733000075
 50
232.3338238638341124
 51
256.7860800281807769
  0
ARC
  5
2B98
  8
0
 10
585.962505317707155
 20
153.7488204826065896
 30
0.0
 40
0.6751490073130632
 50
298.5035878242546801
 51
310.9512784283321025
  0
ARC
  5
2B99
  8
0
 10
585.986934447627732
 20
153.7094225753355943
 30
0.0
 40
0.628874366128899
 50
286.5603334716299173
 51
298.2606206034676006
  0
ARC
  5
2B9A
  8
0
 10
585.9713489357870912
 20
153.7720476952997899
 30
0.0
 40
0.6933501718743438
 50
277.2744686253032
 51
286.3198047509052913
  0
ARC
  5
2B9B
  8
0
 10
585.9645169056888108
 20
153.7115534012727096
 30
0.0
 40
0.6423805221995949
 50
276.3919870965214045
 51
285.319987796573912
  0
ARC
  5
2B9C
  8
0
 10
585.9646782222556567
 20
153.7109645344119997
 30
0.0
 40
0.641769959168995
 50
285.319987796573912
 51
292.6455681104104087
  0
ARC
  5
2B9D
  8
0
 10
585.9687854936631766
 20
153.7011195252206051
 30
0.0
 40
0.6311025375314135
 50
292.645568110410693
 51
302.0891812843699995
  0
ARC
  5
2B9E
  8
0
 10
585.9644394986887619
 20
153.7097258157729129
 30
0.0
 40
0.642650073299796
 50
275.4714353302027234
 51
283.2139199718191094
  0
ARC
  5
2B9F
  8
0
 10
585.9644394986887619
 20
153.7097258157731119
 30
0.0
 40
0.6426500733000075
 50
283.2139199718191094
 51
307.666176136165916
  0
ARC
  5
2BA0
  8
0
 10
585.964162483838777
 20
153.7745605420712991
 30
0.0
 40
0.6967860434203175
 50
262.1655103873241046
 51
277.8344896126758954
  0
ARC
  5
2BA1
  8
0
 10
585.964162483838777
 20
153.7158944428111056
 30
0.0
 40
0.6467340486956666
 50
263.6196246641408152
 51
276.3803753358592985
  0
ARC
  5
2BA2
  8
0
 10
585.964162483838777
 20
153.7151989331422897
 30
0.0
 40
0.6481247143210478
 50
264.5503210496127053
 51
275.4496789503872947
  0
ARC
  5
2BA3
  8
0
 10
585.964162483838777
 20
149.4174481284709941
 30
0.0
 40
5.3575879172256453
 50
88.6649172225723703
 51
91.3350827774276155
  0
ARC
  5
2BA4
  8
0
 10
585.964162483838777
 20
155.7118209585835871
 30
0.0
 40
1.2560028272850481
 50
264.2961887313513785
 51
275.7038112686486215
  0
ENDSEC
  0
EOF
