  0
SECTION
  2
HEADER
  9
$ACADVER
  1
AC1009
  9
$INSBASE
 10
619.2515500159397561
 20
165.4836399817677943
 30
0.0
  9
$EXTMIN
 10
613.6737614171724999
 20
165.4784391060624955
 30
-0.0000000000000058
  9
$EXTMAX
 10
620.2419126647090479
 20
180.3456039377853983
 30
0.0000000000000104
  9
$LIMMIN
 10
0.0
 20
0.0
  9
$LIMMAX
 10
11.6929133858000007
 20
8.2677165353999982
  9
$ORTHOMODE
 70
     1
  9
$REGENMODE
 70
     1
  9
$FILLMODE
 70
     1
  9
$QTEXTMODE
 70
     0
  9
$MIRRTEXT
 70
     0
  9
$DRAGMODE
 70
     2
  9
$LTSCALE
 40
0.6431102362
  9
$OSMODE
 70
     7
  9
$ATTMODE
 70
     1
  9
$TEXTSIZE
 40
0.2
  9
$TRACEWID
 40
0.05
  9
$TEXTSTYLE
  7
STANDARD
  9
$CLAYER
  8
0
  9
$CELTYPE
  6
BYLAYER
  9
$CECOLOR
 62
   256
  9
$DIMSCALE
 40
1.0
  9
$DIMASZ
 40
0.1875
  9
$DIMEXO
 40
0.0625
  9
$DIMDLI
 40
0.4443307087
  9
$DIMRND
 40
0.0
  9
$DIMDLE
 40
0.0
  9
$DIMEXE
 40
0.125
  9
$DIMTP
 40
0.01
  9
$DIMTM
 40
0.01
  9
$DIMTXT
 40
2.0
  9
$DIMCEN
 40
0.1052362205
  9
$DIMTSZ
 40
0.0
  9
$DIMTOL
 70
     1
  9
$DIMLIM
 70
     0
  9
$DIMTIH
 70
     1
  9
$DIMTOH
 70
     1
  9
$DIMSE1
 70
     0
  9
$DIMSE2
 70
     0
  9
$DIMTAD
 70
     0
  9
$DIMZIN
 70
     0
  9
$DIMBLK
  1

  9
$DIMASO
 70
     1
  9
$DIMSHO
 70
     1
  9
$DIMPOST
  1
\X
  9
$DIMAPOST
  1

  9
$DIMALT
 70
     1
  9
$DIMALTD
 70
     2
  9
$DIMALTF
 40
25.3999999999999986
  9
$DIMLFAC
 40
1.0
  9
$DIMTOFL
 70
     0
  9
$DIMTVP
 40
0.0
  9
$DIMTIX
 70
     0
  9
$DIMSOXD
 70
     0
  9
$DIMSAH
 70
     0
  9
$DIMBLK1
  1

  9
$DIMBLK2
  1

  9
$DIMSTYLE
  2
STANDARD
  9
$DIMCLRD
 70
     0
  9
$DIMCLRE
 70
     0
  9
$DIMCLRT
 70
     0
  9
$DIMTFAC
 40
1.0
  9
$DIMGAP
 40
0.09
  9
$LUNITS
 70
     2
  9
$LUPREC
 70
     4
  9
$SKETCHINC
 40
0.1
  9
$FILLETRAD
 40
0.0
  9
$AUNITS
 70
     0
  9
$AUPREC
 70
     0
  9
$MENU
  1
.
  9
$ELEVATION
 40
0.0
  9
$PELEVATION
 40
0.0
  9
$THICKNESS
 40
0.0
  9
$LIMCHECK
 70
     0
  9
$BLIPMODE
 70
     0
  9
$CHAMFERA
 40
0.0
  9
$CHAMFERB
 40
0.0
  9
$SKPOLY
 70
     0
  9
$TDCREATE
 40
2458106.4931018520146608
  9
$TDUPDATE
 40
2459661.5925231478177011
  9
$TDINDWG
 40
0.2358781944
  9
$TDUSRTIMER
 40
0.2358781944
  9
$USRTIMER
 70
     1
  9
$ANGBASE
 50
0.0
  9
$ANGDIR
 70
     0
  9
$PDMODE
 70
     0
  9
$PDSIZE
 40
0.3125
  9
$PLINEWID
 40
0.0
  9
$COORDS
 70
     1
  9
$SPLFRAME
 70
     0
  9
$SPLINETYPE
 70
     6
  9
$SPLINESEGS
 70
     8
  9
$ATTDIA
 70
     1
  9
$ATTREQ
 70
     1
  9
$HANDLING
 70
     1
  9
$HANDSEED
  5
356C
  9
$SURFTAB1
 70
     6
  9
$SURFTAB2
 70
     6
  9
$SURFTYPE
 70
     6
  9
$SURFU
 70
     6
  9
$SURFV
 70
     6
  9
$UCSNAME
  2

  9
$UCSORG
 10
0.0
 20
0.0
 30
0.0
  9
$UCSXDIR
 10
1.0
 20
0.0
 30
0.0
  9
$UCSYDIR
 10
0.0
 20
1.0
 30
0.0
  9
$PUCSNAME
  2

  9
$PUCSORG
 10
0.0
 20
0.0
 30
0.0
  9
$PUCSXDIR
 10
1.0
 20
0.0
 30
0.0
  9
$PUCSYDIR
 10
0.0
 20
1.0
 30
0.0
  9
$USERI1
 70
     0
  9
$USERI2
 70
     0
  9
$USERI3
 70
     0
  9
$USERI4
 70
     0
  9
$USERI5
 70
     0
  9
$USERR1
 40
0.0
  9
$USERR2
 40
0.0
  9
$USERR3
 40
0.0
  9
$USERR4
 40
0.0
  9
$USERR5
 40
0.0
  9
$WORLDVIEW
 70
     1
  9
$SHADEDGE
 70
     3
  9
$SHADEDIF
 70
    70
  9
$TILEMODE
 70
     1
  9
$MAXACTVP
 70
    64
  9
$PLIMCHECK
 70
     0
  9
$PEXTMIN
 10
1.0000000000000000E+20
 20
1.0000000000000000E+20
 30
1.0000000000000000E+20
  9
$PEXTMAX
 10
-1.0000000000000000E+20
 20
-1.0000000000000000E+20
 30
-1.0000000000000000E+20
  9
$PLIMMIN
 10
0.0
 20
0.0
  9
$PLIMMAX
 10
12.0
 20
9.0
  9
$UNITMODE
 70
     0
  9
$VISRETAIN
 70
     1
  9
$PLINEGEN
 70
     0
  9
$PSLTSCALE
 70
     1
  0
ENDSEC
  0
SECTION
  2
TABLES
  0
TABLE
  2
VPORT
 70
     1
  0
VPORT
  2
*ACTIVE
 70
     0
 10
0.0
 20
0.0
 11
1.0
 21
1.0
 12
343.3836354844277139
 22
190.5179822559454124
 13
0.0
 23
0.0
 14
1.0
 24
1.0
 15
0.0
 25
0.0
 16
-0.0000000000000568
 26
0.0
 36
193.9250709296327955
 17
273.5742015565131169
 27
-17.6059607340214797
 37
0.0
 40
14.9750167076400604
 41
2.2831541218637992
 42
50.0
 43
0.0
 44
0.0
 50
0.0
 51
0.0
 71
     0
 72
   100
 73
     1
 74
     1
 75
     0
 76
     0
 77
     0
 78
     0
  0
ENDTAB
  0
TABLE
  2
LTYPE
 70
     2
  0
LTYPE
  2
CONTINUOUS
 70
     0
  3
Solid line
 72
    65
 73
     0
 40
0.0
  0
LTYPE
  2
PHANTOM2
 70
     0
  3
___ _ _ ___ _ _ ___ _ _ ___ _ _
 72
    65
 73
     6
 40
1.25
 49
0.625
 49
-0.125
 49
0.125
 49
-0.125
 49
0.125
 49
-0.125
  0
ENDTAB
  0
TABLE
  2
LAYER
 70
     2
  0
LAYER
  2
0
 70
     0
 62
   255
  6
CONTINUOUS
  0
LAYER
  2
DEFPOINTS
 70
     0
 62
     7
  6
CONTINUOUS
  0
ENDTAB
  0
TABLE
  2
STYLE
 70
     1
  0
STYLE
  2
STANDARD
 70
     0
 40
0.0
 41
0.8
 50
0.0
 71
     0
 42
0.2
  3
txt
  4

  0
ENDTAB
  0
TABLE
  2
VIEW
 70
     0
  0
ENDTAB
  0
TABLE
  2
UCS
 70
     0
  0
ENDTAB
  0
TABLE
  2
APPID
 70
     9
  0
APPID
  2
ACAD
 70
     0
  0
APPID
  2
ACAD_MLEADERVER
 70
     0
  0
APPID
  2
ACAD_EXEMPT_FROM_CAD_STANDARDS
 70
     0
  0
APPID
  2
ACAD_NAV_VCDISPLAY
 70
     0
  0
APPID
  2
ACAD_DSTYLE_DIMJAG
 70
     0
  0
APPID
  2
ACAD_DSTYLE_DIMTALN
 70
     0
  0
APPID
  2
ACAECLAYERSTANDARD
 70
     0
  0
APPID
  2
ACCMTRANSPARENCY
 70
     0
  0
APPID
  2
ACDBATTR
 70
     0
  0
ENDTAB
  0
TABLE
  2
DIMSTYLE
 70
     1
  0
DIMSTYLE
  2
STANDARD
 70
     0
  3

  4

  5

  6

  7

 40
1.0
 41
0.1875
 42
0.0625
 43
0.38
 44
0.125
 45
0.0
 46
0.0
 47
0.01
 48
0.01
140
0.15625
141
0.09
142
0.0
143
25.3999999999999986
144
1.0
145
0.0
146
1.0
147
0.09
 71
     1
 72
     0
 73
     1
 74
     1
 75
     0
 76
     0
 77
     0
 78
     4
170
     0
171
     2
172
     0
173
     0
174
     0
175
     0
176
     0
177
     0
178
     0
  0
ENDTAB
  0
ENDSEC
  0
SECTION
  2
BLOCKS
  0
BLOCK
  8
0
  2
$MODEL_SPACE
 70
     0
 10
0.0
 20
0.0
 30
0.0
  3
$MODEL_SPACE
  1

  0
ENDBLK
  5
21
  8
0
  0
BLOCK
 67
     1
  8
0
  2
$PAPER_SPACE
 70
     0
 10
0.0
 20
0.0
 30
0.0
  3
$PAPER_SPACE
  1

  0
ENDBLK
  5
1D
 67
     1
  8
0
  0
ENDSEC
  0
SECTION
  2
ENTITIES
  0
ATTDEF
  5
FAA
  8
DEFPOINTS
 10
619.2518598126681582
 20
165.4872523253559109
 30
0.0
 40
0.001
  1
K-23967IN-4ND
  3

  2
MODELNUMBER
 70
     0
1001
ACDBATTR
1070
     0
1070
     1
  0
ATTDEF
  5
FAB
  8
DEFPOINTS
 10
619.2518598126681582
 20
165.4855856586891889
 30
0.0
 40
0.001
  1

  3

  2
TRADENAME
 70
     0
1001
ACDBATTR
1070
     0
1070
     1
  0
ATTDEF
  5
FAC
  8
DEFPOINTS
 10
619.2518598126681582
 20
165.483918992022609
 30
0.0
 40
0.001
  1
BATHROOM SINK FAUCET
  3

  2
PRODUCT
 70
     0
1001
ACDBATTR
1070
     0
1070
     1
  0
LINE
  5
344E
  8
0
 10
618.3169179192726688
 20
165.4836399817677943
 30
0.0
 11
620.1861821126070708
 21
165.4836399817677943
 31
0.0
  0
LINE
  5
344F
  8
0
 10
617.1265250632958441
 20
171.5243386705546129
 30
0.0
 11
618.2976507491066513
 21
165.4995543310645019
 31
0.0
  0
LINE
  5
3450
  8
0
 10
620.2055657927058974
 20
165.5071037210684892
 30
0.0
 11
618.9428384295226806
 21
172.0034954583400975
 31
0.0
  0
LINE
  5
3451
  8
0
 10
613.7202427561057902
 20
173.032066879867898
 30
0.0
 11
614.4420858784066013
 21
172.3254381772673014
 31
0.0
  0
ARC
  5
3452
  8
0
 10
613.7341099275398619
 20
173.0461477910241115
 30
0.0
 40
0.0197628566398633
 50
133.5832698474025051
 51
225.4381747914468974
  0
ARC
  5
3453
  8
0
 10
583.8559721582588509
 20
204.7712376592266139
 30
0.0
 40
43.5598707744167868
 50
313.2825693659071931
 51
315.5418994220934792
  0
ARC
  5
3454
  8
0
 10
599.0460972218301094
 20
189.9371890174718089
 30
0.0
 40
22.3282003730486096
 50
315.4110780051901202
 51
319.2575688218926757
  0
ARC
  5
3455
  8
0
 10
606.8649507564681471
 20
183.207874888937198
 30
0.0
 40
12.0122854698377601
 50
319.2357356807186761
 51
326.5005124567113057
  0
ARC
  5
3456
  8
0
 10
616.9148196496990977
 20
176.5562453890526058
 30
0.0
 40
0.0394381446939796
 50
75.8917532818337151
 51
146.6269277747900901
  0
LINE
  5
3457
  8
0
 10
616.9244328790910004
 20
176.5944939586671865
 30
0.0
 11
618.2828546601656399
 21
176.2522772732507974
 31
0.0
  0
LINE
  5
3458
  8
0
 10
616.9399469163059848
 20
176.6121412382678102
 30
0.0
 11
616.9844828134451973
 21
176.6499393247455885
 31
0.0
  0
ARC
  5
3459
  8
0
 10
616.9527665570882391
 20
176.597110562288691
 30
0.0
 40
0.0197551109886161
 50
130.4608115511549897
 51
165.8144314649819933
  0
LINE
  5
345A
  8
0
 10
616.9336138365989655
 20
176.6019518129567984
 30
0.0
 11
616.9322681969059659
 21
176.5966112701678128
 31
0.0
  0
ARC
  5
345B
  8
0
 10
616.9362251222362374
 20
176.5957068925052909
 30
0.0
 40
0.004058960091551
 50
167.1258573039505109
 51
254.037761983053997
  0
ARC
  5
345C
  8
0
 10
617.1012905659588341
 20
176.5073519170103111
 30
0.0
 40
0.1843236823958227
 50
119.579717098964494
 51
129.3243697930217877
  0
ARC
  5
345D
  8
0
 10
617.1010252811074679
 20
176.5077780226650077
 30
0.0
 40
0.1838221587031519
 50
116.1427274475388032
 51
119.5733679603814039
  0
LINE
  5
345E
  8
0
 10
618.2896559559062553
 20
176.3527535490676996
 30
0.0
 11
616.9552708406515649
 21
176.6891638468418932
 31
0.0
  0
ARC
  5
345F
  8
0
 10
616.9581815165610124
 20
176.7006106473637033
 30
0.0
 40
0.0118110658467296
 50
147.0198716489040009
 51
255.7332667929950958
  0
ARC
  5
3460
  8
0
 10
610.8028270132890611
 20
180.6884226692866093
 30
0.0
 40
7.3224260336009506
 50
327.0624541553341942
 51
333.2044780475624748
  0
ARC
  5
3461
  8
0
 10
607.4970464705820632
 20
182.3012632835178124
 30
0.0
 40
11.0004328918820899
 50
333.4681129963910848
 51
339.7707301100240898
  0
ARC
  5
3462
  8
0
 10
597.6554132984712169
 20
185.9959669288616055
 30
0.0
 40
21.5126399899308787
 50
339.600847239596817
 51
342.1423975728027926
  0
ARC
  5
3463
  8
0
 10
587.1479869621874741
 20
189.3958271064838073
 30
0.0
 40
32.5564133108008633
 50
342.1178769224578105
 51
343.3962687515701191
  0
ARC
  5
3464
  8
0
 10
584.2485818727758442
 20
190.2575602486450066
 30
0.0
 40
35.5811657281045584
 50
343.4006245097015153
 51
343.783725897910017
  0
ARC
  5
3465
  8
0
 10
618.4331202245219856
 20
180.3154574527706018
 30
0.0
 40
0.019790352729593
 50
78.1482512903976101
 51
163.6551922029385935
  0
LINE
  5
3466
  8
0
 10
618.4371847684918748
 20
180.3348259205334045
 30
0.0
 11
618.71752328909065
 21
180.2639686874641995
 31
0.0
  0
ARC
  5
3467
  8
0
 10
618.2925109872172698
 20
176.3642444854779967
 30
0.0
 40
0.0118403050371225
 50
256.0468634490366071
 51
4.1483537544456448
  0
ARC
  5
3468
  8
0
 10
626.5452886190875006
 20
176.9544984009260133
 30
0.0
 40
8.2624745004697306
 50
177.4422971136783076
 51
181.4822968651311896
  0
ARC
  5
3469
  8
0
 10
626.0276378139614053
 20
176.9497055983426037
 30
0.0
 40
7.7454113119151726
 50
181.6052308295055013
 51
184.3286611252426042
  0
ARC
  5
346A
  8
0
 10
629.7565967254415682
 20
176.7632925149503933
 30
0.0
 40
11.4796477225524605
 50
172.0356212292109888
 51
177.1636887841675048
  0
ARC
  5
346B
  8
0
 10
639.6285093909812076
 20
175.3816286811884027
 30
0.0
 40
21.4477796682216386
 50
169.4850658273066983
 51
172.0342584298263091
  0
ARC
  5
346C
  8
0
 10
650.5533384183650014
 20
173.3691672909598935
 30
0.0
 40
32.5564133108008491
 50
168.2331161880383092
 51
169.5115080171526927
  0
ARC
  5
346D
  8
0
 10
653.5139752132947706
 20
172.749680689561302
 30
0.0
 40
35.5811657281045512
 50
167.8456590416998893
 51
168.2287604299075952
  0
ARC
  5
346E
  8
0
 10
618.7110412648553393
 20
180.2452699863603129
 30
0.0
 40
0.019790352729593
 50
347.9741927366711138
 51
70.8807992756355816
  0
ARC
  5
346F
  8
0
 10
618.2791062510315214
 20
177.3237041721787932
 30
0.0
 40
0.0119523445427958
 50
6.0003199072110673
 51
18.9383604827866208
  0
ARC
  5
3470
  8
0
 10
618.2795031731902782
 20
177.323738692880994
 30
0.0
 40
0.0115539906277811
 50
357.4048927097616115
 51
6.0358275190455073
  0
ARC
  5
3471
  8
0
 10
618.275575748786423
 20
177.3322008077697944
 30
0.0
 40
0.0154602180233467
 50
348.5728811160416853
 51
356.7974000119510833
  0
ARC
  5
3472
  8
0
 10
619.2347956608647337
 20
177.1332268938546122
 30
0.0
 40
0.9641794387231138
 50
168.2764789146652902
 51
169.8108942681434996
  0
ARC
  5
3473
  8
0
 10
619.0025280685828193
 20
177.1739600243242876
 30
0.0
 40
0.7283699670255598
 50
169.7324797200263902
 51
174.3540483897556896
  0
ARC
  5
3474
  8
0
 10
618.9617394792210234
 20
177.1797330683401981
 30
0.0
 40
0.6872134755685125
 50
174.4984702431682138
 51
178.3451845339648969
  0
ARC
  5
3475
  8
0
 10
626.480566153383279
 20
176.968258849003405
 30
0.0
 40
8.2090133360448245
 50
178.3852641352137027
 51
180.6728238693495996
  0
ARC
  5
3476
  8
0
 10
619.0676315204804041
 20
176.8828824539266975
 30
0.0
 40
0.7955890284531185
 50
180.7936336942672995
 51
184.6780860922735883
  0
ARC
  5
3477
  8
0
 10
619.2814210456031105
 20
176.9017901829633956
 30
0.0
 40
1.0102093922621771
 50
184.7579796011941085
 51
188.7237892079922972
  0
ARC
  5
3478
  8
0
 10
619.301876314536571
 20
176.9011059956434906
 30
0.0
 40
1.0303311719354951
 50
188.5136560107384867
 51
189.2960583102318992
  0
ARC
  5
3479
  8
0
 10
618.2694736861833462
 20
176.7321665265893103
 30
0.0
 40
0.0158026101818881
 50
2.0585918346634111
 51
9.1170939657005796
  0
ARC
  5
347A
  8
0
 10
618.2733200011319923
 20
176.7405113071424125
 30
0.0
 40
0.0122616336320542
 50
339.6825436109634779
 51
1.1812854707688909
  0
ARC
  5
347B
  8
0
 10
614.4558566928017171
 20
172.3395128178867992
 30
0.0
 40
0.0196908820948856
 50
225.6251386272269031
 51
308.114593763694586
  0
ARC
  5
347C
  8
0
 10
623.8504084090421884
 20
160.4595043323014067
 30
0.0
 40
15.1260084429623198
 50
125.0618953294046065
 51
128.3367644341809921
  0
ARC
  5
347D
  8
0
 10
618.7904448654712724
 20
167.6863373889871127
 30
0.0
 40
6.3038705490246913
 50
119.8340497741523052
 51
125.1508950370476043
  0
ARC
  5
347E
  8
0
 10
616.8233775400290142
 20
171.1052790340613114
 30
0.0
 40
2.359452279609854
 50
109.936072979440894
 51
119.7008788113080016
  0
ARC
  5
347F
  8
0
 10
616.2875084631998561
 20
172.5826940734469872
 30
0.0
 40
0.7878572725852222
 50
91.8925109055046079
 51
109.936072979440894
  0
ARC
  5
3480
  8
0
 10
616.2751201246907158
 20
172.9576146915902939
 30
0.0
 40
0.4127320390431754
 50
42.2988302332337867
 51
91.8925109055046079
  0
ARC
  5
3481
  8
0
 10
615.9447656704561496
 20
172.6570275956864862
 30
0.0
 40
0.8593713427957185
 50
24.1424079041577713
 51
42.2988302332337867
  0
ARC
  5
3482
  8
0
 10
611.9881883056232255
 20
171.0825466801622099
 30
0.0
 40
5.1170656079713286
 50
12.8222883098612908
 51
22.1097250993245495
  0
ARC
  5
3483
  8
0
 10
596.1129720324893242
 20
167.3783338230165896
 30
0.0
 40
21.4186546536968017
 50
11.1611877990538595
 51
13.0595361002235197
  0
ARC
  5
3484
  8
0
 10
618.3169757598894876
 20
165.5033303630102068
 30
0.0
 40
0.0196904661958245
 50
191.0560714535837974
 51
269.8316937774682174
  0
ARC
  5
3485
  8
0
 10
620.1861082603984414
 20
165.5034394084366056
 30
0.0
 40
0.0197995644032905
 50
270.2137132680198874
 51
10.6652349166598004
  0
ARC
  5
3486
  8
0
 10
618.2732349992968466
 20
176.2141064853531987
 30
0.0
 40
0.0393642848780446
 50
4.5884555818812691
 51
75.8550781682218513
  0
ARC
  5
3487
  8
0
 10
637.6561177694306934
 20
177.7577943154005879
 30
0.0
 40
19.4048923705561585
 50
184.5534574546987017
 51
185.5485906502657087
  0
ARC
  5
3488
  8
0
 10
617.4015583767129556
 20
175.5226839800747882
 30
0.0
 40
1.181056297190173
 50
44.7560214349919008
 51
45.7690920056662733
  0
ARC
  5
3489
  8
0
 10
618.1815776513180936
 20
176.2960883805465073
 30
0.0
 40
0.0826099237041979
 50
21.3801176450659689
 51
44.7560214349907497
  0
LINE
  5
348A
  8
0
 10
618.2585025564060288
 20
176.3262041317678097
 30
0.0
 11
618.278584484506041
 21
176.2748502124678112
 31
0.0
  0
ARC
  5
348B
  8
0
 10
618.2603642093054077
 20
176.2677042316495033
 30
0.0
 40
0.0195714963720647
 50
345.7198937893616062
 51
21.4150812978069105
  0
LINE
  5
348C
  8
0
 10
618.2793309745060242
 20
176.2628766765677994
 30
0.0
 11
618.2779847975059511
 21
176.257534008167795
 31
0.0
  0
ARC
  5
348D
  8
0
 10
618.2741634997942128
 20
176.2584968497114914
 30
0.0
 40
0.0039407334394761
 50
263.252699212182506
 51
345.8577255974045102
  0
LINE
  5
348E
  8
0
 10
618.2639657049060133
 20
176.2976075014678088
 30
0.0
 11
618.2369164365060215
 21
176.3044230319677865
 31
0.0
  0
ARC
  5
348F
  8
0
 10
618.2366882132245109
 20
176.303598190930586
 30
0.0
 40
0.0008558321114057
 50
74.5338938287116406
 51
138.0704597034408039
  0
ARC
  5
3490
  8
0
 10
618.2379962644500893
 20
176.302999552851702
 30
0.0
 40
0.002269849030657
 50
148.9569870058716106
 51
178.6341039487865032
  0
ARC
  5
3491
  8
0
 10
618.2531515351272446
 20
176.3032652954690036
 30
0.0
 40
0.0174257599496596
 50
180.6958746355784058
 51
195.2254650449482085
  0
ARC
  5
3492
  8
0
 10
618.283232040671237
 20
176.3113474556284928
 30
0.0
 40
0.0485730624306297
 50
195.1060814786455069
 51
202.8475578909392993
  0
LINE
  5
3493
  8
0
 10
618.2384699634060325
 20
176.2924874759677891
 30
0.0
 11
618.2419020112233738
 21
176.2840929450312899
 31
0.0
  0
ARC
  5
3494
  8
0
 10
618.2246580087229404
 20
176.2769902580909047
 30
0.0
 40
0.0186494982241962
 50
344.8572826766027219
 51
22.3864284184823603
  0
LINE
  5
3495
  8
0
 10
618.2426599617059537
 20
176.2721185568678095
 30
0.0
 11
618.2412149193058895
 21
176.2667999492678064
 31
0.0
  0
ARC
  5
3496
  8
0
 10
618.2374894433299914
 20
176.2678121447802937
 30
0.0
 40
0.0038605324766686
 50
297.2455328257938163
 51
344.7999127472073155
  0
ARC
  5
3497
  8
0
 10
618.2372176355595457
 20
176.2683399932766974
 30
0.0
 40
0.0044542525279271
 50
262.1538955478383173
 51
297.2455328258010923
  0
ARC
  5
3498
  8
0
 10
618.2637911404268607
 20
176.2970942984761962
 30
0.0
 40
0.0005420793926406
 50
46.8538080526647818
 51
71.2144152729151472
  0
ARC
  5
3499
  8
0
 10
618.2579198406418755
 20
176.2918913749022067
 30
0.0
 40
0.0083848126585456
 50
29.1296442847888102
 51
41.8887996071102791
  0
ARC
  5
349A
  8
0
 10
618.1757631419736754
 20
176.2480838395046021
 30
0.0
 40
0.1014900065755603
 50
20.9736045407809293
 51
28.1551535653123288
  0
LINE
  5
349B
  8
0
 10
618.2705289711060459
 20
176.2844109514678053
 30
0.0
 11
618.2738765338151552
 21
176.276036455522501
 31
0.0
  0
ARC
  5
349C
  8
0
 10
618.2555477854738228
 20
176.2687158505200955
 30
0.0
 40
0.019736622643122
 50
346.2900232444587232
 51
21.7720450605973213
  0
LINE
  5
349D
  8
0
 10
618.274722069606014
 20
176.2640381265678116
 30
0.0
 11
618.2734077239060753
 21
176.2586879069677934
 31
0.0
  0
ARC
  5
349E
  8
0
 10
618.2696116969575542
 20
176.2596204465774008
 30
0.0
 40
0.0039088937971162
 50
300.8292837229607244
 51
346.197922269747778
  0
ARC
  5
349F
  8
0
 10
618.2696030791522617
 20
176.259634886295288
 30
0.0
 40
0.0039257096236275
 50
262.7365406192485011
 51
300.8292837229832912
  0
ARC
  5
34A0
  8
0
 10
646.2968472470482766
 20
178.6681215686245991
 30
0.0
 40
28.0932525603627212
 50
185.6925598407233053
 51
189.0810626555019098
  0
ARC
  5
34A1
  8
0
 10
681.4678930363974132
 20
184.1201122044415115
 30
0.0
 40
63.6841825082241826
 50
188.9304096692195003
 51
190.3098859357534991
  0
ARC
  5
34A2
  8
0
 10
254.059541235778795
 20
105.9416123325906938
 30
0.0
 40
370.8153084395224823
 50
10.2621994138452699
 51
10.3751100259190991
  0
LINE
  5
34A4
  8
0
 10
616.9844828134451973
 20
176.6499393247455885
 30
0.0
 11
618.2585025564060288
 21
176.3262041317678097
 31
0.0
  0
LINE
  5
34A5
  8
0
 10
616.9399469163059848
 20
176.6121412382678102
 30
0.0
 11
618.2419020112233738
 21
176.2840929450312899
 31
0.0
  0
LINE
  5
34A6
  8
0
 10
618.2738765338151552
 20
176.276036455522501
 30
0.0
 11
618.278584484506041
 21
176.2748502124678112
 31
0.0
  0
ENDSEC
  0
EOF
