  0
SECTION
  2
HEADER
  9
$ACADVER
  1
AC1009
  9
$INSBASE
 10
3979.8160345397718629
 20
143.3604962671774956
 30
0.0
  9
$EXTMIN
 10
3978.6349321775719545
 20
142.179393904977502
 30
0.0
  9
$EXTMAX
 10
3980.997136901972226
 20
144.5415986293774893
 30
0.0
  9
$LIMMIN
 10
0.0
 20
0.0
  9
$LIMMAX
 10
11.6929133858000007
 20
8.2677165353999982
  9
$ORTHOMODE
 70
     0
  9
$REGENMODE
 70
     1
  9
$FILLMODE
 70
     1
  9
$QTEXTMODE
 70
     0
  9
$MIRRTEXT
 70
     0
  9
$DRAGMODE
 70
     2
  9
$LTSCALE
 40
0.6431102362
  9
$OSMODE
 70
  4095
  9
$ATTMODE
 70
     1
  9
$TEXTSIZE
 40
0.2
  9
$TRACEWID
 40
0.05
  9
$TEXTSTYLE
  7
STANDARD
  9
$CLAYER
  8
0
  9
$CELTYPE
  6
BYLAYER
  9
$CECOLOR
 62
   256
  9
$DIMSCALE
 40
1.0
  9
$DIMASZ
 40
0.1875
  9
$DIMEXO
 40
0.0625
  9
$DIMDLI
 40
0.4443307087
  9
$DIMRND
 40
0.0
  9
$DIMDLE
 40
0.0
  9
$DIMEXE
 40
0.125
  9
$DIMTP
 40
0.01
  9
$DIMTM
 40
0.01
  9
$DIMTXT
 40
2.0
  9
$DIMCEN
 40
0.1052362205
  9
$DIMTSZ
 40
0.0
  9
$DIMTOL
 70
     1
  9
$DIMLIM
 70
     0
  9
$DIMTIH
 70
     1
  9
$DIMTOH
 70
     1
  9
$DIMSE1
 70
     0
  9
$DIMSE2
 70
     0
  9
$DIMTAD
 70
     0
  9
$DIMZIN
 70
     0
  9
$DIMBLK
  1

  9
$DIMASO
 70
     1
  9
$DIMSHO
 70
     1
  9
$DIMPOST
  1
\X
  9
$DIMAPOST
  1

  9
$DIMALT
 70
     1
  9
$DIMALTD
 70
     2
  9
$DIMALTF
 40
25.3999999999999986
  9
$DIMLFAC
 40
1.0
  9
$DIMTOFL
 70
     0
  9
$DIMTVP
 40
0.0
  9
$DIMTIX
 70
     0
  9
$DIMSOXD
 70
     0
  9
$DIMSAH
 70
     0
  9
$DIMBLK1
  1

  9
$DIMBLK2
  1

  9
$DIMSTYLE
  2
STANDARD
  9
$DIMCLRD
 70
     0
  9
$DIMCLRE
 70
     0
  9
$DIMCLRT
 70
     0
  9
$DIMTFAC
 40
1.0
  9
$DIMGAP
 40
0.09
  9
$LUNITS
 70
     2
  9
$LUPREC
 70
     4
  9
$SKETCHINC
 40
0.1
  9
$FILLETRAD
 40
0.0
  9
$AUNITS
 70
     0
  9
$AUPREC
 70
     0
  9
$MENU
  1
.
  9
$ELEVATION
 40
0.0
  9
$PELEVATION
 40
0.0
  9
$THICKNESS
 40
0.0
  9
$LIMCHECK
 70
     0
  9
$BLIPMODE
 70
     0
  9
$CHAMFERA
 40
0.0
  9
$CHAMFERB
 40
0.0
  9
$SKPOLY
 70
     0
  9
$TDCREATE
 40
2458060.468368056230247
  9
$TDUPDATE
 40
2459092.7215856481343508
  9
$TDINDWG
 40
0.4087686343
  9
$TDUSRTIMER
 40
0.4087686343
  9
$USRTIMER
 70
     1
  9
$ANGBASE
 50
0.0
  9
$ANGDIR
 70
     0
  9
$PDMODE
 70
     0
  9
$PDSIZE
 40
0.3125
  9
$PLINEWID
 40
0.0
  9
$COORDS
 70
     1
  9
$SPLFRAME
 70
     0
  9
$SPLINETYPE
 70
     6
  9
$SPLINESEGS
 70
     8
  9
$ATTDIA
 70
     1
  9
$ATTREQ
 70
     1
  9
$HANDLING
 70
     1
  9
$HANDSEED
  5
12453
  9
$SURFTAB1
 70
     6
  9
$SURFTAB2
 70
     6
  9
$SURFTYPE
 70
     6
  9
$SURFU
 70
     6
  9
$SURFV
 70
     6
  9
$UCSNAME
  2

  9
$UCSORG
 10
0.0
 20
0.0
 30
0.0
  9
$UCSXDIR
 10
1.0
 20
0.0
 30
0.0
  9
$UCSYDIR
 10
0.0
 20
1.0
 30
0.0
  9
$PUCSNAME
  2

  9
$PUCSORG
 10
0.0
 20
0.0
 30
0.0
  9
$PUCSXDIR
 10
1.0
 20
0.0
 30
0.0
  9
$PUCSYDIR
 10
0.0
 20
1.0
 30
0.0
  9
$USERI1
 70
     0
  9
$USERI2
 70
     0
  9
$USERI3
 70
     0
  9
$USERI4
 70
     0
  9
$USERI5
 70
     0
  9
$USERR1
 40
0.0
  9
$USERR2
 40
0.0
  9
$USERR3
 40
0.0
  9
$USERR4
 40
0.0
  9
$USERR5
 40
0.0
  9
$WORLDVIEW
 70
     1
  9
$SHADEDGE
 70
     3
  9
$SHADEDIF
 70
    70
  9
$TILEMODE
 70
     1
  9
$MAXACTVP
 70
    64
  9
$PLIMCHECK
 70
     0
  9
$PEXTMIN
 10
1.0000000000000000E+20
 20
1.0000000000000000E+20
 30
1.0000000000000000E+20
  9
$PEXTMAX
 10
-1.0000000000000000E+20
 20
-1.0000000000000000E+20
 30
-1.0000000000000000E+20
  9
$PLIMMIN
 10
0.0
 20
0.0
  9
$PLIMMAX
 10
12.0
 20
9.0
  9
$UNITMODE
 70
     0
  9
$VISRETAIN
 70
     1
  9
$PLINEGEN
 70
     0
  9
$PSLTSCALE
 70
     1
  0
ENDSEC
  0
SECTION
  2
TABLES
  0
TABLE
  2
VPORT
 70
     1
  0
VPORT
  2
*ACTIVE
 70
     0
 10
0.0
 20
0.0
 11
1.0
 21
1.0
 12
69.0889662120521137
 22
9.5309102500711393
 13
0.0
 23
0.0
 14
1.0
 24
1.0
 15
0.0
 25
0.0
 16
0.0
 26
0.0
 36
60.4960186965801583
 17
3911.3653564453120453
 27
132.5796051025390057
 37
0.0
 40
3.4095224103654358
 41
2.5522620904836191
 42
50.0
 43
0.0
 44
0.0
 50
0.0
 51
0.0
 71
     0
 72
   100
 73
     1
 74
     1
 75
     0
 76
     0
 77
     0
 78
     0
  0
ENDTAB
  0
TABLE
  2
LTYPE
 70
     2
  0
LTYPE
  2
CONTINUOUS
 70
     0
  3
Solid line
 72
    65
 73
     0
 40
0.0
  0
LTYPE
  2
PHANTOM2
 70
     0
  3
___ _ _ ___ _ _ ___ _ _ ___ _ _
 72
    65
 73
     6
 40
1.25
 49
0.625
 49
-0.125
 49
0.125
 49
-0.125
 49
0.125
 49
-0.125
  0
ENDTAB
  0
TABLE
  2
LAYER
 70
     2
  0
LAYER
  2
0
 70
     0
 62
   255
  6
CONTINUOUS
  0
LAYER
  2
DEFPOINTS
 70
     0
 62
     7
  6
CONTINUOUS
  0
ENDTAB
  0
TABLE
  2
STYLE
 70
     1
  0
STYLE
  2
STANDARD
 70
     0
 40
0.0
 41
0.8
 50
0.0
 71
     0
 42
0.2
  3
txt
  4

  0
ENDTAB
  0
TABLE
  2
VIEW
 70
     0
  0
ENDTAB
  0
TABLE
  2
UCS
 70
     0
  0
ENDTAB
  0
TABLE
  2
APPID
 70
    10
  0
APPID
  2
ACAD
 70
     0
  0
APPID
  2
ACAD_MLEADERVER
 70
     0
  0
APPID
  2
ACAD_EXEMPT_FROM_CAD_STANDARDS
 70
     0
  0
APPID
  2
ACAD_NAV_VCDISPLAY
 70
     0
  0
APPID
  2
ACAECLAYERSTANDARD
 70
     0
  0
APPID
  2
ACCMTRANSPARENCY
 70
     0
  0
APPID
  2
ACAD_DSTYLE_DIMJAG
 70
     0
  0
APPID
  2
ACAD_DSTYLE_DIMTALN
 70
     0
  0
APPID
  2
ACDBATTR
 70
     0
  0
APPID
  2
ACADANNOTATIVE
 70
     0
  0
ENDTAB
  0
TABLE
  2
DIMSTYLE
 70
     1
  0
DIMSTYLE
  2
STANDARD
 70
     0
  3

  4

  5

  6

  7

 40
1.0
 41
0.1875
 42
0.0625
 43
0.38
 44
0.125
 45
0.0
 46
0.0
 47
0.01
 48
0.01
140
0.15625
141
0.09
142
0.0
143
25.3999999999999986
144
1.0
145
0.0
146
1.0
147
0.09
 71
     1
 72
     0
 73
     1
 74
     1
 75
     0
 76
     0
 77
     0
 78
     4
170
     0
171
     2
172
     0
173
     0
174
     0
175
     0
176
     0
177
     0
178
     0
  0
ENDTAB
  0
ENDSEC
  0
SECTION
  2
BLOCKS
  0
BLOCK
  8
0
  2
$MODEL_SPACE
 70
     0
 10
0.0
 20
0.0
 30
0.0
  3
$MODEL_SPACE
  1

  0
ENDBLK
  5
21
  8
0
  0
BLOCK
 67
     1
  8
0
  2
$PAPER_SPACE
 70
     0
 10
0.0
 20
0.0
 30
0.0
  3
$PAPER_SPACE
  1

  0
ENDBLK
  5
1D
 67
     1
  8
0
  0
ENDSEC
  0
SECTION
  2
ENTITIES
  0
LINE
  5
12321
  8
0
 10
3979.1989240540719948
 20
143.0955117383774962
 30
0.0
 11
3979.2026668787721064
 21
143.0860750025775019
 31
0.0
  0
LINE
  5
12322
  8
0
 10
3979.1945163340719773
 20
143.9427852880774878
 30
0.0
 11
3979.1945163340719773
 21
142.7782072462775034
 31
0.0
  0
LINE
  5
12323
  8
0
 10
3979.1979243035721083
 20
143.2805229260775093
 30
0.0
 11
3979.1979243035721083
 21
143.2829892932774953
 31
0.0
  0
LINE
  5
12324
  8
0
 10
3979.2136723350718057
 20
142.7284133619774877
 30
0.0
 11
3979.2136723350718057
 21
143.9925791723775035
 31
0.0
  0
LINE
  5
12325
  8
0
 10
3979.1989240540719948
 20
143.4680004809775085
 30
0.0
 11
3979.2026676014720579
 21
143.477439031777493
 31
0.0
  0
LINE
  5
12326
  8
0
 10
3979.4518613114719301
 20
144.1369332128774943
 30
0.0
 11
3979.4518613114719301
 21
142.584059321477497
 31
0.0
  0
LINE
  5
12327
  8
0
 10
3980.1802077680717957
 20
142.584059321477497
 30
0.0
 11
3980.1802077680717957
 21
144.1369332128774943
 31
0.0
  0
LINE
  5
12328
  8
0
 10
3980.4183967444719201
 20
143.9925791723775035
 30
0.0
 11
3980.4183967444719201
 21
142.7284133619774877
 31
0.0
  0
LINE
  5
12329
  8
0
 10
3980.4375527454722032
 20
142.7782072462775034
 30
0.0
 11
3980.4375527454722032
 21
143.9427852880774878
 31
0.0
  0
ARC
  5
1232A
  8
0
 10
3979.2530813359830972
 20
142.7284201078348076
 30
0.0
 40
0.0394090014881606
 50
180.0098076364074871
 51
227.1418095110767013
  0
ARC
  5
1232B
  8
0
 10
3979.4321762720719562
 20
142.584059321477497
 30
0.0
 40
0.0196850394
 50
243.6929365760099984
 51
0.0
  0
ARC
  5
1232C
  8
0
 10
3979.1748315975660262
 20
142.7782057756814993
 30
0.0
 40
0.0196847365611039
 50
222.7123748182143004
 51
0.0042804200994079
  0
ARC
  5
1232D
  8
0
 10
3979.2531253612801265
 20
143.9925626622589903
 30
0.0
 40
0.0394530296629104
 50
133.3196514579682059
 51
179.9760231305438936
  0
ARC
  5
1232E
  8
0
 10
3979.4321760965872272
 20
144.1369331152966993
 30
0.0
 40
0.0196852148856837
 50
0.0002840184938359
 51
116.307083841500102
  0
ARC
  5
1232F
  8
0
 10
3979.1748310883481281
 20
143.9427844810394959
 30
0.0
 40
0.019685245740602
 50
0.0023489609739806
 51
137.7537196379194029
  0
CIRCLE
  5
12330
  8
0
 10
3979.8160345397718629
 20
143.3604962671774956
 30
0.0
 40
1.1811023622000001
  0
CIRCLE
  5
12331
  8
0
 10
3979.8160345397718629
 20
143.3604962671774956
 30
0.0
 40
0.9109079943000001
  0
ARC
  5
12332
  8
0
 10
3980.3785720234232031
 20
142.7284934067552058
 30
0.0
 40
0.0398248014906387
 50
315.6672738181787849
 51
359.8848398271006772
  0
ARC
  5
12333
  8
0
 10
3980.1998968329171475
 20
142.584061478274208
 30
0.0
 40
0.0196890649635751
 50
180.0062763443480947
 51
295.1824528409774189
  0
ARC
  5
12334
  8
0
 10
3980.4573086331770355
 20
142.778247971322088
 30
0.0
 40
0.0197559296807157
 50
180.1181101000375975
 51
312.0429041093220235
  0
ARC
  5
12335
  8
0
 10
3980.3789820244719522
 20
143.9925707985788108
 30
0.0
 40
0.0394147208890563
 50
0.0121726938036125
 51
47.0910037794012482
  0
ARC
  5
12336
  8
0
 10
3980.1999157070108595
 20
144.1369216564488056
 30
0.0
 40
0.0197079423270902
 50
66.4619373608894648
 51
179.9664026505043921
  0
ARC
  5
12337
  8
0
 10
3980.4572526254910372
 20
143.9427760047852871
 30
0.0
 40
0.019699882206044
 50
44.8383456753116079
 51
179.9730001692925043
  0
LINE
  5
12338
  8
0
 10
3979.2135888438710936
 20
143.4777868646775119
 30
0.0
 11
3979.2082234404720111
 21
143.4776870607774981
 31
0.0
  0
LINE
  5
12339
  8
0
 10
3979.2026676014720579
 20
143.477439031777493
 30
0.0
 11
3979.2082234404720111
 21
143.4776870607774981
 31
0.0
  0
LINE
  5
1233A
  8
0
 10
3979.208293933872028
 20
143.0858238350774911
 30
0.0
 11
3979.2136723350718057
 21
143.0857238020265925
 31
0.0
  0
LINE
  5
1233B
  8
0
 10
3979.208293933872028
 20
143.0858238350774911
 30
0.0
 11
3979.2026668787721064
 21
143.0860750025775019
 31
0.0
  0
CIRCLE
  5
1233C
  8
0
 10
3979.8160345397718629
 20
143.3604962671774956
 30
0.0
 40
0.8858269374231754
  0
ARC
  5
1233D
  8
0
 10
3987.7575507028050197
 20
143.3292436768464881
 30
0.0
 40
8.5597513727002656
 50
179.0711730823256005
 51
180.309611079204501
  0
ARC
  5
1233E
  8
0
 10
3956.4477272956819434
 20
143.0650786909743033
 30
0.0
 40
22.7512171127024097
 50
0.0766414247319646
 51
0.5425744437532343
  0
LINE
  5
1233F
  8
0
 10
3980.4331450254721858
 20
143.0955117383774962
 30
0.0
 11
3980.4294022007720741
 21
143.0860750025775019
 31
0.0
  0
LINE
  5
12340
  8
0
 10
3980.4331450254330775
 20
143.4680004810772971
 30
0.0
 11
3980.4294014780721227
 21
143.477439031777493
 31
0.0
  0
LINE
  5
12341
  8
0
 10
3980.4183967444719201
 20
143.4777884177289025
 30
0.0
 11
3980.4238456390721694
 21
143.4776870607774981
 31
0.0
  0
LINE
  5
12342
  8
0
 10
3980.4294014780721227
 20
143.477439031777493
 30
0.0
 11
3980.4238456390721694
 21
143.4776870607774981
 31
0.0
  0
LINE
  5
12343
  8
0
 10
3980.4237751456721526
 20
143.0858238350774911
 30
0.0
 11
3980.4183967444719201
 21
143.0857238020265925
 31
0.0
  0
LINE
  5
12344
  8
0
 10
3980.4237751456721526
 20
143.0858238350774911
 30
0.0
 11
3980.4294022007720741
 21
143.0860750025775019
 31
0.0
  0
ARC
  5
12345
  8
0
 10
3970.2569309962109401
 20
143.3064046075500926
 30
0.0
 40
10.1772486949762708
 50
0.1500824536343521
 51
0.9097891687526292
  0
ARC
  5
12346
  8
0
 10
4002.6817056709901408
 20
143.066899391405002
 30
0.0
 40
22.2485790436986086
 50
179.4518571566021024
 51
179.9263158706827141
  0
LINE
  5
12348
  8
0
 10
3980.4341447759720722
 20
143.3330631977927965
 30
0.0
 11
3980.4341447759720722
 21
143.2797460173057118
 31
0.0
  0
ATTDEF
  5
12349
  8
DEFPOINTS
 10
3979.8162328411408453
 20
143.359365589559701
 30
0.0
 40
0.001
  1
K-24028T
  3

  2
MODELNUMBER
 70
     0
1001
ACDBATTR
1070
     0
1070
     1
  0
ATTDEF
  5
1234A
  8
DEFPOINTS
 10
3979.8162328411408453
 20
143.3576989228930074
 30
0.0
 40
0.001
  1
COMPONENTS
  3

  2
TRADENAME
 70
     0
1001
ACDBATTR
1070
     0
1070
     1
  0
ATTDEF
  5
1234B
  8
DEFPOINTS
 10
3979.8162328411408453
 20
143.3560322562263138
 30
0.0
 40
0.001
  1
 HAND SHOWER BRACKET 
  3

  2
PRODUCT
 70
     0
1001
ACDBATTR
1070
     0
1070
     1
  0
ENDSEC
  0
EOF
