  0
SECTION
  2
HEADER
  9
$ACADVER
  1
AC1009
  9
$INSBASE
 10
4728.2143430772293868
 20
315.7678936106643164
 30
0.0
  9
$EXTMIN
 10
4702.090702036989569
 20
315.7661068356622991
 30
-0.0015258207003583
  9
$EXTMAX
 10
4728.4246554146811832
 20
347.7629744038155764
 30
0.0000000349246037
  9
$LIMMIN
 10
0.0
 20
0.0
  9
$LIMMAX
 10
11.6929133858000007
 20
8.2677165353999982
  9
$ORTHOMODE
 70
     0
  9
$REGENMODE
 70
     1
  9
$FILLMODE
 70
     1
  9
$QTEXTMODE
 70
     0
  9
$MIRRTEXT
 70
     0
  9
$DRAGMODE
 70
     2
  9
$LTSCALE
 40
0.6431102362
  9
$OSMODE
 70
  4095
  9
$ATTMODE
 70
     1
  9
$TEXTSIZE
 40
0.2
  9
$TRACEWID
 40
0.05
  9
$TEXTSTYLE
  7
STANDARD
  9
$CLAYER
  8
0
  9
$CELTYPE
  6
BYLAYER
  9
$CECOLOR
 62
   256
  9
$DIMSCALE
 40
1.0
  9
$DIMASZ
 40
0.1875
  9
$DIMEXO
 40
0.0625
  9
$DIMDLI
 40
0.4443307087
  9
$DIMRND
 40
0.0
  9
$DIMDLE
 40
0.0
  9
$DIMEXE
 40
0.125
  9
$DIMTP
 40
0.01
  9
$DIMTM
 40
0.01
  9
$DIMTXT
 40
2.0
  9
$DIMCEN
 40
0.1052362205
  9
$DIMTSZ
 40
0.0
  9
$DIMTOL
 70
     1
  9
$DIMLIM
 70
     0
  9
$DIMTIH
 70
     1
  9
$DIMTOH
 70
     1
  9
$DIMSE1
 70
     0
  9
$DIMSE2
 70
     0
  9
$DIMTAD
 70
     0
  9
$DIMZIN
 70
     0
  9
$DIMBLK
  1

  9
$DIMASO
 70
     1
  9
$DIMSHO
 70
     1
  9
$DIMPOST
  1
\X
  9
$DIMAPOST
  1

  9
$DIMALT
 70
     1
  9
$DIMALTD
 70
     2
  9
$DIMALTF
 40
25.3999999999999986
  9
$DIMLFAC
 40
1.0
  9
$DIMTOFL
 70
     0
  9
$DIMTVP
 40
0.0
  9
$DIMTIX
 70
     0
  9
$DIMSOXD
 70
     0
  9
$DIMSAH
 70
     0
  9
$DIMBLK1
  1

  9
$DIMBLK2
  1

  9
$DIMSTYLE
  2
STANDARD
  9
$DIMCLRD
 70
     0
  9
$DIMCLRE
 70
     0
  9
$DIMCLRT
 70
     0
  9
$DIMTFAC
 40
1.0
  9
$DIMGAP
 40
0.09
  9
$LUNITS
 70
     2
  9
$LUPREC
 70
     4
  9
$SKETCHINC
 40
0.1
  9
$FILLETRAD
 40
0.0
  9
$AUNITS
 70
     0
  9
$AUPREC
 70
     0
  9
$MENU
  1
.
  9
$ELEVATION
 40
0.0
  9
$PELEVATION
 40
0.0
  9
$THICKNESS
 40
0.0
  9
$LIMCHECK
 70
     0
  9
$BLIPMODE
 70
     0
  9
$CHAMFERA
 40
0.0
  9
$CHAMFERB
 40
0.0
  9
$SKPOLY
 70
     0
  9
$TDCREATE
 40
2458060.468368056230247
  9
$TDUPDATE
 40
2459425.5891087958589196
  9
$TDINDWG
 40
0.5763612269
  9
$TDUSRTIMER
 40
0.5763612269
  9
$USRTIMER
 70
     1
  9
$ANGBASE
 50
0.0
  9
$ANGDIR
 70
     0
  9
$PDMODE
 70
     0
  9
$PDSIZE
 40
0.3125
  9
$PLINEWID
 40
0.0
  9
$COORDS
 70
     1
  9
$SPLFRAME
 70
     0
  9
$SPLINETYPE
 70
     6
  9
$SPLINESEGS
 70
     8
  9
$ATTDIA
 70
     1
  9
$ATTREQ
 70
     1
  9
$HANDLING
 70
     1
  9
$HANDSEED
  5
219F8
  9
$SURFTAB1
 70
     6
  9
$SURFTAB2
 70
     6
  9
$SURFTYPE
 70
     6
  9
$SURFU
 70
     6
  9
$SURFV
 70
     6
  9
$UCSNAME
  2

  9
$UCSORG
 10
0.0
 20
0.0
 30
0.0
  9
$UCSXDIR
 10
1.0
 20
0.0
 30
0.0
  9
$UCSYDIR
 10
0.0
 20
1.0
 30
0.0
  9
$PUCSNAME
  2

  9
$PUCSORG
 10
0.0
 20
0.0
 30
0.0
  9
$PUCSXDIR
 10
1.0
 20
0.0
 30
0.0
  9
$PUCSYDIR
 10
0.0
 20
1.0
 30
0.0
  9
$USERI1
 70
     0
  9
$USERI2
 70
     0
  9
$USERI3
 70
     0
  9
$USERI4
 70
     0
  9
$USERI5
 70
     0
  9
$USERR1
 40
0.0
  9
$USERR2
 40
0.0
  9
$USERR3
 40
0.0
  9
$USERR4
 40
0.0
  9
$USERR5
 40
0.0
  9
$WORLDVIEW
 70
     1
  9
$SHADEDGE
 70
     3
  9
$SHADEDIF
 70
    70
  9
$TILEMODE
 70
     1
  9
$MAXACTVP
 70
    64
  9
$PLIMCHECK
 70
     0
  9
$PEXTMIN
 10
1.0000000000000000E+20
 20
1.0000000000000000E+20
 30
1.0000000000000000E+20
  9
$PEXTMAX
 10
-1.0000000000000000E+20
 20
-1.0000000000000000E+20
 30
-1.0000000000000000E+20
  9
$PLIMMIN
 10
0.0
 20
0.0
  9
$PLIMMAX
 10
12.0
 20
9.0
  9
$UNITMODE
 70
     0
  9
$VISRETAIN
 70
     1
  9
$PLINEGEN
 70
     0
  9
$PSLTSCALE
 70
     1
  0
ENDSEC
  0
SECTION
  2
TABLES
  0
TABLE
  2
VPORT
 70
     1
  0
VPORT
  2
*ACTIVE
 70
     0
 10
0.0
 20
0.0
 11
1.0
 21
1.0
 12
803.8923222805234445
 22
199.1849355171999036
 13
0.0
 23
0.0
 14
1.0
 24
1.0
 15
0.0
 25
0.0
 16
0.0
 26
0.0
 36
60.4960186965801583
 17
3911.3653564453120453
 27
132.5796051025390057
 37
0.0
 40
32.2670833876129279
 41
2.0410052910052912
 42
50.0
 43
0.0
 44
0.0
 50
0.0
 51
0.0
 71
     0
 72
   100
 73
     1
 74
     1
 75
     0
 76
     0
 77
     0
 78
     0
  0
ENDTAB
  0
TABLE
  2
LTYPE
 70
     2
  0
LTYPE
  2
CONTINUOUS
 70
     0
  3
Solid line
 72
    65
 73
     0
 40
0.0
  0
LTYPE
  2
PHANTOM2
 70
     0
  3
___ _ _ ___ _ _ ___ _ _ ___ _ _
 72
    65
 73
     6
 40
1.25
 49
0.625
 49
-0.125
 49
0.125
 49
-0.125
 49
0.125
 49
-0.125
  0
ENDTAB
  0
TABLE
  2
LAYER
 70
     2
  0
LAYER
  2
0
 70
     0
 62
   255
  6
CONTINUOUS
  0
LAYER
  2
DEFPOINTS
 70
     0
 62
     7
  6
CONTINUOUS
  0
ENDTAB
  0
TABLE
  2
STYLE
 70
     1
  0
STYLE
  2
STANDARD
 70
     0
 40
0.0
 41
0.8
 50
0.0
 71
     0
 42
0.2
  3
txt
  4

  0
ENDTAB
  0
TABLE
  2
VIEW
 70
     0
  0
ENDTAB
  0
TABLE
  2
UCS
 70
     0
  0
ENDTAB
  0
TABLE
  2
APPID
 70
    11
  0
APPID
  2
ACAD
 70
     0
  0
APPID
  2
ACAD_MLEADERVER
 70
     0
  0
APPID
  2
ACAD_EXEMPT_FROM_CAD_STANDARDS
 70
     0
  0
APPID
  2
ACAD_NAV_VCDISPLAY
 70
     0
  0
APPID
  2
ACAECLAYERSTANDARD
 70
     0
  0
APPID
  2
ACCMTRANSPARENCY
 70
     0
  0
APPID
  2
ACAD_DSTYLE_DIMJAG
 70
     0
  0
APPID
  2
ACAD_DSTYLE_DIMTALN
 70
     0
  0
APPID
  2
ACDBATTR
 70
     0
  0
APPID
  2
ACADANNOTATIVE
 70
     0
  0
APPID
  2
DCO15
 70
     0
  0
ENDTAB
  0
TABLE
  2
DIMSTYLE
 70
     1
  0
DIMSTYLE
  2
STANDARD
 70
     0
  3

  4

  5

  6

  7

 40
1.0
 41
0.1875
 42
0.0625
 43
0.38
 44
0.125
 45
0.0
 46
0.0
 47
0.01
 48
0.01
140
0.15625
141
0.09
142
0.0
143
25.3999999999999986
144
1.0
145
0.0
146
1.0
147
0.09
 71
     1
 72
     0
 73
     1
 74
     1
 75
     0
 76
     0
 77
     0
 78
     4
170
     0
171
     2
172
     0
173
     0
174
     0
175
     0
176
     0
177
     0
178
     0
  0
ENDTAB
  0
ENDSEC
  0
SECTION
  2
BLOCKS
  0
BLOCK
  8
0
  2
$MODEL_SPACE
 70
     0
 10
0.0
 20
0.0
 30
0.0
  3
$MODEL_SPACE
  1

  0
ENDBLK
  5
21
  8
0
  0
BLOCK
 67
     1
  8
0
  2
$PAPER_SPACE
 70
     0
 10
0.0
 20
0.0
 30
0.0
  3
$PAPER_SPACE
  1

  0
ENDBLK
  5
1D
 67
     1
  8
0
  0
ENDSEC
  0
SECTION
  2
ENTITIES
  0
ATTDEF
  5
20106
  8
DEFPOINTS
 10
4728.210472235457928
 20
315.7728359736921107
 30
0.0
 40
0.001
  1
K-24069H
  3

  2
MODELNUMBER
 70
     0
1001
ACDBATTR
1070
     0
1070
     1
  0
ATTDEF
  5
20107
  8
DEFPOINTS
 10
4728.2103464257997985
 20
315.7711691333129238
 30
0.0
 40
0.001
  1
PARLIAMENT GRANDE
  3

  2
TRADENAME
 70
     0
1001
ACDBATTR
1070
     0
1070
     1
  0
ATTDEF
  5
20108
  8
DEFPOINTS
 10
4728.210472235457928
 20
315.7695026403587235
 30
0.0
 40
0.001
  1
TOILET
  3

  2
PRODUCT
 70
     0
1001
ACDBATTR
1070
     0
1070
     1
  0
LINE
  5
217AD
  8
0
 10
4723.0196022087120582
 20
315.7678936106643164
 30
0.0
 11
4704.6463081454412531
 21
315.7678936106643164
 31
0.0
  0
ARC
  5
217AE
  8
0
 10
4723.0196022087120582
 20
315.9578936106643141
 30
0.0
 40
0.19
 50
270.0
 51
0.0
  0
LINE
  5
217AF
  8
0
 10
4728.0091756372130476
 20
332.7022768283642904
 30
0.0
 11
4728.0091756372130476
 21
345.9725619929643017
 31
0.0
  0
ARC
  5
217B0
  8
0
 10
4727.8104836028360296
 20
332.7029639379500168
 30
0.0
 40
0.1986932224421006
 50
276.2630998393038908
 51
359.801862603540485
  0
ARC
  5
217B1
  8
0
 10
4728.1043426278747575
 20
346.0825624334506188
 30
0.0
 40
0.1100004404871816
 50
270.0
 51
2.856223584594932
  0
LINE
  5
217B2
  8
0
 10
4721.2193664271580928
 20
346.0905116289551984
 30
0.0
 11
4721.3316074129561457
 21
347.6395951887051865
 31
0.0
  0
ARC
  5
217B3
  8
0
 10
4721.441319303678938
 20
347.6316460638441868
 30
0.0
 40
0.1099994888712098
 50
90.0
 51
175.8559020807699937
  0
ARC
  5
217B4
  8
0
 10
4721.3290792547177261
 20
346.0825624221441785
 30
0.0
 40
0.1100004291807768
 50
175.8558947703114086
 51
270.0
  0
LINE
  5
217B5
  8
0
 10
4728.1369171195547096
 20
347.6371272998893005
 30
0.0
 11
4728.2142064171057427
 21
346.0880437401393124
 31
0.0
  0
ARC
  5
217B6
  8
0
 10
4728.0270542660064166
 20
347.6316460495568776
 30
0.0
 40
0.1099995031585009
 50
2.8562185522529111
 51
90.0
  0
ARC
  5
217B7
  8
0
 10
4722.0092194435437705
 20
332.7300592168282947
 30
0.0
 40
0.2278762365613172
 50
188.4123104937193034
 51
260.3212843131930185
  0
LINE
  5
217B8
  8
0
 10
4721.7837949449749431
 20
332.6967219308820063
 30
0.0
 11
4721.4571694966471114
 21
345.9725619929643017
 31
0.0
  0
LINE
  5
217B9
  8
0
 10
4720.6073748264116148
 20
331.5199429400037161
 30
0.0
 11
4720.6074873570769341
 21
331.6117866281417719
 31
0.0
  0
ARC
  5
217BA
  8
0
 10
4720.5285540695867894
 20
331.6115931657818123
 30
0.0
 40
0.0789335245734952
 50
0.1404294040701822
 51
89.9417508802949754
  0
LINE
  5
217BB
  8
0
 10
4718.2460637448557463
 20
331.5565147474206924
 30
0.0
 11
4718.255249702691799
 21
331.9919005417378912
 31
0.0
  0
LINE
  5
217BC
  8
0
 10
4719.3053204612124318
 20
331.6905270353643118
 30
0.0
 11
4719.2937959788841908
 21
332.4262578593634885
 31
0.0
  0
LINE
  5
217BD
  8
0
 10
4719.1372254413636256
 20
333.0979844463719814
 30
0.0
 11
4719.1007297759651919
 21
333.2360856669708937
 31
0.0
  0
ARC
  5
217BE
  8
0
 10
4712.4754394974606839
 20
429.336401231512923
 30
0.0
 40
97.1390135277866591
 50
269.1325735969052744
 51
272.6365118262364717
  0
ARC
  5
217BF
  8
0
 10
4706.2713778859897502
 20
-81.7280014835442898
 30
0.0
 40
413.9635847721804112
 50
89.3448343279002017
 51
90.1331331499120552
  0
ARC
  5
217C0
  8
0
 10
4704.4211570448969724
 20
479.5937712962859791
 30
0.0
 40
147.3619830909298969
 50
269.3605193153716186
 51
270.3453938809265082
  0
ARC
  5
217C1
  8
0
 10
4712.8304926066466578
 20
384.3940329614072198
 30
0.0
 40
52.255959326569787
 50
274.5146772971658038
 51
275.378719595225391
  0
ARC
  5
217C2
  8
0
 10
4717.6026428976811076
 20
333.3601930138971738
 30
0.0
 40
1.0000294427586791
 50
277.2525681184989139
 51
320.1899659911470053
  0
ARC
  5
217C3
  8
0
 10
4718.7783514748471134
 20
332.4130513108913192
 30
0.0
 40
0.5101397770536616
 50
17.5136085562619712
 51
143.0184438945256886
  0
ARC
  5
217C4
  8
0
 10
4718.6248957409434297
 20
332.4008540764518216
 30
0.0
 40
0.6610560749693759
 50
335.9532562075398232
 51
14.5178657621316791
  0
ARC
  5
217C5
  8
0
 10
4718.769538178035873
 20
332.4369849693346737
 30
0.0
 40
0.524367535835201
 50
358.8278049969757149
 51
14.7038035937736709
  0
ARC
  5
217C6
  8
0
 10
4710.2805634966016441
 20
384.2032570924000083
 30
0.0
 40
51.6608614594032716
 50
277.9053884144425979
 51
279.7408903885910263
  0
ARC
  5
217C7
  8
0
 10
4714.8708638700272786
 20
352.2740646128218032
 30
0.0
 40
19.4043884056328615
 50
271.8640495262118861
 51
277.4470945055293214
  0
ARC
  5
217C8
  8
0
 10
4712.807169422257175
 20
507.9781763969090775
 30
0.0
 40
175.118968633157607
 50
269.100623798755521
 51
270.8817516386811803
  0
ARC
  5
217C9
  8
0
 10
4700.3619268810180074
 20
-1303.7902990198340376
 30
0.0
 40
1636.6998041674060005
 50
89.6605536603465509
 51
89.9156794315848202
  0
LINE
  5
217CA
  8
0
 10
4702.7005079402470074
 20
332.837973517397586
 30
0.0
 11
4702.7002762059191809
 21
332.7705784833606231
 31
0.0
  0
ARC
  5
217CB
  8
0
 10
4702.7808102721437535
 20
332.8273793695789777
 30
0.0
 40
0.0809981510656431
 50
97.2342025533360186
 51
172.4844690891615073
  0
ARC
  5
217CC
  8
0
 10
4702.6600099962097374
 20
332.2991800892265815
 30
0.0
 40
0.4138885491139462
 50
38.4249071866139076
 51
76.8280410350622844
  0
ARC
  5
217CD
  8
0
 10
4703.0524715386291064
 20
332.6107377699078143
 30
0.0
 40
0.0872046456999274
 50
218.5374353493494937
 51
271.5657267389378831
  0
ARC
  5
217CE
  8
0
 10
4702.7803777324188559
 20
332.7783202681779926
 30
0.0
 40
0.080474777289644
 50
185.5204706806212016
 51
251.1105625654691949
  0
LINE
  5
217CF
  8
0
 10
4703.0548542909637035
 20
332.5235656830740254
 30
0.0
 11
4704.3995545883126397
 21
332.4643569340739759
 31
0.0
  0
LINE
  5
217D0
  8
0
 10
4704.3995545883126397
 20
332.4643569340739759
 30
0.0
 11
4705.0156406760834216
 21
332.448203534998072
 31
0.0
  0
ARC
  5
217D1
  8
0
 10
4707.6329490408488709
 20
455.7475644640430232
 30
0.0
 40
123.3271369512288942
 50
268.7839498599129797
 51
270.609335637922527
  0
LINE
  5
217D2
  8
0
 10
4708.9444977057992219
 20
332.4274016816065114
 30
0.0
 11
4710.6512587431134307
 21
332.4112530261739948
 31
0.0
  0
LINE
  5
217D3
  8
0
 10
4710.6512587431134307
 20
332.4112530261739948
 30
0.0
 11
4713.0518688804631893
 21
332.4081443702240222
 31
0.0
  0
LINE
  5
217D4
  8
0
 10
4713.0518688804631893
 20
332.4081443702240222
 30
0.0
 11
4715.5907931188130533
 21
332.4788207966739719
 31
0.0
  0
ARC
  5
217D5
  8
0
 10
4714.6648952736795763
 20
350.925060348377599
 30
0.0
 40
18.4694779930096296
 50
272.8735142416393273
 51
278.742369558742098
  0
ARC
  5
217D6
  8
0
 10
4713.5848592447109695
 20
354.999923181375209
 30
0.0
 40
22.6655854231042291
 50
279.875291463933479
 51
284.0478881721803077
  0
ARC
  5
217D7
  8
0
 10
4719.0527554816189877
 20
333.0900211360046796
 30
0.0
 40
0.0848444954687404
 50
293.4653154100353163
 51
5.3855778659738602
  0
ARC
  5
217D8
  8
0
 10
4719.0255145382980118
 20
333.2064710704748904
 30
0.0
 40
0.0808353654225551
 50
21.4911145163551289
 51
93.0527809760976368
  0
LINE
  5
217D9
  8
0
 10
4719.2767331515542537
 20
332.5700810679858819
 30
0.0
 11
4719.1372254413636256
 21
333.0979844463719814
 31
0.0
  0
LINE
  5
217DA
  8
0
 10
4705.9857815877667235
 20
332.4264006455937874
 30
0.0
 11
4706.5503825599125776
 21
332.3884474124739086
 31
0.0
  0
LINE
  5
217DB
  8
0
 10
4706.5503825599125776
 20
332.3884474124739086
 30
0.0
 11
4706.7606422734143052
 21
332.2352941572569875
 31
0.0
  0
LINE
  5
217DC
  8
0
 10
4708.0777542466130399
 20
332.3736489451740113
 30
0.0
 11
4707.9025669114562334
 21
332.2323694939170764
 31
0.0
  0
ARC
  5
217DD
  8
0
 10
4708.7764009463180628
 20
327.711962512122625
 30
0.0
 40
4.7137487853197904
 50
91.000292481654526
 51
98.5234779647850587
  0
LINE
  5
217DE
  8
0
 10
4702.6972257149782308
 20
332.1712572192466268
 30
0.0
 11
4702.6969939806513139
 21
332.1038621852097208
 31
0.0
  0
ARC
  5
217DF
  8
0
 10
4702.7762884468584161
 20
332.1612764764782924
 30
0.0
 40
0.0796902177097019
 50
89.8639337643308949
 51
172.8051379920601107
  0
ARC
  5
217E0
  8
0
 10
4702.6954477461576971
 20
331.6314634716978276
 30
0.0
 40
0.413079456743489
 50
46.1179670278926892
 51
80.6113422031860267
  0
ARC
  5
217E1
  8
0
 10
4702.7770430778409718
 20
332.1192823779778109
 30
0.0
 40
0.0815207967710188
 50
190.9035655912178129
 51
259.9618372635172818
  0
ARC
  5
217E2
  8
0
 10
4703.126544877737615
 20
332.1852498425690214
 30
0.0
 40
0.2941395207640704
 50
240.518081549199195
 51
269.0216694882374782
  0
ARC
  5
217E3
  8
0
 10
4705.7176954986316559
 20
379.0123655268533867
 30
0.0
 40
47.1926770221993905
 50
266.8464413119655205
 51
268.549198550630706
  0
ARC
  5
217E4
  8
0
 10
4704.1897311131833703
 20
331.1973928757408885
 30
0.0
 40
0.7192178019342153
 50
26.6457819960169218
 51
62.4087032744437025
  0
ARC
  5
217E5
  8
0
 10
4702.1906853770979069
 20
-3.58818457013217
 30
0.0
 40
335.4311089721854273
 50
89.241812925896312
 51
89.6016350919914828
  0
ARC
  5
217E6
  8
0
 10
4696.4941956234879399
 20
-2177.1916044469758162
 30
0.0
 40
2509.0256309648339084
 50
89.6756872677814982
 51
89.7685561670541716
  0
ARC
  5
217E7
  8
0
 10
4711.9268511468426368
 20
549.2403144664434649
 30
0.0
 40
217.4499649880083041
 50
269.675687267781484
 51
270.8854833744807138
  0
ARC
  5
217E8
  8
0
 10
4714.7351806578026299
 20
367.5399884960754093
 30
0.0
 40
35.7279377805722334
 50
270.8854833744807138
 51
274.637713818700206
  0
ARC
  5
217E9
  8
0
 10
4716.2241259827260365
 20
349.1852792330490161
 30
0.0
 40
17.312935464231181
 50
274.637713818700206
 51
277.0909069027056262
  0
ARC
  5
217EA
  8
0
 10
4718.9216248414340953
 20
332.2815616129847172
 30
0.0
 40
0.3416794124865217
 50
299.6974819130953733
 51
333.9452351522617732
  0
ARC
  5
217EB
  8
0
 10
4718.829135167298773
 20
332.5878514186989037
 30
0.0
 40
0.6574490014760868
 50
255.325546605791402
 51
293.4627039009449732
  0
ARC
  5
217EC
  8
0
 10
4718.1917660112658268
 20
330.1359706827050786
 30
0.0
 40
1.8759214479193129
 50
75.4644559661379049
 51
84.8928324668110861
  0
ARC
  5
217ED
  8
0
 10
4687.3385905975328569
 20
311.3617748074153155
 30
0.0
 40
28.00182724355383
 50
46.0452010376399983
 51
46.7781421641760176
  0
ARC
  5
217EE
  8
0
 10
4704.6310313205131024
 20
310.4202921399020738
 30
0.0
 40
21.4274944960666787
 50
84.94937963357836
 51
87.1258942213587488
  0
ARC
  5
217EF
  8
0
 10
4706.5321342148627082
 20
332.2267149427077015
 30
0.0
 40
0.4601218354374642
 50
253.3568132779400059
 51
267.859194476919015
  0
ARC
  5
217F0
  8
0
 10
4707.2238378468691735
 20
304.7046338187503238
 30
0.0
 40
27.0937526170964205
 50
88.362537794889576
 51
91.7417159379178031
  0
ARC
  5
217F1
  8
0
 10
4708.0127856290819182
 20
330.9005063038392223
 30
0.0
 40
0.8869387217710913
 50
78.5013168201266183
 51
90.9521065737915961
  0
LINE
  5
217F2
  8
0
 10
4707.8406733394031107
 20
331.5199429400037161
 30
0.0
 11
4708.0196844079137009
 21
331.6954457652739734
 31
0.0
  0
LINE
  5
217F3
  8
0
 10
4708.0196844079137009
 20
331.6954457652739734
 30
0.0
 11
4708.0771951709903078
 21
331.7497498454167157
 31
0.0
  0
ARC
  5
217F4
  8
0
 10
4707.9501255351151485
 20
332.7951476796192765
 30
0.0
 40
1.053092267618025
 50
276.9303876527532111
 51
283.1437161814711772
  0
LINE
  5
217F5
  8
0
 10
4702.6051125658659657
 20
331.5199429400037161
 30
0.0
 11
4721.4737952733930797
 21
331.5199429400037161
 31
0.0
  0
ARC
  5
217F6
  8
0
 10
4573.2406574701362842
 20
325.2603430402014055
 30
0.0
 40
129.2330594817221936
 50
1.862832442228437
 51
2.5645796538091732
  0
ARC
  5
217F7
  8
0
 10
4788.8058780783258044
 20
335.6443358728827207
 30
0.0
 40
86.6214133879090156
 50
184.0932530433192085
 51
193.1657900362004057
  0
ARC
  5
217F8
  8
0
 10
4766.8900816855866651
 20
329.9753805847120134
 30
0.0
 40
64.5549788632323072
 50
178.8049850682371869
 51
179.0489236333272061
  0
ARC
  5
217F9
  8
0
 10
4702.5875923106386836
 20
331.2781905512567846
 30
0.0
 40
0.242386420428257
 50
85.8549127029692443
 51
169.6584710708930004
  0
LINE
  5
217FA
  8
0
 10
4702.3442800109132804
 20
331.0429298192643159
 30
0.0
 11
4721.4485222271132443
 21
331.042923446864279
 31
0.0
  0
LINE
  5
217FB
  8
0
 10
4702.3439963752116455
 20
331.0469061972643203
 30
0.0
 11
4721.4501755360115567
 21
331.0469061972643203
 31
0.0
  0
LINE
  5
217FC
  8
0
 10
4722.6088381269119054
 20
331.7129990558643158
 30
0.0
 11
4727.9340116575131105
 21
331.7129876905643187
 31
0.0
  0
LINE
  5
217FD
  8
0
 10
4727.9422889751240291
 20
331.7170368269549954
 30
0.0
 11
4727.9423316153488486
 21
332.3954234850767762
 31
0.0
  0
ARC
  5
217FE
  8
0
 10
4727.8123977156556066
 20
332.3754977521671208
 30
0.0
 40
0.1314528551280354
 50
8.7185491010211162
 51
81.3535753999199045
  0
LINE
  5
217FF
  8
0
 10
4727.8321598707279918
 20
332.5054566316179034
 30
0.0
 11
4721.9709081620203506
 21
332.505426572501392
 31
0.0
  0
ARC
  5
21800
  8
0
 10
4722.0381541411870785
 20
332.4054269173674925
 30
0.0
 40
0.1
 50
90.0002938383628788
 51
170.0061188609014948
  0
LINE
  5
21801
  8
0
 10
4721.9396715119828514
 20
332.422781217852787
 30
0.0
 11
4721.8379857896543399
 21
331.8457324744600214
 31
0.0
  0
ARC
  5
21802
  8
0
 10
4721.4475079525209367
 20
331.9163641617828944
 30
0.0
 40
0.3972918427498721
 50
273.7938198888347756
 51
329.8859604564127039
  0
ARC
  5
21803
  8
0
 10
4721.4496990050411114
 20
331.9140946974187045
 30
0.0
 40
0.3942588244191049
 50
330.011499891655717
 51
350.0147716444665775
  0
ARC
  5
21804
  8
0
 10
4721.455849442494582
 20
331.8916241089268055
 30
0.0
 40
0.8487372126381701
 50
269.443702632184511
 51
317.5363783740390886
  0
ARC
  5
21805
  8
0
 10
4722.6109467500109531
 20
331.2361147381689079
 30
0.0
 40
0.4768889794859513
 50
90.2533411401624051
 51
130.3142523042947118
  0
ARC
  5
21806
  8
0
 10
4724.5971386145565702
 20
329.5740095297787775
 30
0.0
 40
3.060946103876141
 50
138.5626426284918864
 51
145.2510367645531915
  0
LINE
  5
21807
  8
0
 10
4721.4501755360115567
 20
331.0469061972643203
 30
0.0
 11
4721.4485222271132443
 21
331.042923446864279
 31
0.0
  0
ARC
  5
21808
  8
0
 10
4704.6463081454412531
 20
315.9578936106643141
 30
0.0
 40
0.19
 50
193.165790036197194
 51
270.0
  0
LINE
  5
21809
  8
0
 10
4723.209602208711658
 20
315.9578936106643141
 30
0.0
 11
4723.209602208711658
 21
322.5945201234642923
 31
0.0
  0
ARC
  5
2180A
  8
0
 10
4727.9160943985871199
 20
322.6019416955392103
 30
0.0
 40
4.7064980413341946
 50
134.9096502993274953
 51
180.0903484777284973
  0
ARC
  5
2180B
  8
0
 10
4723.2096022517062011
 20
331.232758474696027
 30
0.0
 40
4.7244093943820724
 50
315.0000180160740229
 51
335.1759247629415768
  0
ARC
  5
2180C
  8
0
 10
4723.2096022312462082
 20
331.2327585071390104
 30
0.0
 40
4.7244094265718068
 50
335.1759245100045064
 51
0.0000935696429782
  0
LINE
  5
2180D
  8
0
 10
4727.9340116575131105
 20
331.7129876905643187
 30
0.0
 11
4727.9340116578132438
 21
331.2327662225642939
 31
0.0
  0
LINE
  5
2180E
  8
0
 10
4724.5933497706118942
 20
325.935182153464325
 30
0.0
 11
4726.5502652220120581
 21
327.8920976052643255
 31
0.0
  0
LINE
  5
21810
  8
0
 10
4721.441319303678938
 20
347.7416455527143171
 30
0.0
 11
4728.0270542660064166
 21
347.7416455527143171
 31
0.0
  0
LINE
  5
21811
  8
0
 10
4721.3290792547177261
 20
345.9725619929643017
 30
0.0
 11
4728.1043426278747575
 21
345.9725619929643017
 31
0.0
  0
ARC
  5
21812
  8
0
 10
4717.9204652142343548
 20
332.6260322381347123
 30
0.0
 40
0.2355418279186232
 50
20.1340592985202811
 51
43.130331168975701
  0
LINE
  5
21813
  8
0
 10
4718.1416130336474453
 20
332.7071099457293144
 30
0.0
 11
4718.197060926055201
 21
332.5560001925364872
 31
0.0
  0
LINE
  5
21814
  8
0
 10
4718.4026504170124099
 20
331.5199429400037161
 30
0.0
 11
4718.4026508599154113
 21
331.6117870700642243
 31
0.0
  0
ARC
  5
21815
  8
0
 10
4718.4814711737371908
 20
331.6115931657818123
 30
0.0
 40
0.0789335245734952
 50
90.0582491197050388
 51
179.8595705959297959
  0
LINE
  5
21816
  8
0
 10
4718.4813908486130458
 20
331.6905270353643118
 30
0.0
 11
4720.5286343947127534
 21
331.6905270353643118
 31
0.0
  0
LINE
  5
21817
  8
0
 10
4718.9341464800118047
 20
331.7338341219643212
 30
0.0
 11
4718.9341464800118047
 21
331.6905270353643118
 31
0.0
  0
LINE
  5
21818
  8
0
 10
4718.6191858500133094
 20
331.7338341219643212
 30
0.0
 11
4718.6191858500133094
 21
331.6905270353643118
 31
0.0
  0
LINE
  5
21819
  8
0
 10
4718.3593433303130951
 20
331.5369837282643175
 30
0.0
 11
4718.265056123692375
 21
331.5369848755767066
 31
0.0
  0
ARC
  5
2181A
  8
0
 10
4718.2650563548886566
 20
331.555984875575291
 30
0.0
 40
0.019
 50
178.4019285740257885
 51
269.9993028093472276
  0
LINE
  5
2181B
  8
0
 10
4718.3593433303130951
 20
331.5369837282643175
 30
0.0
 11
4718.3593433303130951
 21
331.7338341219643212
 31
0.0
  0
LINE
  5
2181C
  8
0
 10
4718.3593622949128985
 20
331.7338333981642791
 30
0.0
 11
4719.193970035113125
 21
331.73383339966432
 31
0.0
  0
LINE
  5
2181D
  8
0
 10
4719.193970035113125
 20
331.73383339966432
 30
0.0
 11
4719.1939828640115593
 21
331.6905270353643118
 31
0.0
  0
ARC
  5
2181E
  8
0
 10
4717.3881604329671973
 20
330.3234272105478908
 30
0.0
 40
1.5876160396170209
 50
98.3247446879244649
 51
131.0919620984051051
  0
ARC
  5
2181F
  8
0
 10
4693.7258889809945686
 20
311.3554739434634939
 30
0.0
 40
28.00182724355383
 50
46.0637792663642287
 51
46.7781421641760176
  0
ARC
  5
21820
  8
0
 10
4711.0183297039739045
 20
310.413991275950309
 30
0.0
 40
21.4274944960666787
 50
84.94937963357836
 51
86.0689132144885605
  0
ARC
  5
21821
  8
0
 10
4712.9194325983216913
 20
332.2204140787558799
 30
0.0
 40
0.4601218354374642
 50
253.3568132779400059
 51
267.859194476919015
  0
ARC
  5
21822
  8
0
 10
4713.6111362303299757
 20
304.6983329547983885
 30
0.0
 40
27.0937526170964205
 50
88.362537794889576
 51
91.7417159379178031
  0
ARC
  5
21823
  8
0
 10
4714.4000840125427203
 20
330.8942054398874006
 30
0.0
 40
0.8869387217710913
 50
78.5013168201266183
 51
90.9521065737915961
  0
LINE
  5
21824
  8
0
 10
4714.2343982364300246
 20
331.5199426433692906
 30
0.0
 11
4714.46449355445111
 21
331.7434489814647804
 31
0.0
  0
ARC
  5
21825
  8
0
 10
4714.3374239185759507
 20
332.788846815667398
 30
0.0
 40
1.053092267618025
 50
276.9303876527532111
 51
283.1437161814711772
  0
ARC
  5
21826
  8
0
 10
4716.0537682924596083
 20
320.5140763897513807
 30
0.0
 40
11.3355189006042796
 50
94.5158145031674337
 51
98.0954030298035633
  0
ARC
  5
21827
  8
0
 10
4727.0420457192913091
 20
331.4171699573781211
 30
0.0
 40
0.3000540603499581
 50
92.5380299708089069
 51
99.6369936789974417
  0
LINE
  5
21828
  8
0
 10
4727.028758577112967
 20
331.7169296794642719
 30
0.0
 11
4727.9422889751240291
 21
331.7170368269549954
 31
0.0
  0
ENDSEC
  0
EOF
