  0
SECTION
  2
HEADER
  9
$ACADVER
  1
AC1009
  9
$INSBASE
 10
4638.2393562879951787
 20
334.7521489185779728
 30
0.0
  9
$EXTMIN
 10
4630.2130319331581632
 20
309.0567147706061064
 30
-0.0000000349181948
  9
$EXTMAX
 10
4646.0921560720562411
 20
334.7593234879175839
 30
0.0000000814935746
  9
$LIMMIN
 10
0.0
 20
0.0
  9
$LIMMAX
 10
11.6929133858000007
 20
8.2677165353999982
  9
$ORTHOMODE
 70
     0
  9
$REGENMODE
 70
     1
  9
$FILLMODE
 70
     1
  9
$QTEXTMODE
 70
     0
  9
$MIRRTEXT
 70
     0
  9
$DRAGMODE
 70
     2
  9
$LTSCALE
 40
0.6431102362
  9
$OSMODE
 70
  4095
  9
$ATTMODE
 70
     1
  9
$TEXTSIZE
 40
0.2
  9
$TRACEWID
 40
0.05
  9
$TEXTSTYLE
  7
STANDARD
  9
$CLAYER
  8
0
  9
$CELTYPE
  6
BYLAYER
  9
$CECOLOR
 62
   256
  9
$DIMSCALE
 40
1.0
  9
$DIMASZ
 40
0.1875
  9
$DIMEXO
 40
0.0625
  9
$DIMDLI
 40
0.4443307087
  9
$DIMRND
 40
0.0
  9
$DIMDLE
 40
0.0
  9
$DIMEXE
 40
0.125
  9
$DIMTP
 40
0.01
  9
$DIMTM
 40
0.01
  9
$DIMTXT
 40
2.0
  9
$DIMCEN
 40
0.1052362205
  9
$DIMTSZ
 40
0.0
  9
$DIMTOL
 70
     1
  9
$DIMLIM
 70
     0
  9
$DIMTIH
 70
     1
  9
$DIMTOH
 70
     1
  9
$DIMSE1
 70
     0
  9
$DIMSE2
 70
     0
  9
$DIMTAD
 70
     0
  9
$DIMZIN
 70
     0
  9
$DIMBLK
  1

  9
$DIMASO
 70
     1
  9
$DIMSHO
 70
     1
  9
$DIMPOST
  1
\X
  9
$DIMAPOST
  1

  9
$DIMALT
 70
     1
  9
$DIMALTD
 70
     2
  9
$DIMALTF
 40
25.3999999999999986
  9
$DIMLFAC
 40
1.0
  9
$DIMTOFL
 70
     0
  9
$DIMTVP
 40
0.0
  9
$DIMTIX
 70
     0
  9
$DIMSOXD
 70
     0
  9
$DIMSAH
 70
     0
  9
$DIMBLK1
  1

  9
$DIMBLK2
  1

  9
$DIMSTYLE
  2
STANDARD
  9
$DIMCLRD
 70
     0
  9
$DIMCLRE
 70
     0
  9
$DIMCLRT
 70
     0
  9
$DIMTFAC
 40
1.0
  9
$DIMGAP
 40
0.09
  9
$LUNITS
 70
     2
  9
$LUPREC
 70
     4
  9
$SKETCHINC
 40
0.1
  9
$FILLETRAD
 40
0.0
  9
$AUNITS
 70
     0
  9
$AUPREC
 70
     0
  9
$MENU
  1
.
  9
$ELEVATION
 40
0.0
  9
$PELEVATION
 40
0.0
  9
$THICKNESS
 40
0.0
  9
$LIMCHECK
 70
     0
  9
$BLIPMODE
 70
     0
  9
$CHAMFERA
 40
0.0
  9
$CHAMFERB
 40
0.0
  9
$SKPOLY
 70
     0
  9
$TDCREATE
 40
2458060.468368056230247
  9
$TDUPDATE
 40
2459412.6172337960451841
  9
$TDINDWG
 40
0.5680163194
  9
$TDUSRTIMER
 40
0.5680163194
  9
$USRTIMER
 70
     1
  9
$ANGBASE
 50
0.0
  9
$ANGDIR
 70
     0
  9
$PDMODE
 70
     0
  9
$PDSIZE
 40
0.3125
  9
$PLINEWID
 40
0.0
  9
$COORDS
 70
     1
  9
$SPLFRAME
 70
     0
  9
$SPLINETYPE
 70
     6
  9
$SPLINESEGS
 70
     8
  9
$ATTDIA
 70
     1
  9
$ATTREQ
 70
     1
  9
$HANDLING
 70
     1
  9
$HANDSEED
  5
21820
  9
$SURFTAB1
 70
     6
  9
$SURFTAB2
 70
     6
  9
$SURFTYPE
 70
     6
  9
$SURFU
 70
     6
  9
$SURFV
 70
     6
  9
$UCSNAME
  2

  9
$UCSORG
 10
0.0
 20
0.0
 30
0.0
  9
$UCSXDIR
 10
1.0
 20
0.0
 30
0.0
  9
$UCSYDIR
 10
0.0
 20
1.0
 30
0.0
  9
$PUCSNAME
  2

  9
$PUCSORG
 10
0.0
 20
0.0
 30
0.0
  9
$PUCSXDIR
 10
1.0
 20
0.0
 30
0.0
  9
$PUCSYDIR
 10
0.0
 20
1.0
 30
0.0
  9
$USERI1
 70
     0
  9
$USERI2
 70
     0
  9
$USERI3
 70
     0
  9
$USERI4
 70
     0
  9
$USERI5
 70
     0
  9
$USERR1
 40
0.0
  9
$USERR2
 40
0.0
  9
$USERR3
 40
0.0
  9
$USERR4
 40
0.0
  9
$USERR5
 40
0.0
  9
$WORLDVIEW
 70
     1
  9
$SHADEDGE
 70
     3
  9
$SHADEDIF
 70
    70
  9
$TILEMODE
 70
     1
  9
$MAXACTVP
 70
    64
  9
$PLIMCHECK
 70
     0
  9
$PEXTMIN
 10
1.0000000000000000E+20
 20
1.0000000000000000E+20
 30
1.0000000000000000E+20
  9
$PEXTMAX
 10
-1.0000000000000000E+20
 20
-1.0000000000000000E+20
 30
-1.0000000000000000E+20
  9
$PLIMMIN
 10
0.0
 20
0.0
  9
$PLIMMAX
 10
12.0
 20
9.0
  9
$UNITMODE
 70
     0
  9
$VISRETAIN
 70
     1
  9
$PLINEGEN
 70
     0
  9
$PSLTSCALE
 70
     1
  0
ENDSEC
  0
SECTION
  2
TABLES
  0
TABLE
  2
VPORT
 70
     1
  0
VPORT
  2
*ACTIVE
 70
     0
 10
0.0
 20
0.0
 11
1.0
 21
1.0
 12
726.7872375572950432
 22
189.3284140267228111
 13
0.0
 23
0.0
 14
1.0
 24
1.0
 15
0.0
 25
0.0
 16
0.0
 26
0.0
 36
60.4960186965801583
 17
3911.3653564453120453
 27
132.5796051025390057
 37
0.0
 40
25.9063282051634509
 41
1.67063492063492
 42
50.0
 43
0.0
 44
0.0
 50
0.0
 51
0.0
 71
     0
 72
   100
 73
     1
 74
     1
 75
     0
 76
     0
 77
     0
 78
     0
  0
ENDTAB
  0
TABLE
  2
LTYPE
 70
     2
  0
LTYPE
  2
CONTINUOUS
 70
     0
  3
Solid line
 72
    65
 73
     0
 40
0.0
  0
LTYPE
  2
PHANTOM2
 70
     0
  3
___ _ _ ___ _ _ ___ _ _ ___ _ _
 72
    65
 73
     6
 40
1.25
 49
0.625
 49
-0.125
 49
0.125
 49
-0.125
 49
0.125
 49
-0.125
  0
ENDTAB
  0
TABLE
  2
LAYER
 70
     2
  0
LAYER
  2
0
 70
     0
 62
   255
  6
CONTINUOUS
  0
LAYER
  2
DEFPOINTS
 70
     0
 62
     7
  6
CONTINUOUS
  0
ENDTAB
  0
TABLE
  2
STYLE
 70
     1
  0
STYLE
  2
STANDARD
 70
     0
 40
0.0
 41
0.8
 50
0.0
 71
     0
 42
0.2
  3
txt
  4

  0
ENDTAB
  0
TABLE
  2
VIEW
 70
     0
  0
ENDTAB
  0
TABLE
  2
UCS
 70
     0
  0
ENDTAB
  0
TABLE
  2
APPID
 70
    11
  0
APPID
  2
ACAD
 70
     0
  0
APPID
  2
ACAD_MLEADERVER
 70
     0
  0
APPID
  2
ACAD_EXEMPT_FROM_CAD_STANDARDS
 70
     0
  0
APPID
  2
ACAD_NAV_VCDISPLAY
 70
     0
  0
APPID
  2
ACAECLAYERSTANDARD
 70
     0
  0
APPID
  2
ACCMTRANSPARENCY
 70
     0
  0
APPID
  2
ACAD_DSTYLE_DIMJAG
 70
     0
  0
APPID
  2
ACAD_DSTYLE_DIMTALN
 70
     0
  0
APPID
  2
ACDBATTR
 70
     0
  0
APPID
  2
ACADANNOTATIVE
 70
     0
  0
APPID
  2
DCO15
 70
     0
  0
ENDTAB
  0
TABLE
  2
DIMSTYLE
 70
     1
  0
DIMSTYLE
  2
STANDARD
 70
     0
  3

  4

  5

  6

  7

 40
1.0
 41
0.1875
 42
0.0625
 43
0.38
 44
0.125
 45
0.0
 46
0.0
 47
0.01
 48
0.01
140
0.15625
141
0.09
142
0.0
143
25.3999999999999986
144
1.0
145
0.0
146
1.0
147
0.09
 71
     1
 72
     0
 73
     1
 74
     1
 75
     0
 76
     0
 77
     0
 78
     4
170
     0
171
     2
172
     0
173
     0
174
     0
175
     0
176
     0
177
     0
178
     0
  0
ENDTAB
  0
ENDSEC
  0
SECTION
  2
BLOCKS
  0
BLOCK
  8
0
  2
$MODEL_SPACE
 70
     0
 10
0.0
 20
0.0
 30
0.0
  3
$MODEL_SPACE
  1

  0
ENDBLK
  5
21
  8
0
  0
BLOCK
 67
     1
  8
0
  2
$PAPER_SPACE
 70
     0
 10
0.0
 20
0.0
 30
0.0
  3
$PAPER_SPACE
  1

  0
ENDBLK
  5
1D
 67
     1
  8
0
  0
ENDSEC
  0
SECTION
  2
ENTITIES
  0
ATTDEF
  5
20106
  8
DEFPOINTS
 10
4638.236253384243355
 20
334.7569030604536238
 30
0.0
 40
0.001
  1
K-24098K
  3

  2
MODELNUMBER
 70
     0
1001
ACDBATTR
1070
     0
1070
     1
  0
ATTDEF
  5
20107
  8
DEFPOINTS
 10
4638.2361275745861349
 20
334.7552362200744938
 30
0.0
 40
0.001
  1
PARLIAMENT GRANDE
  3

  2
TRADENAME
 70
     0
1001
ACDBATTR
1070
     0
1070
     1
  0
ATTDEF
  5
20108
  8
DEFPOINTS
 10
4638.236253384243355
 20
334.7535697271202935
 30
0.0
 40
0.001
  1
TOILET
  3

  2
PRODUCT
 70
     0
1001
ACDBATTR
1070
     0
1070
     1
  0
LINE
  5
216C3
  8
0
 10
4630.800298585301789
 20
318.9449632065375226
 30
0.0
 11
4630.800298585301789
 21
322.7312192976274901
 31
0.0
  0
LINE
  5
216C4
  8
0
 10
4630.4535037021050812
 20
333.9421489185780274
 30
0.0
 11
4630.4535037021050812
 21
328.9478996267781099
 31
0.0
  0
LINE
  5
216C5
  8
0
 10
4631.2635037021045719
 20
334.7521489185779728
 30
0.0
 11
4645.2152088738848761
 21
334.7521489185779728
 31
0.0
  0
ARC
  5
216C6
  8
0
 10
4631.2635037021045719
 20
333.9421489185780274
 30
0.0
 40
0.8100000000000001
 50
90.0
 51
180.0
  0
LINE
  5
216C7
  8
0
 10
4631.6435037021055905
 20
327.7578996267781122
 30
0.0
 11
4644.8352088738847669
 21
327.7578996267781122
 31
0.0
  0
ARC
  5
216C8
  8
0
 10
4631.6435037021055905
 20
328.9478996267781099
 30
0.0
 40
1.1899999999999991
 50
180.0
 51
270.0
  0
LINE
  5
216C9
  8
0
 10
4631.3511549347958862
 20
334.5625599953280016
 30
0.0
 11
4645.1275576411953807
 21
334.5625599953280016
 31
0.0
  0
LINE
  5
216CA
  8
0
 10
4631.7411549347953041
 20
327.9884065796294976
 30
0.0
 11
4644.7375576411950533
 21
327.9884065796294976
 31
0.0
  0
ARC
  5
216CB
  8
0
 10
4795.0971358721708384
 20
316.0793319204652221
 30
0.0
 40
164.431439658437796
 50
176.7517384149722091
 51
177.6815315686550036
  0
ARC
  5
216CC
  8
0
 10
4645.7701319124344082
 20
319.8066914754737127
 30
0.0
 40
14.9946152151902794
 50
183.2945567658979087
 51
206.5281583351379027
  0
ARC
  5
216CD
  8
0
 10
4638.4019775508631938
 20
315.3306535933621717
 30
0.0
 40
6.2527526839355136
 50
227.2537918087118953
 51
268.5096863369926155
  0
ARC
  5
216CE
  8
0
 10
4639.8051744611502727
 20
316.9069017367621086
 30
0.0
 40
8.3628138049413252
 50
207.0056202206392015
 51
227.5238672834989018
  0
LINE
  5
216CF
  8
0
 10
4631.0523302654019062
 20
327.9151295808642885
 30
0.0
 11
4631.0055430302218156
 21
325.6361711856101806
 31
0.0
  0
LINE
  5
216D0
  8
0
 10
4631.4390540022741334
 20
325.8775297198781118
 30
0.0
 11
4633.392904650840137
 21
325.8775297198781118
 31
0.0
  0
LINE
  5
216D1
  8
0
 10
4633.4125846340957651
 20
325.8775297198781118
 30
0.0
 11
4634.9972303033955541
 21
325.8775297198781118
 31
0.0
  0
LINE
  5
216D2
  8
0
 10
4635.4184901459957473
 20
325.8775297198781118
 30
0.0
 11
4636.1921605577617811
 21
325.8775297198781118
 31
0.0
  0
ARC
  5
216D3
  8
0
 10
4631.4390540022741334
 20
325.3675297198781209
 30
0.0
 40
0.51
 50
90.0
 51
176.7517384149722091
  0
LINE
  5
216D4
  8
0
 10
4633.5721133913948506
 20
325.7808827301086012
 30
0.0
 11
4642.9065991845945973
 21
325.7808827301086012
 31
0.0
  0
ARC
  5
216D5
  8
0
 10
4635.2078602246947412
 20
325.7692620033781168
 30
0.0
 40
0.8877952755999984
 50
7.004726406697892
 51
172.9952735933021017
  0
LINE
  5
216D6
  8
0
 10
4633.392904650840137
 20
325.8775297198781118
 30
0.0
 11
4633.3964231457957794
 21
325.8159014264779785
 31
0.0
  0
ARC
  5
216D7
  8
0
 10
4633.5864358747239748
 20
326.3109711767199883
 30
0.0
 40
0.5302819012182443
 50
249.0026976031761876
 51
268.4522993322494813
  0
LINE
  5
216D8
  8
0
 10
4633.4125846340957651
 20
325.8775297198781118
 30
0.0
 11
4633.4140390535103506
 21
325.8094951246549158
 31
0.0
  0
ARC
  5
216D9
  8
0
 10
4636.2851325118290333
 20
325.8589157381803147
 30
0.0
 40
0.0948170056359192
 50
168.6784590884458908
 51
234.7510357836881951
  0
LINE
  5
216DA
  8
0
 10
4635.4184901459957473
 20
325.8775297198781118
 30
0.0
 11
4635.4184901504659138
 21
325.8408274558810831
 31
0.0
  0
ARC
  5
216DB
  8
0
 10
4635.3296100089137326
 20
325.8598858234594786
 30
0.0
 40
0.0909005002015843
 50
299.6439069361892962
 51
347.8974631185354838
  0
LINE
  5
216DC
  8
0
 10
4634.9972303033955541
 20
325.8775297198781118
 30
0.0
 11
4634.9972302989253876
 21
325.8408274558810831
 31
0.0
  0
ARC
  5
216DD
  8
0
 10
4635.0861104404757498
 20
325.8598858234594786
 30
0.0
 40
0.0909005002015843
 50
192.1025368814613046
 51
240.3560930638107038
  0
ARC
  5
216DE
  8
0
 10
4679.087639657271211
 20
321.9289314552128758
 30
0.0
 40
47.8445171483622715
 50
176.0926880413898061
 51
184.3425802582619042
  0
ARC
  5
216DF
  8
0
 10
4643.8489669665495967
 20
319.2529846391560113
 30
0.0
 40
12.50438777160279
 50
184.3425802582619042
 51
216.4721551408815969
  0
ARC
  5
216E0
  8
0
 10
4638.4850955362580862
 20
315.4357794592897903
 30
0.0
 40
5.923176602671969
 50
217.6220550609887994
 51
267.6222447899475014
  0
LINE
  5
216E1
  8
0
 10
4644.8672682369951872
 20
325.54363439057812
 30
0.0
 11
4631.6114443389960798
 21
325.54363439057812
 31
0.0
  0
ARC
  5
216E2
  8
0
 10
4631.7180066587834517
 20
325.1958640901049762
 30
0.0
 40
0.3637302707908756
 50
107.0358927528018
 51
181.0739128054862874
  0
ARC
  5
216E3
  8
0
 10
4638.2083169706602348
 20
331.956938559612297
 30
0.0
 40
0.0189154250999789
 50
94.2944957433102786
 51
156.6957671477794918
  0
LINE
  5
216E4
  8
0
 10
4638.1909447197358531
 20
331.9644217544167759
 30
0.0
 11
4638.1698076250304439
 21
331.8295325915855756
 31
0.0
  0
ARC
  5
216E5
  8
0
 10
4641.9275339492251078
 20
331.3088884640714014
 30
0.0
 40
3.793623259505948
 50
172.1117208763915016
 51
176.707843898835705
  0
ARC
  5
216E6
  8
0
 10
4642.0163592220824285
 20
331.3037790317408167
 30
0.0
 40
3.8825953641056898
 50
176.707843898835705
 51
179.9631850913575022
  0
ARC
  5
216E7
  8
0
 10
4641.7530522219167324
 20
331.3039482174045816
 30
0.0
 40
3.619288309586524
 50
179.9631850913575022
 51
181.3896465272017053
  0
ARC
  5
216E8
  8
0
 10
4641.981162685237905
 20
331.3094818725488153
 30
0.0
 40
3.847465882576742
 50
181.3896465272017053
 51
183.3328904198968132
  0
ARC
  5
216E9
  8
0
 10
4642.0072159031260526
 20
331.3109990976097947
 30
0.0
 40
3.8735632413361691
 50
183.3328904198968132
 51
187.7807042730802891
  0
ARC
  5
216EA
  8
0
 10
4641.7822161763833719
 20
331.2802551612392108
 30
0.0
 40
3.6464728041569852
 50
187.7807042730802891
 51
189.8446948375294028
  0
ARC
  5
216EB
  8
0
 10
4638.2083169706602348
 20
330.6556089599121719
 30
0.0
 40
0.0189154251000047
 50
176.4262006161438876
 51
221.8456781408229972
  0
ARC
  5
216EC
  8
0
 10
4638.2378349214277478
 20
331.3033472712033927
 30
0.0
 40
0.6661869541752388
 50
179.7483049188778068
 51
262.6045803450688823
  0
ARC
  5
216ED
  8
0
 10
4638.2204863317419949
 20
331.3164194892316914
 30
0.0
 40
0.6489112556863863
 50
159.4987394979017097
 51
180.8958561944874077
  0
ARC
  5
216EE
  8
0
 10
4638.2554438212973764
 20
331.2937169043835866
 30
0.0
 40
0.6896647843302822
 50
123.9057363678375054
 51
158.7492230019028057
  0
ARC
  5
216EF
  8
0
 10
4638.2444856635038377
 20
331.2858210712366827
 30
0.0
 40
0.6902372313996761
 50
97.6930780650704236
 51
122.7851029269093033
  0
ARC
  5
216F0
  8
0
 10
4638.1542421986860063
 20
331.9481532558530716
 30
0.0
 40
0.0217993767405948
 50
30.1517183663092503
 51
95.6763429060875978
  0
ARC
  5
216F1
  8
0
 10
4638.154168069773732
 20
331.9478277895503879
 30
0.0
 40
0.0220283084006649
 50
3.2761826346588179
 51
30.7868864736189316
  0
ARC
  5
216F2
  8
0
 10
4641.9016388959453252
 20
331.3140400680650828
 30
0.0
 40
3.779216110012201
 50
170.3263177150525109
 51
172.2149921455981882
  0
ARC
  5
216F3
  8
0
 10
4641.9066067455742086
 20
331.3110655263697026
 30
0.0
 40
3.7845417763463862
 50
172.180562072919713
 51
174.3983986651631142
  0
ARC
  5
216F4
  8
0
 10
4638.1542634370707674
 20
330.6643527352396177
 30
0.0
 40
0.0217601675524177
 50
264.2572176638958013
 51
329.9147874026040768
  0
ARC
  5
216F5
  8
0
 10
4638.153025372641423
 20
330.6650699892485932
 30
0.0
 40
0.0231909913863739
 50
329.9147874026040768
 51
356.0087083537658259
  0
ARC
  5
216F6
  8
0
 10
4641.950027798242445
 20
331.3062737184501998
 30
0.0
 40
3.8282231085182139
 50
188.7707695026851979
 51
189.6666429292262137
  0
ARC
  5
216F7
  8
0
 10
4641.9500281145119516
 20
331.3062737672461822
 30
0.0
 40
3.8282234285304169
 50
186.1966319300454984
 51
188.7707695026851979
  0
ARC
  5
216F8
  8
0
 10
4641.8617222159364246
 20
331.2966859289568902
 30
0.0
 40
3.7393985538257808
 50
183.2329295448282096
 51
186.1966319300454984
  0
ARC
  5
216F9
  8
0
 10
4642.010998574194673
 20
331.3051178374691972
 30
0.0
 40
3.8889128615562991
 50
178.8022170812322997
 51
183.2329295448282096
  0
ARC
  5
216FA
  8
0
 10
4642.04799049275789
 20
331.3043443992792731
 30
0.0
 40
3.9259128648756381
 50
174.5021863192301055
 51
178.8022170812322997
  0
ARC
  5
216FB
  8
0
 10
4638.0714204997602792
 20
331.9331748324121918
 30
0.0
 40
0.0333271254999979
 50
51.0394466567172884
 51
158.8956772463907043
  0
ARC
  5
216FC
  8
0
 10
4637.7805012322869516
 20
331.7651177278222008
 30
0.0
 40
0.0334020686108503
 50
81.9412380664645639
 51
188.5854788921814134
  0
ARC
  5
216FD
  8
0
 10
4637.6126090597981602
 20
331.4741541665745785
 30
0.0
 40
0.0334602438900678
 50
112.9311532132976055
 51
217.9332227692227946
  0
ARC
  5
216FE
  8
0
 10
4637.6124970632599798
 20
331.1382961236121787
 30
0.0
 40
0.0333271255000006
 50
139.2659585803970117
 51
250.3048788022724125
  0
ARC
  5
216FF
  8
0
 10
4637.7804746993597291
 20
330.8473503232121971
 30
0.0
 40
0.0333271255000017
 50
171.376045525902498
 51
278.4529155958692854
  0
ARC
  5
21700
  8
0
 10
4638.0714204997602792
 20
330.6793726870121759
 30
0.0
 40
0.0333271255000005
 50
201.6538911254307891
 51
308.4796398285693044
  0
ARC
  5
21701
  8
0
 10
4638.2958434219617629
 20
331.9514469819583837
 30
0.0
 40
0.0343580575525442
 50
34.8764870378977179
 51
135.2179082639241017
  0
ARC
  5
21702
  8
0
 10
4638.6469698064602198
 20
331.8095828568121988
 30
0.0
 40
0.0343579363999999
 50
0.8763927754061276
 51
101.1236072374351949
  0
ARC
  5
21703
  8
0
 10
4638.8587372396614228
 20
331.495624726012295
 30
0.0
 40
0.0343579363999995
 50
325.5067627043625862
 51
67.5205490732959532
  0
ARC
  5
21704
  8
0
 10
4638.8587372396614228
 20
331.1169227935121739
 30
0.0
 40
0.0343579363999993
 50
292.5965876194256907
 51
33.7123760802904329
  0
ARC
  5
21705
  8
0
 10
4638.6469698064602198
 20
330.8029646626122258
 30
0.0
 40
0.034357936399998
 50
258.8463437196817267
 51
359.1236072245937976
  0
ARC
  5
21706
  8
0
 10
4638.2958118525457394
 20
330.6611550814404268
 30
0.0
 40
0.0344151557245544
 50
224.9186181252622134
 51
325.0790691593812767
  0
LINE
  5
21707
  8
0
 10
4638.2714563839599577
 20
331.9756492235122209
 30
0.0
 11
4638.2714559927781011
 21
331.9747969004794186
 31
0.0
  0
ARC
  5
21708
  8
0
 10
4638.239398135960073
 20
331.3062737597185219
 30
0.0
 40
0.6692913385937688
 50
87.2580413100080392
 51
90.2821137741392192
  0
ARC
  5
21709
  8
0
 10
4638.2384382372129039
 20
331.3398364588907725
 30
0.0
 40
0.6367459206974279
 50
90.5711927041967186
 51
92.8389930480771426
  0
ARC
  5
2170A
  8
0
 10
4638.2321656968770185
 20
331.9690079791154744
 30
0.0
 40
0.0075431341301135
 50
60.3066372549190817
 51
90.5711927041967186
  0
CIRCLE
  5
2170B
  8
0
 10
4638.239398135960073
 20
331.3062737597122123
 30
0.0
 40
0.905511810999992
  0
CIRCLE
  5
2170C
  8
0
 10
4638.2361026830621995
 20
331.3062737597122123
 30
0.0
 40
0.7085509521066129
  0
ARC
  5
2170D
  8
0
 10
4638.2083728355310086
 20
330.6556858515189106
 30
0.0
 40
0.0190083482896279
 50
221.9059962572790141
 51
269.456943138431825
  0
ARC
  5
2170E
  8
0
 10
4638.2023593898566105
 20
330.0212500043480759
 30
0.0
 40
0.6154559972051334
 50
87.241041972411864
 51
89.456943138431825
  0
ARC
  5
2170F
  8
0
 10
4638.2323167437725715
 20
330.6428988633580275
 30
0.0
 40
0.0069142679602222
 50
267.2410419724118924
 51
301.2360986707976735
  0
ARC
  5
21710
  8
0
 10
4638.2391678073163348
 20
331.312925015041003
 30
0.0
 40
0.6759459997074185
 50
269.7231974707553945
 51
272.7367354039167253
  0
LINE
  5
21711
  8
0
 10
4638.2714421218597636
 20
330.6377499539336782
 30
0.0
 11
4638.2714421218597636
 21
330.6368544812459049
 31
0.0
  0
ARC
  5
21712
  8
0
 10
4638.2394201922952561
 20
331.3062527330781109
 30
0.0
 40
0.6701626511391997
 50
272.7387683998906027
 51
87.2600108621141572
  0
ARC
  5
21713
  8
0
 10
4638.2394053967209402
 20
331.3062801069414149
 30
0.0
 40
0.6480667117919322
 50
97.6819474800193746
 51
262.3182026503528164
  0
ARC
  5
21714
  8
0
 10
4638.239398135960073
 20
331.3062737597122123
 30
0.0
 40
0.6480594510000014
 50
267.6447007146314263
 51
92.3552992853686305
  0
ARC
  5
21715
  8
0
 10
4677.0253163438746924
 20
337.1963011524260878
 30
0.0
 40
39.2251641964129902
 50
187.6596815422431916
 51
187.6884152239624939
  0
ARC
  5
21716
  8
0
 10
4638.3613734693681181
 20
331.7445182450290986
 30
0.0
 40
0.3075246955185785
 50
132.8854744223376088
 51
133.3815866949873055
  0
LINE
  5
21717
  8
0
 10
4638.2119564370168519
 20
331.9734534235279853
 30
0.0
 11
4638.21276538705024
 21
331.953785727713921
 31
0.0
  0
LINE
  5
21718
  8
0
 10
4638.2119564679078394
 20
331.9734533893714001
 30
0.0
 11
4638.2097093318725456
 21
331.9759381226749042
 31
0.0
  0
ARC
  5
21719
  8
0
 10
4677.4590612188394516
 20
325.3577463503207241
 30
0.0
 40
39.6628362946128235
 50
172.3116457556905061
 51
172.3400805368382862
  0
ARC
  5
2171A
  8
0
 10
4634.9638800151169562
 20
327.2638383920681804
 30
0.0
 40
4.6455709201977617
 50
46.6630522939199892
 51
46.6957449130354476
  0
LINE
  5
2171B
  8
0
 10
4638.2127653870602444
 20
330.6587617917122088
 30
0.0
 11
4638.2118551993144138
 21
330.6366327422426252
 31
0.0
  0
LINE
  5
2171C
  8
0
 10
4638.1572546182587757
 20
331.8259587991121862
 30
0.0
 11
4638.1572425852673405
 21
331.8259587991121862
 31
0.0
  0
LINE
  5
2171D
  8
0
 10
4638.1729998182399868
 20
331.8499039943621938
 30
0.0
 11
4638.1606063835679379
 21
331.8499039943621938
 31
0.0
  0
LINE
  5
2171E
  8
0
 10
4638.1640178155375906
 20
331.8732028936123015
 30
0.0
 11
4638.1766507493430254
 21
331.8732028936123015
 31
0.0
  0
LINE
  5
2171F
  8
0
 10
4638.1401713521590864
 20
331.5267462007121821
 30
0.0
 11
4638.1283821881797849
 21
331.5267462007121821
 31
0.0
  0
LINE
  5
21720
  8
0
 10
4638.1431848038382668
 20
331.5739902952122975
 30
0.0
 11
4638.1313487024754068
 21
331.5739902952122975
 31
0.0
  0
LINE
  5
21721
  8
0
 10
4638.1415834840463503
 20
331.5500450735121944
 30
0.0
 11
4638.1297736787892063
 21
331.5500450735121944
 31
0.0
  0
LINE
  5
21722
  8
0
 10
4638.1282748511603131
 20
331.0858013188121731
 30
0.0
 11
4638.1402043767593568
 21
331.0858013188121731
 31
0.0
  0
LINE
  5
21723
  8
0
 10
4638.1312435447480311
 20
331.0385572243122283
 30
0.0
 11
4638.1432454567720924
 21
331.0385572243122283
 31
0.0
  0
LINE
  5
21724
  8
0
 10
4638.12966385081927
 20
331.0625024459621955
 30
0.0
 11
4638.1416316524928334
 21
331.0625024459621955
 31
0.0
  0
LINE
  5
21725
  8
0
 10
4638.1640162329331361
 20
330.7393446259122243
 30
0.0
 11
4638.1760853268124265
 21
330.7393446259122243
 31
0.0
  0
LINE
  5
21726
  8
0
 10
4638.1606006144029379
 20
330.7626435251121961
 30
0.0
 11
4638.1726674364981591
 21
330.7626435251121961
 31
0.0
  0
LINE
  5
21727
  8
0
 10
4638.1572425852673405
 20
330.7865887204122259
 30
0.0
 11
4638.1693146614434227
 21
330.7865887204122259
 31
0.0
  0
LINE
  5
21728
  8
0
 10
4638.1860036017296807
 20
330.6769152658541202
 30
0.0
 11
4638.1736914127859563
 21
330.6781211315151836
 31
0.0
  0
LINE
  5
21729
  8
0
 10
4638.1730803875434503
 20
330.6534244569303951
 30
0.0
 11
4638.1897729422244083
 21
330.6518790381855979
 31
0.0
  0
LINE
  5
2172A
  8
0
 10
4638.1880397853246905
 20
330.6649016194289743
 30
0.0
 11
4638.1757212858528874
 21
330.6660374190050788
 31
0.0
  0
LINE
  5
2172B
  8
0
 10
4638.1572425852673405
 20
331.8259587991121862
 30
0.0
 11
4638.1693146614570651
 21
331.8259587991121862
 31
0.0
  0
ARC
  5
2172C
  8
0
 10
4641.9500280514512269
 20
331.3062737597122123
 30
0.0
 40
3.7929413350911361
 50
170.1706069258264904
 51
189.8293930741733959
  0
ARC
  5
2172D
  8
0
 10
4641.9501614384917048
 20
331.3062849691373799
 30
0.0
 40
3.8513137341477419
 50
170.4004990612378947
 51
189.5996510878350989
  0
CIRCLE
  5
2172E
  8
0
 10
4638.239398135960073
 20
331.3062737597185219
 30
0.0
 40
0.944881889800154
  0
LINE
  5
2172F
  8
0
 10
4630.6611549347953769
 20
333.8725599953280039
 30
0.0
 11
4630.6611549347953769
 21
329.0684065796294249
 31
0.0
  0
ARC
  5
21730
  8
0
 10
4631.3511549347958862
 20
333.8725599953280039
 30
0.0
 40
0.6899999999999999
 50
90.0
 51
180.0
  0
ARC
  5
21731
  8
0
 10
4631.7411549347953041
 20
329.0684065796294249
 30
0.0
 40
1.0800000000000001
 50
180.0
 51
270.0
  0
LINE
  5
21732
  8
0
 10
4645.6784139906885684
 20
318.9449632065375226
 30
0.0
 11
4645.6784139906885684
 21
322.7312192976274901
 31
0.0
  0
LINE
  5
21733
  8
0
 10
4646.0252088738861858
 20
333.9421489185780274
 30
0.0
 11
4646.0252088738861858
 21
328.9478996267781099
 31
0.0
  0
ARC
  5
21734
  8
0
 10
4645.2152088738848761
 20
333.9421489185780274
 30
0.0
 40
0.8100000000000001
 50
0.0
 51
90.0
  0
ARC
  5
21735
  8
0
 10
4644.8352088738847669
 20
328.9478996267781099
 30
0.0
 40
1.1899999999999991
 50
270.0
 51
0.0
  0
ARC
  5
21736
  8
0
 10
4481.3815767038186095
 20
316.0793319204652221
 30
0.0
 40
164.431439658437796
 50
2.3184684313449782
 51
3.2482615850277639
  0
ARC
  5
21737
  8
0
 10
4630.7085806635568588
 20
319.8066914754737127
 30
0.0
 40
14.9946152151902794
 50
333.4718416648620973
 51
356.705443234102006
  0
ARC
  5
21738
  8
0
 10
4638.0767350251280732
 20
315.3306535933621717
 30
0.0
 40
6.2527526839355207
 50
271.4903136630073845
 51
312.7462081912880763
  0
ARC
  5
21739
  8
0
 10
4636.6735381148400847
 20
316.9069017367621086
 30
0.0
 40
8.3628138049413252
 50
312.4761327165011267
 51
332.9943797793608269
  0
LINE
  5
2173A
  8
0
 10
4645.4263823105884512
 20
327.9151295808642885
 30
0.0
 11
4645.4731695457694514
 21
325.6361711856101806
 31
0.0
  0
LINE
  5
2173B
  8
0
 10
4645.0396585737162241
 20
325.8775297198781118
 30
0.0
 11
4643.0858079251511299
 21
325.8775297198781118
 31
0.0
  0
LINE
  5
2173C
  8
0
 10
4643.0661279418945924
 20
325.8775297198781118
 30
0.0
 11
4641.4814822725948034
 21
325.8775297198781118
 31
0.0
  0
LINE
  5
2173D
  8
0
 10
4641.0602224299946101
 20
325.8775297198781118
 30
0.0
 11
4640.2865520182285763
 21
325.8775297198781118
 31
0.0
  0
ARC
  5
2173E
  8
0
 10
4645.0396585737162241
 20
325.3675297198781209
 30
0.0
 40
0.51
 50
3.2482615850277639
 51
90.0
  0
ARC
  5
2173F
  8
0
 10
4641.2708523512947068
 20
325.7692620033781168
 30
0.0
 40
0.8877952755999984
 50
7.004726406697892
 51
172.9952735933021017
  0
LINE
  5
21740
  8
0
 10
4643.0858079251511299
 20
325.8775297198781118
 30
0.0
 11
4643.082289430194578
 21
325.8159014264779785
 31
0.0
  0
ARC
  5
21741
  8
0
 10
4642.8922767012672921
 20
326.3109711767199883
 30
0.0
 40
0.5302819012182443
 50
271.5477006677505187
 51
290.9973023968237271
  0
LINE
  5
21742
  8
0
 10
4643.0661279418945924
 20
325.8775297198781118
 30
0.0
 11
4643.0646735224809163
 21
325.8094951246549158
 31
0.0
  0
ARC
  5
21743
  8
0
 10
4640.1935800641622336
 20
325.8589157381803147
 30
0.0
 40
0.0948170056359192
 50
305.2489642163117196
 51
11.3215409115541004
  0
LINE
  5
21744
  8
0
 10
4641.0602224299946101
 20
325.8775297198781118
 30
0.0
 11
4641.0602224255253532
 21
325.8408274558810831
 31
0.0
  0
ARC
  5
21745
  8
0
 10
4641.1491025670766248
 20
325.8598858234594786
 30
0.0
 40
0.0909005002015843
 50
192.1025368814613046
 51
240.3560930638107038
  0
LINE
  5
21746
  8
0
 10
4641.4814822725948034
 20
325.8775297198781118
 30
0.0
 11
4641.4814822770658793
 21
325.8408274558810831
 31
0.0
  0
ARC
  5
21747
  8
0
 10
4641.3926021355136982
 20
325.8598858234594786
 30
0.0
 40
0.0909005002015843
 50
299.6439069361892962
 51
347.8974631185354838
  0
ARC
  5
21748
  8
0
 10
4597.3910729187200559
 20
321.9289314552128758
 30
0.0
 40
47.8445171483622715
 50
355.6574197417381242
 51
3.9073119586101619
  0
ARC
  5
21749
  8
0
 10
4632.6297456094407607
 20
319.2529846391560113
 30
0.0
 40
12.50438777160279
 50
323.5278448591183746
 51
355.6574197417381242
  0
ARC
  5
2174A
  8
0
 10
4637.9936170397331807
 20
315.4357794592897903
 30
0.0
 40
5.923176602671969
 50
272.3777552100524986
 51
322.3779449390111722
  0
ARC
  5
2174B
  8
0
 10
4644.7607059172078152
 20
325.1958640901049762
 30
0.0
 40
0.3637302707908756
 50
358.9260871945136273
 51
72.9641072471982142
  0
ARC
  5
2174C
  8
0
 10
4638.2703956053310321
 20
331.956938559612297
 30
0.0
 40
0.0189154250999789
 50
23.3042328522205295
 51
85.7055042566897072
  0
LINE
  5
2174D
  8
0
 10
4638.2877678562554138
 20
331.9644217544167759
 30
0.0
 11
4638.3089049509599135
 21
331.8295325915855756
 31
0.0
  0
ARC
  5
2174E
  8
0
 10
4634.5511786267661591
 20
331.3088884640714014
 30
0.0
 40
3.793623259505948
 50
3.2921561011675111
 51
7.8882791236085321
  0
ARC
  5
2174F
  8
0
 10
4634.4623533539088385
 20
331.3037790317408167
 30
0.0
 40
3.8825953641056898
 50
0.0368149086424966
 51
3.2921561011675111
  0
ARC
  5
21750
  8
0
 10
4634.7256603540736251
 20
331.3039482174045816
 30
0.0
 40
3.619288309586524
 50
358.6103534727982947
 51
0.0368149086424966
  0
ARC
  5
21751
  8
0
 10
4634.4975498907524525
 20
331.3094818725488153
 30
0.0
 40
3.847465882576742
 50
356.6671095801031015
 51
358.6103534727982947
  0
ARC
  5
21752
  8
0
 10
4634.4714966728652144
 20
331.3109990976097947
 30
0.0
 40
3.8735632413361691
 50
352.2192957269165277
 51
356.6671095801031015
  0
ARC
  5
21753
  8
0
 10
4634.696496399607895
 20
331.2802551612392108
 30
0.0
 40
3.6464728041569852
 50
350.1553051624704835
 51
352.2192957269165277
  0
ARC
  5
21754
  8
0
 10
4638.2703956053310321
 20
330.6556089599121719
 30
0.0
 40
0.0189154251000047
 50
318.1543218591770028
 51
3.5737993838560569
  0
ARC
  5
21755
  8
0
 10
4638.2408776545626097
 20
331.3033472712033927
 30
0.0
 40
0.6661869541752388
 50
277.3954196549311177
 51
0.2516950811222374
  0
ARC
  5
21756
  8
0
 10
4638.258226244249272
 20
331.3164194892316914
 30
0.0
 40
0.6489112556863863
 50
359.1041438055124786
 51
20.5012605021012888
  0
ARC
  5
21757
  8
0
 10
4638.2232687546938905
 20
331.2937169043835866
 30
0.0
 40
0.6896647843302822
 50
21.2507769980971801
 51
56.0942636321624732
  0
ARC
  5
21758
  8
0
 10
4638.2342269124874292
 20
331.2858210712366827
 30
0.0
 40
0.6902372313996761
 50
57.2148970730907109
 51
82.3069219349295764
  0
ARC
  5
21759
  8
0
 10
4638.3244703773043511
 20
331.9481532558530716
 30
0.0
 40
0.0217993767405948
 50
84.3236570939123879
 51
149.8482816336907035
  0
ARC
  5
2175A
  8
0
 10
4638.324544506215716
 20
331.9478277895503879
 30
0.0
 40
0.0220283084006649
 50
149.2131135263811075
 51
176.7238173653410911
  0
ARC
  5
2175B
  8
0
 10
4634.5770736800459417
 20
331.3140400680650828
 30
0.0
 40
3.779216110012201
 50
7.7850078544018286
 51
9.6736822849474926
  0
ARC
  5
2175C
  8
0
 10
4634.5721058304170583
 20
331.3110655263697026
 30
0.0
 40
3.7845417763463862
 50
5.6016013348369098
 51
7.8194379270803003
  0
ARC
  5
2175D
  8
0
 10
4638.32444913891959
 20
330.6643527352396177
 30
0.0
 40
0.0217601675524177
 50
210.0852125973958948
 51
275.7427823361041987
  0
ARC
  5
2175E
  8
0
 10
4638.3256872033498439
 20
330.6650699892485932
 30
0.0
 40
0.0231909913863739
 50
183.9912916462342025
 51
210.0852125973958948
  0
ARC
  5
2175F
  8
0
 10
4634.5286847777479124
 20
331.3062737184501998
 30
0.0
 40
3.8282231085182139
 50
350.3333570707704894
 51
351.2292304973148021
  0
ARC
  5
21760
  8
0
 10
4634.5286844614793154
 20
331.3062737672461822
 30
0.0
 40
3.8282234285304169
 50
351.2292304973148021
 51
353.8033680699543879
  0
ARC
  5
21761
  8
0
 10
4634.6169903600539328
 20
331.2966859289568902
 30
0.0
 40
3.7393985538257808
 50
353.8033680699543879
 51
356.7670704551717904
  0
ARC
  5
21762
  8
0
 10
4634.4677140017956845
 20
331.3051178374691972
 30
0.0
 40
3.8889128615562991
 50
356.7670704551717904
 51
1.1977829187676821
  0
ARC
  5
21763
  8
0
 10
4634.4307220832333769
 20
331.3043443992792731
 30
0.0
 40
3.9259128648756381
 50
1.1977829187676821
 51
5.4978136807698759
  0
ARC
  5
21764
  8
0
 10
4638.4072920762309877
 20
331.9331748324121918
 30
0.0
 40
0.0333271254999979
 50
21.1043227536092992
 51
128.9605533432826974
  0
ARC
  5
21765
  8
0
 10
4638.6982113437043154
 20
331.7651177278222008
 30
0.0
 40
0.0334020686108503
 50
351.4145211078185866
 51
98.0587619335354361
  0
ARC
  5
21766
  8
0
 10
4638.8661035161931068
 20
331.4741541665745785
 30
0.0
 40
0.0334602438900678
 50
322.066777230777177
 51
67.0688467867024229
  0
ARC
  5
21767
  8
0
 10
4638.8662155127312872
 20
331.1382961236121787
 30
0.0
 40
0.0333271255000006
 50
289.6951211977277012
 51
40.7340414196029883
  0
ARC
  5
21768
  8
0
 10
4638.6982378766306283
 20
330.8473503232121971
 30
0.0
 40
0.0333271255000017
 50
261.5470844041307146
 51
8.6239544740974345
  0
ARC
  5
21769
  8
0
 10
4638.4072920762309877
 20
330.6793726870121759
 30
0.0
 40
0.0333271255000005
 50
231.5203601714306956
 51
338.3461088745692109
  0
ARC
  5
2176A
  8
0
 10
4638.182869154027685
 20
331.9514469819583837
 30
0.0
 40
0.0343580575525442
 50
44.7820917360758983
 51
145.1235129621022963
  0
ARC
  5
2176B
  8
0
 10
4637.8317427695310471
 20
331.8095828568121988
 30
0.0
 40
0.0343579363999999
 50
78.8763927625647909
 51
179.1236072245937976
  0
ARC
  5
2176C
  8
0
 10
4637.6199753363298441
 20
331.495624726012295
 30
0.0
 40
0.0343579363999995
 50
112.4794509267040041
 51
214.4932372956374138
  0
ARC
  5
2176D
  8
0
 10
4637.6199753363298441
 20
331.1169227935121739
 30
0.0
 40
0.0343579363999993
 50
146.2876239197123027
 51
247.4034123805743093
  0
ARC
  5
2176E
  8
0
 10
4637.8317427695310471
 20
330.8029646626122258
 30
0.0
 40
0.034357936399998
 50
180.8763927754060887
 51
281.1536562803182733
  0
ARC
  5
2176F
  8
0
 10
4638.1829007234437086
 20
330.6611550814404268
 30
0.0
 40
0.0344151557245544
 50
214.9209308406186949
 51
315.081381874737815
  0
LINE
  5
21770
  8
0
 10
4638.2072561920313092
 20
331.9756492235122209
 30
0.0
 11
4638.2072565832131659
 21
331.9747969004794186
 31
0.0
  0
ARC
  5
21771
  8
0
 10
4638.2393144400302845
 20
331.3062737597185219
 30
0.0
 40
0.6692913385937688
 50
89.7178862258607523
 51
92.7419586899919324
  0
ARC
  5
21772
  8
0
 10
4638.240274338778363
 20
331.3398364588907725
 30
0.0
 40
0.6367459206974279
 50
87.1610069519228574
 51
89.4288072958032956
  0
ARC
  5
21773
  8
0
 10
4638.2465468791142484
 20
331.9690079791154744
 30
0.0
 40
0.0075431341301135
 50
89.4288072958032956
 51
119.6933627450809041
  0
CIRCLE
  5
21774
  8
0
 10
4638.2393144400302845
 20
331.3062737597122123
 30
0.0
 40
0.905511810999992
  0
CIRCLE
  5
21775
  8
0
 10
4638.2426098929281579
 20
331.3062737597122123
 30
0.0
 40
0.7085509521066129
  0
ARC
  5
21776
  8
0
 10
4638.2703397404602583
 20
330.6556858515189106
 30
0.0
 40
0.0190083482896279
 50
270.543056861568175
 51
318.0940037427209859
  0
ARC
  5
21777
  8
0
 10
4638.2763531861337469
 20
330.0212500043480759
 30
0.0
 40
0.6154559972051334
 50
90.543056861568175
 51
92.7589580275881218
  0
ARC
  5
21778
  8
0
 10
4638.2463958322177859
 20
330.6428988633580275
 30
0.0
 40
0.0069142679602222
 50
238.7639013292022128
 51
272.7589580275881076
  0
ARC
  5
21779
  8
0
 10
4638.2395447686749321
 20
331.312925015041003
 30
0.0
 40
0.6759459997074185
 50
267.2632645960832178
 51
270.2768025292446055
  0
LINE
  5
2177A
  8
0
 10
4638.2072704541305939
 20
330.6377499539336782
 30
0.0
 11
4638.2072704541305939
 21
330.6368544812459049
 31
0.0
  0
ARC
  5
2177B
  8
0
 10
4638.2392923836960108
 20
331.3062527330781109
 30
0.0
 40
0.6701626511391997
 50
92.7399891378858428
 51
267.2612316001093973
  0
ARC
  5
2177C
  8
0
 10
4638.2393071792703267
 20
331.3062801069414149
 30
0.0
 40
0.6480667117919322
 50
277.6817973496471836
 51
82.318052519980597
  0
ARC
  5
2177D
  8
0
 10
4638.2393144400302845
 20
331.3062737597122123
 30
0.0
 40
0.6480594510000014
 50
87.6447007146313553
 51
272.3552992853686874
  0
ARC
  5
2177E
  8
0
 10
4599.453396232115665
 20
337.1963011524260878
 30
0.0
 40
39.2251641964129902
 50
352.3115847760374777
 51
352.3403184577567799
  0
ARC
  5
2177F
  8
0
 10
4638.1173391066231488
 20
331.7445182450290986
 30
0.0
 40
0.3075246955185785
 50
46.618413305012659
 51
47.1145255776624197
  0
LINE
  5
21780
  8
0
 10
4638.2667561389744151
 20
331.9734534235279853
 30
0.0
 11
4638.265947188941027
 21
331.953785727713921
 31
0.0
  0
LINE
  5
21781
  8
0
 10
4638.2667561080834275
 20
331.9734533893714001
 30
0.0
 11
4638.2690032441178118
 21
331.9759381226749042
 31
0.0
  0
ARC
  5
21782
  8
0
 10
4599.0196513571518153
 20
325.3577463503207241
 30
0.0
 40
39.6628362946128235
 50
7.6599194631616934
 51
7.6883542443095001
  0
ARC
  5
21783
  8
0
 10
4641.5148325608734012
 20
327.2638383920681804
 30
0.0
 40
4.6455709201977617
 50
133.3042550869645027
 51
133.3369477060799966
  0
LINE
  5
21784
  8
0
 10
4638.2659471889310225
 20
330.6587617917122088
 30
0.0
 11
4638.2668573766768532
 21
330.6366327422426252
 31
0.0
  0
LINE
  5
21785
  8
0
 10
4638.3214579577315817
 20
331.8259587991121862
 30
0.0
 11
4638.3214699907239265
 21
331.8259587991121862
 31
0.0
  0
LINE
  5
21786
  8
0
 10
4638.3057127577503707
 20
331.8499039943621938
 30
0.0
 11
4638.318106192423329
 21
331.8499039943621938
 31
0.0
  0
LINE
  5
21787
  8
0
 10
4638.3146947604518573
 20
331.8732028936123015
 30
0.0
 11
4638.3020618266473321
 21
331.8732028936123015
 31
0.0
  0
LINE
  5
21788
  8
0
 10
4638.3385412238312711
 20
331.5267462007121821
 30
0.0
 11
4638.3503303878105726
 21
331.5267462007121821
 31
0.0
  0
LINE
  5
21789
  8
0
 10
4638.3355277721520906
 20
331.5739902952122975
 30
0.0
 11
4638.3473638735158602
 21
331.5739902952122975
 31
0.0
  0
LINE
  5
2178A
  8
0
 10
4638.3371290919449166
 20
331.5500450735121944
 30
0.0
 11
4638.3489388972020606
 21
331.5500450735121944
 31
0.0
  0
LINE
  5
2178B
  8
0
 10
4638.3504377248300443
 20
331.0858013188121731
 30
0.0
 11
4638.3385081992310006
 21
331.0858013188121731
 31
0.0
  0
LINE
  5
2178C
  8
0
 10
4638.3474690312432358
 20
331.0385572243122283
 30
0.0
 11
4638.3354671192191745
 21
331.0385572243122283
 31
0.0
  0
LINE
  5
2178D
  8
0
 10
4638.3490487251719969
 20
331.0625024459621955
 30
0.0
 11
4638.3370809234984335
 21
331.0625024459621955
 31
0.0
  0
LINE
  5
2178E
  8
0
 10
4638.3146963430581309
 20
330.7393446259122243
 30
0.0
 11
4638.3026272491788404
 21
330.7393446259122243
 31
0.0
  0
LINE
  5
2178F
  8
0
 10
4638.318111961588329
 20
330.7626435251121961
 30
0.0
 11
4638.3060451394931079
 21
330.7626435251121961
 31
0.0
  0
LINE
  5
21790
  8
0
 10
4638.321469990723017
 20
330.7865887204122259
 30
0.0
 11
4638.3093979145469348
 21
330.7865887204122259
 31
0.0
  0
LINE
  5
21791
  8
0
 10
4638.2927089742606768
 20
330.6769152658541202
 30
0.0
 11
4638.3050211632053106
 21
330.6781211315151836
 31
0.0
  0
LINE
  5
21792
  8
0
 10
4638.3056321884478166
 20
330.6534244569303951
 30
0.0
 11
4638.2889396337659491
 21
330.6518790381855979
 31
0.0
  0
LINE
  5
21793
  8
0
 10
4638.290672790665667
 20
330.6649016194289743
 30
0.0
 11
4638.3029912901383796
 21
330.6660374190050788
 31
0.0
  0
LINE
  5
21794
  8
0
 10
4638.3214699907239265
 20
331.8259587991121862
 30
0.0
 11
4638.3093979145342018
 21
331.8259587991121862
 31
0.0
  0
ARC
  5
21795
  8
0
 10
4634.52868452454004
 20
331.3062737597122123
 30
0.0
 40
3.7929413350911361
 50
350.1706069258232787
 51
9.8293930741766395
  0
ARC
  5
21796
  8
0
 10
4634.5285511374986527
 20
331.3062849691373799
 30
0.0
 40
3.8513137341477419
 50
350.4003489121648727
 51
9.5995009387620982
  0
CIRCLE
  5
21797
  8
0
 10
4638.2393144400302845
 20
331.3062737597185219
 30
0.0
 40
0.944881889800154
  0
LINE
  5
21798
  8
0
 10
4645.81755764119589
 20
333.8725599953280039
 30
0.0
 11
4645.81755764119589
 21
329.0684065796294249
 31
0.0
  0
ARC
  5
21799
  8
0
 10
4645.1275576411953807
 20
333.8725599953280039
 30
0.0
 40
0.6899999999999999
 50
0.0
 51
90.0
  0
ARC
  5
2179A
  8
0
 10
4644.7375576411950533
 20
329.0684065796294249
 30
0.0
 40
1.0800000000000001
 50
270.0
 51
0.0
  0
ENDSEC
  0
EOF
