  0
SECTION
  2
HEADER
  9
$ACADVER
  1
AC1009
  9
$INSBASE
 10
369.1224498788816959
 20
9.6576506510533378
 30
0.0
  9
$EXTMIN
 10
340.2971867495513152
 20
-13.7459725236438501
 30
0.0
  9
$EXTMAX
 10
384.9440748387896747
 20
32.2014695891672318
 30
0.0
  9
$LIMMIN
 10
0.0
 20
0.0
  9
$LIMMAX
 10
22.0
 20
17.0
  9
$ORTHOMODE
 70
     0
  9
$REGENMODE
 70
     1
  9
$FILLMODE
 70
     1
  9
$QTEXTMODE
 70
     0
  9
$MIRRTEXT
 70
     0
  9
$DRAGMODE
 70
     2
  9
$LTSCALE
 40
1.2099999999999991
  9
$OSMODE
 70
  4095
  9
$ATTMODE
 70
     1
  9
$TEXTSIZE
 40
0.2
  9
$TRACEWID
 40
0.05
  9
$TEXTSTYLE
  7
STANDARD
  9
$CLAYER
  8
0
  9
$CELTYPE
  6
BYLAYER
  9
$CECOLOR
 62
   256
  9
$DIMSCALE
 40
1.0
  9
$DIMASZ
 40
0.1875
  9
$DIMEXO
 40
0.0625
  9
$DIMDLI
 40
0.38
  9
$DIMRND
 40
0.0
  9
$DIMDLE
 40
0.0
  9
$DIMEXE
 40
0.125
  9
$DIMTP
 40
1.5
  9
$DIMTM
 40
1.5
  9
$DIMTXT
 40
1.5
  9
$DIMCEN
 40
0.09
  9
$DIMTSZ
 40
0.0
  9
$DIMTOL
 70
     0
  9
$DIMLIM
 70
     0
  9
$DIMTIH
 70
     1
  9
$DIMTOH
 70
     1
  9
$DIMSE1
 70
     0
  9
$DIMSE2
 70
     0
  9
$DIMTAD
 70
     0
  9
$DIMZIN
 70
     4
  9
$DIMBLK
  1

  9
$DIMASO
 70
     1
  9
$DIMSHO
 70
     1
  9
$DIMPOST
  1

  9
$DIMAPOST
  1

  9
$DIMALT
 70
     0
  9
$DIMALTD
 70
     2
  9
$DIMALTF
 40
25.3999999999999986
  9
$DIMLFAC
 40
1.0
  9
$DIMTOFL
 70
     0
  9
$DIMTVP
 40
0.0
  9
$DIMTIX
 70
     0
  9
$DIMSOXD
 70
     0
  9
$DIMSAH
 70
     0
  9
$DIMBLK1
  1

  9
$DIMBLK2
  1

  9
$DIMSTYLE
  2
STANDARD
  9
$DIMCLRD
 70
     0
  9
$DIMCLRE
 70
     0
  9
$DIMCLRT
 70
     0
  9
$DIMTFAC
 40
1.0
  9
$DIMGAP
 40
0.09
  9
$LUNITS
 70
     2
  9
$LUPREC
 70
     4
  9
$SKETCHINC
 40
0.1
  9
$FILLETRAD
 40
0.0
  9
$AUNITS
 70
     0
  9
$AUPREC
 70
     0
  9
$MENU
  1
.
  9
$ELEVATION
 40
0.0
  9
$PELEVATION
 40
0.0
  9
$THICKNESS
 40
0.0
  9
$LIMCHECK
 70
     0
  9
$BLIPMODE
 70
     0
  9
$CHAMFERA
 40
0.0
  9
$CHAMFERB
 40
0.0
  9
$SKPOLY
 70
     0
  9
$TDCREATE
 40
2457827.4934837957844138
  9
$TDUPDATE
 40
2459415.9560416671447456
  9
$TDINDWG
 40
0.3593422454
  9
$TDUSRTIMER
 40
0.3593422454
  9
$USRTIMER
 70
     1
  9
$ANGBASE
 50
0.0
  9
$ANGDIR
 70
     0
  9
$PDMODE
 70
     0
  9
$PDSIZE
 40
0.3125
  9
$PLINEWID
 40
0.0
  9
$COORDS
 70
     1
  9
$SPLFRAME
 70
     0
  9
$SPLINETYPE
 70
     6
  9
$SPLINESEGS
 70
     8
  9
$ATTDIA
 70
     1
  9
$ATTREQ
 70
     1
  9
$HANDLING
 70
     1
  9
$HANDSEED
  5
5AD4
  9
$SURFTAB1
 70
     6
  9
$SURFTAB2
 70
     6
  9
$SURFTYPE
 70
     6
  9
$SURFU
 70
     6
  9
$SURFV
 70
     6
  9
$UCSNAME
  2

  9
$UCSORG
 10
0.0
 20
0.0
 30
0.0
  9
$UCSXDIR
 10
1.0
 20
0.0
 30
0.0
  9
$UCSYDIR
 10
0.0
 20
1.0
 30
0.0
  9
$PUCSNAME
  2

  9
$PUCSORG
 10
0.0
 20
0.0
 30
0.0
  9
$PUCSXDIR
 10
1.0
 20
0.0
 30
0.0
  9
$PUCSYDIR
 10
0.0
 20
1.0
 30
0.0
  9
$USERI1
 70
     0
  9
$USERI2
 70
     0
  9
$USERI3
 70
     0
  9
$USERI4
 70
     0
  9
$USERI5
 70
     0
  9
$USERR1
 40
0.0
  9
$USERR2
 40
0.0
  9
$USERR3
 40
0.0
  9
$USERR4
 40
0.0
  9
$USERR5
 40
0.0
  9
$WORLDVIEW
 70
     1
  9
$SHADEDGE
 70
     3
  9
$SHADEDIF
 70
    70
  9
$TILEMODE
 70
     1
  9
$MAXACTVP
 70
    48
  9
$PLIMCHECK
 70
     0
  9
$PEXTMIN
 10
1.0000000000000000E+20
 20
1.0000000000000000E+20
 30
1.0000000000000000E+20
  9
$PEXTMAX
 10
-1.0000000000000000E+20
 20
-1.0000000000000000E+20
 30
-1.0000000000000000E+20
  9
$PLIMMIN
 10
0.0
 20
0.0
  9
$PLIMMAX
 10
12.0
 20
9.0
  9
$UNITMODE
 70
     0
  9
$VISRETAIN
 70
     1
  9
$PLINEGEN
 70
     0
  9
$PSLTSCALE
 70
     1
  0
ENDSEC
  0
SECTION
  2
TABLES
  0
TABLE
  2
VPORT
 70
     1
  0
VPORT
  2
*ACTIVE
 70
     0
 10
0.0
 20
0.0
 11
1.0
 21
1.0
 12
69.0154613643042012
 22
-11.9672557028165691
 13
0.0
 23
0.0
 14
1.0
 24
1.0
 15
0.0
 25
0.0
 16
-0.0000000000000568
 26
0.0
 36
161.3760680385011881
 17
299.3826613025150891
 27
23.0899863857244405
 37
0.0
 40
50.2377731151716773
 41
2.0416666666666661
 42
50.0
 43
0.0
 44
0.0
 50
0.0
 51
0.0
 71
     0
 72
   100
 73
     1
 74
     1
 75
     0
 76
     0
 77
     0
 78
     0
  0
ENDTAB
  0
TABLE
  2
LTYPE
 70
     2
  0
LTYPE
  2
CONTINUOUS
 70
     0
  3
Solid line
 72
    65
 73
     0
 40
0.0
  0
LTYPE
  2
PHANTOM2
 70
     0
  3
___ _ _ ___ _ _ ___ _ _ ___ _ _
 72
    65
 73
     6
 40
1.25
 49
0.625
 49
-0.125
 49
0.125
 49
-0.125
 49
0.125
 49
-0.125
  0
ENDTAB
  0
TABLE
  2
LAYER
 70
     2
  0
LAYER
  2
0
 70
     0
 62
     7
  6
CONTINUOUS
  0
LAYER
  2
DEFPOINTS
 70
     0
 62
     7
  6
CONTINUOUS
  0
ENDTAB
  0
TABLE
  2
STYLE
 70
     1
  0
STYLE
  2
STANDARD
 70
     0
 40
0.0
 41
0.8
 50
0.0
 71
     0
 42
0.2
  3
txt
  4

  0
ENDTAB
  0
TABLE
  2
VIEW
 70
     0
  0
ENDTAB
  0
TABLE
  2
UCS
 70
     0
  0
ENDTAB
  0
TABLE
  2
APPID
 70
     8
  0
APPID
  2
ACAD
 70
     0
  0
APPID
  2
ACAD_MLEADERVER
 70
     0
  0
APPID
  2
ACAD_EXEMPT_FROM_CAD_STANDARDS
 70
     0
  0
APPID
  2
ACAD_NAV_VCDISPLAY
 70
     0
  0
APPID
  2
ACADANNOMONITORALERTICONDI
 70
     0
  0
APPID
  2
ACAD_DSTYLE_DIMJAG
 70
     0
  0
APPID
  2
ACAD_DSTYLE_DIMTALN
 70
     0
  0
APPID
  2
ACDBATTR
 70
     0
  0
ENDTAB
  0
TABLE
  2
DIMSTYLE
 70
     1
  0
DIMSTYLE
  2
STANDARD
 70
     0
  3

  4

  5

  6

  7

 40
1.0
 41
0.1875
 42
0.0625
 43
0.38
 44
0.125
 45
0.0
 46
0.0
 47
1.5
 48
1.5
140
1.5
141
0.09
142
0.0
143
25.3999999999999986
144
1.0
145
0.0
146
1.0
147
0.09
 71
     0
 72
     0
 73
     1
 74
     1
 75
     0
 76
     0
 77
     0
 78
     4
170
     0
171
     2
172
     0
173
     0
174
     0
175
     0
176
     0
177
     0
178
     0
  0
ENDTAB
  0
ENDSEC
  0
SECTION
  2
BLOCKS
  0
BLOCK
  8
0
  2
$MODEL_SPACE
 70
     0
 10
0.0
 20
0.0
 30
0.0
  3
$MODEL_SPACE
  1

  0
ENDBLK
  5
21
  8
0
  0
BLOCK
 67
     1
  8
0
  2
$PAPER_SPACE
 70
     0
 10
0.0
 20
0.0
 30
0.0
  3
$PAPER_SPACE
  1

  0
ENDBLK
  5
1D
 67
     1
  8
0
  0
BLOCK
  8
0
  2
_FILLED
 70
     0
 10
0.0
 20
0.0
 30
0.0
  3
_FILLED
  1

  0
SOLID
  5
4F44
  8
0
  6
BYBLOCK
 62
     0
 10
0.0
 20
0.0
 30
0.0
 11
-1.0
 21
0.1666666667
 31
0.0
 12
-1.0
 22
-0.1666666667
 32
0.0
 13
-1.0
 23
-0.1666666667
 33
0.0
  0
ENDBLK
  5
4F45
  8
0
  6
BYBLOCK
 62
     0
  0
ENDSEC
  0
SECTION
  2
ENTITIES
  0
ATTDEF
  5
4EF9
  8
DEFPOINTS
 10
369.1247017029191966
 20
9.6625258828015497
 30
0.0
 40
0.001
  1
K-24256K-HC
  3

  2
MODELNUMBER
 70
     0
1001
ACDBATTR
1070
     0
1070
     1
  0
ATTDEF
  5
4EFA
  8
DEFPOINTS
 10
369.1247017029191966
 20
9.6608592161348703
 30
0.0
 40
0.001
  1
VEIL
  3

  2
TRADENAME
 70
     0
1001
ACDBATTR
1070
     0
1070
     1
  0
ATTDEF
  5
4EFB
  8
DEFPOINTS
 10
369.1247017029191966
 20
9.6591925494681892
 30
0.0
 40
0.001
  1
TOILET
  3

  2
PRODUCT
 70
     0
1001
ACDBATTR
1070
     0
1070
     1
  0
ARC
  5
59B5
  8
0
 10
364.5820191867143194
 20
5.7430457123798737
 30
0.0
 40
0.1488475688737567
 50
92.5446283001090535
 51
138.7638939221851047
  0
ARC
  5
59B6
  8
0
 10
371.6848489894156842
 20
0.8091080313925758
 30
0.0
 40
8.8119345259448973
 50
146.3792801629076905
 51
151.2459172177501898
  0
ARC
  5
59B7
  8
0
 10
365.4895268352375979
 20
4.8945031308805218
 30
0.0
 40
1.3911938206296159
 50
137.1200792354950124
 51
145.2132536491072017
  0
ARC
  5
59B8
  8
0
 10
375.895599577618782
 20
-1.610124543282879
 30
0.0
 40
13.6675752378906896
 50
150.8462555065495962
 51
154.9838343790588908
  0
ARC
  5
59B9
  8
0
 10
377.3502331294911869
 20
-2.2230967971940032
 30
0.0
 40
15.24507418237976
 50
155.2080493136732002
 51
155.607318878066593
  0
ARC
  5
59BA
  8
0
 10
376.8585445029524976
 20
-2.0728437131440991
 30
0.0
 40
14.7353715043444105
 50
155.3498314220796033
 51
156.5569854369163068
  0
ARC
  5
59BB
  8
0
 10
379.687136368375775
 20
-3.0756204393376581
 30
0.0
 40
17.7306109474620506
 50
157.2204769701008047
 51
173.7857187908730054
  0
ARC
  5
59BC
  8
0
 10
381.799686697124514
 20
-3.4313431149259399
 30
0.0
 40
19.8696468328644187
 50
173.4253985535933964
 51
179.1245367781581024
  0
ARC
  5
59BD
  8
0
 10
374.2259248045343725
 20
-3.206107312150102
 30
0.0
 40
12.2938152061550507
 50
179.6348214453010996
 51
195.2563993072112112
  0
ARC
  5
59BE
  8
0
 10
376.4191296034617267
 20
-2.7587220737270028
 30
0.0
 40
14.5281800433673194
 50
194.6825745916773087
 51
200.7596969136037899
  0
ARC
  5
59BF
  8
0
 10
376.7723979587585177
 20
-2.5530494691123522
 30
0.0
 40
14.9315638293631903
 50
201.017189582426596
 51
214.9878666174564898
  0
ARC
  5
59C0
  8
0
 10
369.7178573163653255
 20
-7.711442593809859
 30
0.0
 40
6.1967729711807911
 50
213.3137176143833074
 51
245.6600258611030085
  0
ARC
  5
59C1
  8
0
 10
369.1113640865618777
 20
-8.6710158210966526
 30
0.0
 40
5.074956329360627
 50
247.4339244213043116
 51
270.2057408182915879
  0
ARC
  5
59C2
  8
0
 10
364.7893775345565928
 20
5.8069603110642731
 30
0.0
 40
0.0850482237368082
 50
57.0541277642420113
 51
85.5012842244403402
  0
LINE
  5
59C3
  8
0
 10
364.5754107203068202
 20
5.8917465090530348
 30
0.0
 11
364.7960484408927186
 21
5.8917465090533341
 31
0.0
  0
LINE
  5
59C4
  8
0
 10
364.843238919709222
 20
5.6447295823845911
 30
0.0
 11
364.8356307128183857
 21
5.8783314807440581
 31
0.0
  0
LINE
  5
59C5
  8
0
 10
361.9522863777102089
 20
9.6576506510533378
 30
0.0
 11
376.3069950697101831
 21
9.6576506510533378
 31
0.0
  0
ARC
  5
59C6
  8
0
 10
495.2058104140975274
 20
3.0505555138538121
 30
0.0
 40
133.4172229296804062
 50
177.1614341792758864
 51
182.6594912924925893
  0
ARC
  5
59C7
  8
0
 10
364.9519056281171174
 20
5.7937047995232334
 30
0.0
 40
0.0789990505450286
 50
90.1094792618065981
 51
171.0970459054927062
  0
ARC
  5
59C8
  8
0
 10
365.0021703773879835
 20
5.7870527315210358
 30
0.0
 40
0.1296933050452207
 50
171.6303321162124007
 51
178.1392119317549998
  0
ARC
  5
59C9
  8
0
 10
367.398589208473993
 20
5.7105811122952801
 30
0.0
 40
2.5273319401080712
 50
178.1705703654533863
 51
179.659886511620897
  0
ARC
  5
59CA
  8
0
 10
381.4492536364022044
 20
5.5563541398962206
 30
0.0
 40
16.5788155726718998
 50
179.4151393031887949
 51
179.7647798837143114
  0
ARC
  5
59CB
  8
0
 10
364.8583883613824241
 20
5.6466019238984302
 30
0.0
 40
0.0152647058850265
 50
187.0455404402416946
 51
240.642973387882904
  0
ARC
  5
59CC
  8
0
 10
364.8915592395823069
 20
5.6971204003789211
 30
0.0
 40
0.075671296070883
 50
237.5033707806030066
 51
253.9025951789604107
  0
ARC
  5
59CD
  8
0
 10
364.9300851214774184
 20
5.808257900569842
 30
0.0
 40
0.1932328955342633
 50
252.0638704240487016
 51
258.1049310186356252
  0
ARC
  5
59CE
  8
0
 10
364.9639731561949816
 20
6.0728939102200314
 30
0.0
 40
0.4602087638165111
 50
263.2479719868230177
 51
269.3118761939194883
  0
ARC
  5
59CF
  8
0
 10
364.9404521630524982
 20
5.8577350231300613
 30
0.0
 40
0.2437844426319483
 50
258.1175744591012062
 51
262.7922698016550953
  0
ARC
  5
59D0
  8
0
 10
366.5040210352344161
 20
57.3415077991699533
 30
0.0
 40
51.7518739848648508
 50
268.2886013737864914
 51
268.7334817301568819
  0
ARC
  5
59D1
  8
0
 10
365.4492613009251727
 20
9.1344921319151808
 30
0.0
 40
3.533339188264228
 50
268.5547335572452994
 51
269.7608495849059977
  0
ARC
  5
59D2
  8
0
 10
365.2942835402449191
 20
5.8133743055543121
 30
0.0
 40
0.0593294849305126
 50
4.0958741575044844
 51
89.9032238427322312
  0
ARC
  5
59D3
  8
0
 10
364.5230460302789197
 20
5.7241019247720137
 30
0.0
 40
0.8356637879121157
 50
1.256443431981171
 51
6.4248019793431581
  0
ARC
  5
59D4
  8
0
 10
354.8593444756000963
 20
5.549888094093113
 30
0.0
 40
10.5009296884139705
 50
0.2858484887732068
 51
1.050594174583837
  0
LINE
  5
59D5
  8
0
 10
364.9517546789102198
 20
5.8727037058533389
 30
0.0
 11
365.2943837514101801
 21
5.8727037058533389
 31
0.0
  0
LINE
  5
59D6
  8
0
 10
364.8580414056102086
 20
5.6292771998731288
 30
0.0
 11
364.8580414056102086
 21
5.6538431119533348
 31
0.0
  0
LINE
  5
59D7
  8
0
 10
364.8580414056102086
 20
5.6538431119533348
 30
0.0
 11
364.8429421001245032
 21
5.6538431119533348
 31
0.0
  0
LINE
  5
59D8
  8
0
 10
365.3585088974368773
 20
5.7424257897533471
 30
0.0
 11
365.3678839253101955
 21
5.7424257897533471
 31
0.0
  0
LINE
  5
59D9
  8
0
 10
365.3678839253101955
 20
5.7424257897533471
 30
0.0
 11
365.3678839253101955
 21
5.6020901811086574
 31
0.0
  0
ARC
  5
59DA
  8
0
 10
365.4286004034639177
 20
5.883656813644321
 30
0.0
 40
0.0464734272623764
 50
98.3699836807835339
 51
172.0760366416093916
  0
ARC
  5
59DB
  8
0
 10
365.5306030130442991
 20
5.9197194002408864
 30
0.0
 40
0.0102454042102902
 50
6.2662507098882232
 51
75.4281564553318731
  0
LINE
  5
59DC
  8
0
 10
365.4218355108757237
 20
5.9296352397785546
 30
0.0
 11
365.5331806929498839
 21
5.9296352397785546
 31
0.0
  0
LINE
  5
59DD
  8
0
 10
365.3825707095102189
 20
5.8900635847533351
 30
0.0
 11
365.3825707095102189
 21
5.6932131913533359
 31
0.0
  0
LINE
  5
59DE
  8
0
 10
365.3678839253101955
 20
5.6932131913533359
 30
0.0
 11
365.3924656328101719
 21
5.6932131913533359
 31
0.0
  0
ARC
  5
59DF
  8
0
 10
364.8248104812424231
 20
5.679134805981831
 30
0.0
 40
0.5678297033760576
 50
1.4206983587971349
 51
2.3271988023267451
  0
ARC
  5
59E0
  8
0
 10
365.7056486038911771
 20
5.6869509203425963
 30
0.0
 40
0.3151726241778217
 50
176.0678009367659058
 51
178.8614959411528105
  0
ARC
  5
59E1
  8
0
 10
365.2355961463222229
 20
5.69639764046154
 30
0.0
 40
0.1566828949199491
 50
2.1194238012245652
 51
4.4724771327053032
  0
ARC
  5
59E2
  8
0
 10
365.3794617388657002
 20
5.7075726144250529
 30
0.0
 40
0.0123842035456428
 50
4.8320663767073482
 51
11.5166232254874394
  0
ARC
  5
59E3
  8
0
 10
365.3991239422509238
 20
5.708282997918757
 30
0.0
 40
0.0079110128611537
 50
167.922683226256396
 51
177.9630636916766093
  0
ARC
  5
59E4
  8
0
 10
365.3926510214698169
 20
5.7095351420235536
 30
0.0
 40
0.0013257550151656
 50
153.6675301436011125
 51
162.2993098173633086
  0
ARC
  5
59E5
  8
0
 10
365.3913387709990843
 20
5.709962718413208
 30
0.0
 40
0.0002706937975014
 50
17.7288907576999399
 51
44.2100010011781066
  0
ARC
  5
59E6
  8
0
 10
365.3915435660114213
 20
5.7100815881236988
 30
0.0
 40
0.0000908347367106
 50
119.7562042281238064
 51
152.721370739173409
  0
ARC
  5
59E7
  8
0
 10
365.3915093518336903
 20
5.7101319053454338
 30
0.0
 40
0.0000305397332102
 50
39.84012907688507
 51
110.8464839375557034
  0
LINE
  5
59E8
  8
0
 10
365.3933242737102205
 20
5.6876303104533363
 30
0.0
 11
365.3942483440823139
 21
5.6015814164138709
 31
0.0
  0
LINE
  5
59E9
  8
0
 10
365.3933242737102205
 20
5.6876303104533363
 30
0.0
 11
365.393042086810226
 21
5.6658665385533382
 31
0.0
  0
LINE
  5
59EA
  8
0
 10
365.393042086810226
 20
5.6658665385533382
 30
0.0
 11
365.3924656328101719
 21
5.6932131913533359
 31
0.0
  0
LINE
  5
59EB
  8
0
 10
365.3930420867101816
 20
5.6658659702533347
 30
0.0
 11
365.3935635929852879
 21
5.665345039150572
 31
0.0
  0
LINE
  5
59EC
  8
0
 10
365.5331806929498839
 20
5.9296352397785546
 30
0.0
 11
365.5331808084384875
 21
5.9208375740992087
 31
0.0
  0
LINE
  5
59ED
  8
0
 10
365.5331808084384875
 20
5.9208375740992087
 30
0.0
 11
372.7261516418101905
 21
5.9208375740992087
 31
0.0
  0
LINE
  5
59EE
  8
0
 10
366.5045608487549202
 20
5.6011841124874797
 30
0.0
 11
366.5056926573074065
 21
5.8450441341533326
 31
0.0
  0
LINE
  5
59EF
  8
0
 10
366.5065697836558911
 20
5.9076945707533346
 30
0.0
 11
366.5056926573101919
 21
5.845044134353337
 31
0.0
  0
ARC
  5
59F0
  8
0
 10
366.9088235643603184
 20
5.9028095061193531
 30
0.0
 40
0.4022834422984355
 50
178.6045288106593034
 51
179.3042207655441871
  0
ARC
  5
59F1
  8
0
 10
366.5405200363392169
 20
5.9120810146930287
 30
0.0
 40
0.0338646795828391
 50
175.6064231736054921
 51
179.1110988918742066
  0
LINE
  5
59F2
  8
0
 10
366.5077123533101826
 20
5.9194631614533364
 30
0.0
 11
366.5067548733139802
 21
5.9146752947725707
 31
0.0
  0
LINE
  5
59F3
  8
0
 10
366.5077123533101826
 20
5.9194631614533364
 30
0.0
 11
371.7516775445101871
 21
5.9194631614533364
 31
0.0
  0
LINE
  5
59F4
  8
0
 10
366.5076448385102026
 20
5.9191255545449124
 30
0.0
 11
366.5076448385102026
 21
5.8561238330533376
 31
0.0
  0
LINE
  5
59F5
  8
0
 10
366.5076448385102026
 20
5.8561238330533376
 30
0.0
 11
366.5067587108389944
 21
5.8516927628888729
 31
0.0
  0
LINE
  5
59F6
  8
0
 10
366.5174902245101975
 20
5.9184323505533376
 30
0.0
 11
366.517490340147674
 21
5.6011841172003036
 31
0.0
  0
LINE
  5
59F7
  8
0
 10
366.517490224336882
 20
5.7839197061533341
 30
0.0
 11
366.5057458041101768
 21
5.7839197061533341
 31
0.0
  0
LINE
  5
59F8
  8
0
 10
366.5057458041101768
 20
5.7839197061533341
 30
0.0
 11
366.5066229778101956
 21
5.8465735240533334
 31
0.0
  0
LINE
  5
59F9
  8
0
 10
366.5066229778101956
 20
5.8465735240533334
 30
0.0
 11
366.5067587108289899
 21
5.8516927628384101
 31
0.0
  0
LINE
  5
59FA
  8
0
 10
366.5076448385102026
 20
5.8561238330533376
 30
0.0
 11
366.5174902244298778
 21
5.8561238330533376
 31
0.0
  0
LINE
  5
59FB
  8
0
 10
366.5174902245101975
 20
5.9184323505533376
 30
0.0
 11
371.7418996733101721
 21
5.9184323505533376
 31
0.0
  0
ARC
  5
59FC
  8
0
 10
365.4623721143101989
 20
5.9654746083533388
 30
0.0
 40
0.0196850393999957
 50
89.9999880664073686
 51
180.0
  0
ARC
  5
59FD
  8
0
 10
365.4623721143101989
 20
5.9576005926533346
 30
0.0
 40
0.0196850394000038
 50
180.0
 51
269.9999997089253725
  0
LINE
  5
59FE
  8
0
 10
365.442687074910225
 20
5.9576005926533346
 30
0.0
 11
365.442687074910225
 21
5.9654746083531327
 31
0.0
  0
LINE
  5
59FF
  8
0
 10
365.462372118410201
 20
5.985159647753334
 30
0.0
 11
365.6001673898099966
 21
5.9851596477533411
 31
0.0
  0
LINE
  5
5A00
  8
0
 10
365.4623721143104262
 20
5.9379155532533332
 30
0.0
 11
365.5363878623091978
 21
5.9379155532533403
 31
0.0
  0
ARC
  5
5A01
  8
0
 10
365.536387862310221
 20
5.9182305138533451
 30
0.0
 40
0.0196850393999881
 50
7.6119319742902753
 51
90.0000000000390656
  0
ARC
  5
5A02
  8
0
 10
365.600167389810224
 20
5.9654746083533317
 30
0.0
 40
0.0196850393999981
 50
359.9999880664494754
 51
89.9999997089449408
  0
LINE
  5
5A03
  8
0
 10
365.6198524292101979
 20
5.9654746042533366
 30
0.0
 11
365.6198530151542059
 21
5.9208387118622658
 31
0.0
  0
ARC
  5
5A04
  8
0
 10
373.6772622607060725
 20
5.7430457123798737
 30
0.0
 40
0.1488475688737567
 50
41.2361060778149167
 51
87.4553716998909323
  0
ARC
  5
5A05
  8
0
 10
366.5744324580045941
 20
0.8091080313925758
 30
0.0
 40
8.8119345259448973
 50
28.7540827822496787
 51
33.62071983709221
  0
ARC
  5
5A06
  8
0
 10
372.7697546121827941
 20
4.8945031308805218
 30
0.0
 40
1.3911938206296159
 50
34.7867463508927983
 51
42.8799207645049307
  0
ARC
  5
5A07
  8
0
 10
362.3636818698014963
 20
-1.610124543282879
 30
0.0
 40
13.6675752378906896
 50
25.0161656209411198
 51
29.1537444934503398
  0
ARC
  5
5A08
  8
0
 10
360.9090483179290914
 20
-2.2230967971940032
 30
0.0
 40
15.24507418237976
 50
24.3926811219334105
 51
24.7919506863268388
  0
ARC
  5
5A09
  8
0
 10
361.4007369444677806
 20
-2.0728437131440991
 30
0.0
 40
14.7353715043444105
 50
23.4430145630837004
 51
24.6501685779204287
  0
ARC
  5
5A0A
  8
0
 10
358.572145079044617
 20
-3.0756204393376581
 30
0.0
 40
17.7306109474620506
 50
6.214281209126943
 51
22.7795230298991385
  0
ARC
  5
5A0B
  8
0
 10
356.4595947502958211
 20
-3.4313431149259399
 30
0.0
 40
19.8696468328644187
 50
0.8754632218418469
 51
6.5746014464065956
  0
ARC
  5
5A0C
  8
0
 10
364.0333566428859058
 20
-3.206107312150102
 30
0.0
 40
12.2938152061550507
 50
344.7436006927886751
 51
0.3651785546989265
  0
ARC
  5
5A0D
  8
0
 10
361.8401518439587221
 20
-2.7587220737270028
 30
0.0
 40
14.5281800433673194
 50
339.2403030863961249
 51
345.3174254083227197
  0
ARC
  5
5A0E
  8
0
 10
361.4868834886618743
 20
-2.5530494691123522
 30
0.0
 40
14.9315638293631903
 50
325.0121333825434249
 51
338.9828104175733188
  0
ARC
  5
5A0F
  8
0
 10
368.5414241310550096
 20
-7.711442593809859
 30
0.0
 40
6.1967729711807911
 50
294.3399741388969915
 51
326.6862823856167211
  0
ARC
  5
5A10
  8
0
 10
369.1479145190839972
 20
-8.6710064517390357
 30
0.0
 40
5.0749660719048126
 50
269.7930893790725122
 51
292.5660646130909868
  0
ARC
  5
5A11
  8
0
 10
373.4699039128637992
 20
5.8069603110642731
 30
0.0
 40
0.0850482237368082
 50
94.4987157755596741
 51
122.9458722357579035
  0
LINE
  5
5A12
  8
0
 10
373.6838707271135149
 20
5.8917465090530348
 30
0.0
 11
373.4632330065276165
 21
5.8917465090533341
 31
0.0
  0
LINE
  5
5A13
  8
0
 10
373.4160425277112267
 20
5.6447295823845911
 30
0.0
 11
373.4236507346018925
 21
5.8783314807440581
 31
0.0
  0
ARC
  5
5A14
  8
0
 10
229.2476961082948037
 20
3.028980934843982
 30
0.0
 40
147.2086161650516942
 50
357.5982251718523912
 51
2.580849356379197
  0
ARC
  5
5A15
  8
0
 10
373.3073758193032745
 20
5.7937047995232334
 30
0.0
 40
0.0789990505450286
 50
8.9029540945073187
 51
89.8905207381933877
  0
ARC
  5
5A16
  8
0
 10
373.2571110700324084
 20
5.7870527315210358
 30
0.0
 40
0.1296933050452207
 50
1.8607880682449811
 51
8.3696678837875478
  0
ARC
  5
5A17
  8
0
 10
370.8606922389463989
 20
5.7105811122952801
 30
0.0
 40
2.5273319401080712
 50
0.3401134883791181
 51
1.8294296345465619
  0
ARC
  5
5A18
  8
0
 10
356.8100278110180739
 20
5.5563541398962206
 30
0.0
 40
16.5788155726718998
 50
0.2352201162857161
 51
0.5848606968111574
  0
ARC
  5
5A19
  8
0
 10
373.400893086037911
 20
5.6466019238984302
 30
0.0
 40
0.0152647058850265
 50
299.3570266121171244
 51
352.9544595597582202
  0
ARC
  5
5A1A
  8
0
 10
373.3677222078381988
 20
5.6971204003789211
 30
0.0
 40
0.075671296070883
 50
286.0974048210396177
 51
302.4966292193968798
  0
ARC
  5
5A1B
  8
0
 10
373.3291963259429735
 20
5.808257900569842
 30
0.0
 40
0.1932328955342633
 50
281.8950689813644885
 51
287.9361295759513268
  0
ARC
  5
5A1C
  8
0
 10
373.2953082912254104
 20
6.0728939102200314
 30
0.0
 40
0.4602087638165111
 50
270.6881238060805117
 51
276.7520280131769823
  0
ARC
  5
5A1D
  8
0
 10
373.3188292843678937
 20
5.8577350231300613
 30
0.0
 40
0.2437844426319483
 50
277.207730198344791
 51
281.8824255408986801
  0
ARC
  5
5A1E
  8
0
 10
371.7552604121859758
 20
57.3415077991699533
 30
0.0
 40
51.7518739848648508
 50
271.2665182698431181
 51
271.7113986262133949
  0
ARC
  5
5A1F
  8
0
 10
372.8104231019804047
 20
9.1143086691967881
 30
0.0
 40
3.5131519846761599
 50
270.2357217068648083
 51
271.4469990988283143
  0
ARC
  5
5A20
  8
0
 10
372.9649979071754728
 20
5.8133743055543121
 30
0.0
 40
0.0593294849305126
 50
90.0967761572677546
 51
175.904125842495489
  0
ARC
  5
5A21
  8
0
 10
373.7362354171414154
 20
5.7241019247720137
 30
0.0
 40
0.8356637879121157
 50
173.5751980206568135
 51
178.7435565680187892
  0
ARC
  5
5A22
  8
0
 10
383.3999369718202956
 20
5.549888094093113
 30
0.0
 40
10.5009296884139705
 50
178.9494058254161928
 51
179.7141515112267882
  0
LINE
  5
5A23
  8
0
 10
373.3075267685101721
 20
5.8727037058533389
 30
0.0
 11
372.9648976960102118
 21
5.8727037058533389
 31
0.0
  0
LINE
  5
5A24
  8
0
 10
373.4012400418101834
 20
5.6292771998731288
 30
0.0
 11
373.4012400418101834
 21
5.6538431119533348
 31
0.0
  0
LINE
  5
5A25
  8
0
 10
373.4012400418101834
 20
5.6538431119533348
 30
0.0
 11
373.4163393472960024
 21
5.6538431119533348
 31
0.0
  0
LINE
  5
5A26
  8
0
 10
372.9007725499835146
 20
5.7424257897533471
 30
0.0
 11
372.8913975221101964
 21
5.7424257897533471
 31
0.0
  0
LINE
  5
5A27
  8
0
 10
372.8913975221101964
 20
5.7424257897533471
 30
0.0
 11
372.8913975221101964
 21
5.6020901811086574
 31
0.0
  0
ARC
  5
5A28
  8
0
 10
372.8306810439565879
 20
5.883656813644321
 30
0.0
 40
0.0464734272623764
 50
7.9239633583906022
 51
81.6300163192164945
  0
ARC
  5
5A29
  8
0
 10
372.728644455422625
 20
5.9197342094521366
 30
0.0
 40
0.01021002062834
 50
104.1318214991653974
 51
173.7961107764982103
  0
LINE
  5
5A2A
  8
0
 10
372.8374459365447251
 20
5.9296352397785546
 30
0.0
 11
372.7261516418101905
 21
5.9296352397785546
 31
0.0
  0
LINE
  5
5A2B
  8
0
 10
372.8767107379101731
 20
5.8900635847533351
 30
0.0
 11
372.8767107379101731
 21
5.6932131913533359
 31
0.0
  0
LINE
  5
5A2C
  8
0
 10
372.8913975221101964
 20
5.6932131913533359
 30
0.0
 11
372.8668158146102201
 21
5.6932131913533359
 31
0.0
  0
ARC
  5
5A2D
  8
0
 10
373.4344709661780257
 20
5.679134805981831
 30
0.0
 40
0.5678297033760576
 50
177.6728011976732091
 51
178.5793016412029033
  0
ARC
  5
5A2E
  8
0
 10
372.5536328435292148
 20
5.6869509203425963
 30
0.0
 40
0.3151726241778217
 50
1.1385040588472031
 51
3.9321990632341191
  0
ARC
  5
5A2F
  8
0
 10
373.0236853010982259
 20
5.69639764046154
 30
0.0
 40
0.1566828949199491
 50
175.5275228672946923
 51
177.8805761987754011
  0
ARC
  5
5A30
  8
0
 10
372.879819708554578
 20
5.7075726144250529
 30
0.0
 40
0.0123842035456428
 50
168.4833767745124931
 51
175.1679336232926119
  0
ARC
  5
5A31
  8
0
 10
372.8601575051694113
 20
5.708282997918757
 30
0.0
 40
0.0079110128611537
 50
2.0369363083233312
 51
12.0773167737436005
  0
ARC
  5
5A32
  8
0
 10
372.8666304259505182
 20
5.7095351420235536
 30
0.0
 40
0.0013257550151656
 50
17.700690182636631
 51
26.3324698563988697
  0
ARC
  5
5A33
  8
0
 10
372.8679426764211939
 20
5.709962718413208
 30
0.0
 40
0.0002706937975014
 50
135.7899989988218863
 51
162.2711092423000991
  0
ARC
  5
5A34
  8
0
 10
372.8677378814090275
 20
5.7100815881236988
 30
0.0
 40
0.0000908347367106
 50
27.2786292608266017
 51
60.2437957718761794
  0
ARC
  5
5A35
  8
0
 10
372.867772095586588
 20
5.7101319053454338
 30
0.0
 40
0.0000305397332102
 50
69.1535160624442824
 51
140.1598709231149087
  0
LINE
  5
5A36
  8
0
 10
372.8659571737102283
 20
5.6876303104533363
 30
0.0
 11
372.8650331014072776
 21
5.6015812366171431
 31
0.0
  0
LINE
  5
5A37
  8
0
 10
372.8659571737102283
 20
5.6876303104533363
 30
0.0
 11
372.8662393606102228
 21
5.6658665385533382
 31
0.0
  0
LINE
  5
5A38
  8
0
 10
372.8662393606102228
 20
5.6658665385533382
 30
0.0
 11
372.8668158146102201
 21
5.6932131913533359
 31
0.0
  0
LINE
  5
5A39
  8
0
 10
372.8662393607100967
 20
5.6658659702533347
 30
0.0
 11
372.8657178544349904
 21
5.665345039150572
 31
0.0
  0
LINE
  5
5A3A
  8
0
 10
372.7261516418101905
 20
5.9296352397785546
 30
0.0
 11
372.7261516418101905
 21
5.9208375740992087
 31
0.0
  0
LINE
  5
5A3B
  8
0
 10
371.7547205897835738
 20
5.6011860261796471
 30
0.0
 11
371.7535887901129854
 21
5.8450441341533326
 31
0.0
  0
LINE
  5
5A3C
  8
0
 10
371.7527116637643871
 20
5.9076945707533346
 30
0.0
 11
371.7535887901102001
 21
5.845044134353337
 31
0.0
  0
ARC
  5
5A3D
  8
0
 10
371.3504578830600167
 20
5.9028095061193531
 30
0.0
 40
0.4022834422984355
 50
0.6957792344557615
 51
1.3954711893406819
  0
ARC
  5
5A3E
  8
0
 10
371.7187614110811182
 20
5.9120810146930287
 30
0.0
 40
0.0338646795828391
 50
0.888901108125728
 51
4.3935768263944572
  0
LINE
  5
5A3F
  8
0
 10
371.7515690941102093
 20
5.9194631614533364
 30
0.0
 11
371.7525265741064118
 21
5.9146752947725707
 31
0.0
  0
LINE
  5
5A40
  8
0
 10
371.7516366089101894
 20
5.9191255545449124
 30
0.0
 11
371.7516366089101894
 21
5.8561238330533376
 31
0.0
  0
LINE
  5
5A41
  8
0
 10
371.7516366089101894
 20
5.8561238330533376
 30
0.0
 11
371.7525227365812839
 21
5.8516927628888729
 31
0.0
  0
LINE
  5
5A42
  8
0
 10
371.7417912229101944
 20
5.9184323505533376
 30
0.0
 11
371.7417913385469888
 21
5.6011860214669147
 31
0.0
  0
LINE
  5
5A43
  8
0
 10
371.7417912230833963
 20
5.7839197061533341
 30
0.0
 11
371.7535356433101015
 21
5.7839197061533341
 31
0.0
  0
LINE
  5
5A44
  8
0
 10
371.7535356433101015
 20
5.7839197061533341
 30
0.0
 11
371.7526584696101963
 21
5.8465735240533334
 31
0.0
  0
LINE
  5
5A45
  8
0
 10
371.7526584696101963
 20
5.8465735240533334
 30
0.0
 11
371.752522736591402
 21
5.8516927628384101
 31
0.0
  0
LINE
  5
5A46
  8
0
 10
371.7516366089101894
 20
5.8561238330533376
 30
0.0
 11
371.7417912229904005
 21
5.8561238330533376
 31
0.0
  0
ARC
  5
5A47
  8
0
 10
372.7969093331101931
 20
5.9654746083533388
 30
0.0
 40
0.0196850393999957
 50
0.0
 51
90.000011933592603
  0
ARC
  5
5A48
  8
0
 10
372.7969093331101931
 20
5.9576005926533346
 30
0.0
 40
0.0196850394000038
 50
270.0000002910746275
 51
0.0
  0
LINE
  5
5A49
  8
0
 10
372.8165943725102238
 20
5.9576005926533346
 30
0.0
 11
372.8165943725102238
 21
5.9654746083531327
 31
0.0
  0
LINE
  5
5A4A
  8
0
 10
372.796909329010191
 20
5.985159647753334
 30
0.0
 11
372.6591140576103953
 21
5.9851596477533411
 31
0.0
  0
LINE
  5
5A4B
  8
0
 10
372.7969093331100225
 20
5.9379155532533332
 30
0.0
 11
372.7228935851111942
 21
5.9379155532533403
 31
0.0
  0
ARC
  5
5A4C
  8
0
 10
372.7228935851102278
 20
5.9182305138533451
 30
0.0
 40
0.0196850393999881
 50
89.9999999999609201
 51
172.3880680257097993
  0
ARC
  5
5A4D
  8
0
 10
372.6591140576102248
 20
5.9654746083533317
 30
0.0
 40
0.0196850393999981
 50
90.000000291055045
 51
180.000011933550411
  0
LINE
  5
5A4E
  8
0
 10
372.639429018210194
 20
5.9654746042533366
 30
0.0
 11
372.6394284322660724
 21
5.9208387118622658
 31
0.0
  0
LINE
  5
5A4F
  8
0
 10
365.4345133197101063
 20
5.6011837224533352
 30
0.0
 11
372.8248765897101862
 21
5.6011864162533342
 31
0.0
  0
ENDSEC
  0
EOF
