  0
SECTION
  2
HEADER
  9
$ACADVER
  1
AC1009
  9
$INSBASE
 10
393.6712290625501964
 20
-3.308185372284111
 30
0.0
  9
$EXTMIN
 10
341.2985309693789873
 20
-20.8081920721289286
 30
0.0
  9
$EXTMAX
 10
408.4510957509810964
 20
16.2542817346193189
 30
0.0
  9
$LIMMIN
 10
0.0
 20
0.0
  9
$LIMMAX
 10
22.0
 20
17.0
  9
$ORTHOMODE
 70
     0
  9
$REGENMODE
 70
     1
  9
$FILLMODE
 70
     1
  9
$QTEXTMODE
 70
     0
  9
$MIRRTEXT
 70
     0
  9
$DRAGMODE
 70
     2
  9
$LTSCALE
 40
1.2099999999999991
  9
$OSMODE
 70
  4095
  9
$ATTMODE
 70
     1
  9
$TEXTSIZE
 40
0.2
  9
$TRACEWID
 40
0.05
  9
$TEXTSTYLE
  7
STANDARD
  9
$CLAYER
  8
0
  9
$CELTYPE
  6
BYLAYER
  9
$CECOLOR
 62
   256
  9
$DIMSCALE
 40
1.0
  9
$DIMASZ
 40
0.1875
  9
$DIMEXO
 40
0.0625
  9
$DIMDLI
 40
0.38
  9
$DIMRND
 40
0.0
  9
$DIMDLE
 40
0.0
  9
$DIMEXE
 40
0.125
  9
$DIMTP
 40
1.5
  9
$DIMTM
 40
1.5
  9
$DIMTXT
 40
1.5
  9
$DIMCEN
 40
0.09
  9
$DIMTSZ
 40
0.0
  9
$DIMTOL
 70
     0
  9
$DIMLIM
 70
     0
  9
$DIMTIH
 70
     1
  9
$DIMTOH
 70
     1
  9
$DIMSE1
 70
     0
  9
$DIMSE2
 70
     0
  9
$DIMTAD
 70
     0
  9
$DIMZIN
 70
     4
  9
$DIMBLK
  1

  9
$DIMASO
 70
     1
  9
$DIMSHO
 70
     1
  9
$DIMPOST
  1

  9
$DIMAPOST
  1

  9
$DIMALT
 70
     0
  9
$DIMALTD
 70
     2
  9
$DIMALTF
 40
25.3999999999999986
  9
$DIMLFAC
 40
1.0
  9
$DIMTOFL
 70
     0
  9
$DIMTVP
 40
0.0
  9
$DIMTIX
 70
     0
  9
$DIMSOXD
 70
     0
  9
$DIMSAH
 70
     0
  9
$DIMBLK1
  1

  9
$DIMBLK2
  1

  9
$DIMSTYLE
  2
STANDARD
  9
$DIMCLRD
 70
     0
  9
$DIMCLRE
 70
     0
  9
$DIMCLRT
 70
     0
  9
$DIMTFAC
 40
1.0
  9
$DIMGAP
 40
0.09
  9
$LUNITS
 70
     2
  9
$LUPREC
 70
     4
  9
$SKETCHINC
 40
0.1
  9
$FILLETRAD
 40
0.0
  9
$AUNITS
 70
     0
  9
$AUPREC
 70
     0
  9
$MENU
  1
.
  9
$ELEVATION
 40
0.0
  9
$PELEVATION
 40
0.0
  9
$THICKNESS
 40
0.0
  9
$LIMCHECK
 70
     0
  9
$BLIPMODE
 70
     0
  9
$CHAMFERA
 40
0.0
  9
$CHAMFERB
 40
0.0
  9
$SKPOLY
 70
     0
  9
$TDCREATE
 40
2457827.4934837957844138
  9
$TDUPDATE
 40
2459415.9558912040665746
  9
$TDINDWG
 40
0.3599788194
  9
$TDUSRTIMER
 40
0.3599788194
  9
$USRTIMER
 70
     1
  9
$ANGBASE
 50
0.0
  9
$ANGDIR
 70
     0
  9
$PDMODE
 70
     0
  9
$PDSIZE
 40
0.3125
  9
$PLINEWID
 40
0.0
  9
$COORDS
 70
     1
  9
$SPLFRAME
 70
     0
  9
$SPLINETYPE
 70
     6
  9
$SPLINESEGS
 70
     8
  9
$ATTDIA
 70
     1
  9
$ATTREQ
 70
     1
  9
$HANDLING
 70
     1
  9
$HANDSEED
  5
5A2E
  9
$SURFTAB1
 70
     6
  9
$SURFTAB2
 70
     6
  9
$SURFTYPE
 70
     6
  9
$SURFU
 70
     6
  9
$SURFV
 70
     6
  9
$UCSNAME
  2

  9
$UCSORG
 10
0.0
 20
0.0
 30
0.0
  9
$UCSXDIR
 10
1.0
 20
0.0
 30
0.0
  9
$UCSYDIR
 10
0.0
 20
1.0
 30
0.0
  9
$PUCSNAME
  2

  9
$PUCSORG
 10
0.0
 20
0.0
 30
0.0
  9
$PUCSXDIR
 10
1.0
 20
0.0
 30
0.0
  9
$PUCSYDIR
 10
0.0
 20
1.0
 30
0.0
  9
$USERI1
 70
     0
  9
$USERI2
 70
     0
  9
$USERI3
 70
     0
  9
$USERI4
 70
     0
  9
$USERI5
 70
     0
  9
$USERR1
 40
0.0
  9
$USERR2
 40
0.0
  9
$USERR3
 40
0.0
  9
$USERR4
 40
0.0
  9
$USERR5
 40
0.0
  9
$WORLDVIEW
 70
     1
  9
$SHADEDGE
 70
     3
  9
$SHADEDIF
 70
    70
  9
$TILEMODE
 70
     1
  9
$MAXACTVP
 70
    48
  9
$PLIMCHECK
 70
     0
  9
$PEXTMIN
 10
1.0000000000000000E+20
 20
1.0000000000000000E+20
 30
1.0000000000000000E+20
  9
$PEXTMAX
 10
-1.0000000000000000E+20
 20
-1.0000000000000000E+20
 30
-1.0000000000000000E+20
  9
$PLIMMIN
 10
0.0
 20
0.0
  9
$PLIMMAX
 10
12.0
 20
9.0
  9
$UNITMODE
 70
     0
  9
$VISRETAIN
 70
     1
  9
$PLINEGEN
 70
     0
  9
$PSLTSCALE
 70
     1
  0
ENDSEC
  0
SECTION
  2
TABLES
  0
TABLE
  2
VPORT
 70
     1
  0
VPORT
  2
*ACTIVE
 70
     0
 10
0.0
 20
0.0
 11
1.0
 21
1.0
 12
106.7836342945931989
 22
-13.8875875942637901
 13
0.0
 23
0.0
 14
1.0
 24
1.0
 15
0.0
 25
0.0
 16
-0.0000000000000568
 26
0.0
 36
161.3760680385011881
 17
299.3826613025150891
 27
23.0899863857244405
 37
0.0
 40
81.3483036782196507
 41
2.0416666666666661
 42
50.0
 43
0.0
 44
0.0
 50
0.0
 51
0.0
 71
     0
 72
   100
 73
     1
 74
     1
 75
     0
 76
     0
 77
     0
 78
     0
  0
ENDTAB
  0
TABLE
  2
LTYPE
 70
     2
  0
LTYPE
  2
CONTINUOUS
 70
     0
  3
Solid line
 72
    65
 73
     0
 40
0.0
  0
LTYPE
  2
PHANTOM2
 70
     0
  3
___ _ _ ___ _ _ ___ _ _ ___ _ _
 72
    65
 73
     6
 40
1.25
 49
0.625
 49
-0.125
 49
0.125
 49
-0.125
 49
0.125
 49
-0.125
  0
ENDTAB
  0
TABLE
  2
LAYER
 70
     2
  0
LAYER
  2
0
 70
     0
 62
     7
  6
CONTINUOUS
  0
LAYER
  2
DEFPOINTS
 70
     0
 62
     7
  6
CONTINUOUS
  0
ENDTAB
  0
TABLE
  2
STYLE
 70
     1
  0
STYLE
  2
STANDARD
 70
     0
 40
0.0
 41
0.8
 50
0.0
 71
     0
 42
0.2
  3
txt
  4

  0
ENDTAB
  0
TABLE
  2
VIEW
 70
     0
  0
ENDTAB
  0
TABLE
  2
UCS
 70
     0
  0
ENDTAB
  0
TABLE
  2
APPID
 70
     8
  0
APPID
  2
ACAD
 70
     0
  0
APPID
  2
ACAD_MLEADERVER
 70
     0
  0
APPID
  2
ACAD_EXEMPT_FROM_CAD_STANDARDS
 70
     0
  0
APPID
  2
ACAD_NAV_VCDISPLAY
 70
     0
  0
APPID
  2
ACADANNOMONITORALERTICONDI
 70
     0
  0
APPID
  2
ACAD_DSTYLE_DIMJAG
 70
     0
  0
APPID
  2
ACAD_DSTYLE_DIMTALN
 70
     0
  0
APPID
  2
ACDBATTR
 70
     0
  0
ENDTAB
  0
TABLE
  2
DIMSTYLE
 70
     1
  0
DIMSTYLE
  2
STANDARD
 70
     0
  3

  4

  5

  6

  7

 40
1.0
 41
0.1875
 42
0.0625
 43
0.38
 44
0.125
 45
0.0
 46
0.0
 47
1.5
 48
1.5
140
1.5
141
0.09
142
0.0
143
25.3999999999999986
144
1.0
145
0.0
146
1.0
147
0.09
 71
     0
 72
     0
 73
     1
 74
     1
 75
     0
 76
     0
 77
     0
 78
     4
170
     0
171
     2
172
     0
173
     0
174
     0
175
     0
176
     0
177
     0
178
     0
  0
ENDTAB
  0
ENDSEC
  0
SECTION
  2
BLOCKS
  0
BLOCK
  8
0
  2
$MODEL_SPACE
 70
     0
 10
0.0
 20
0.0
 30
0.0
  3
$MODEL_SPACE
  1

  0
ENDBLK
  5
21
  8
0
  0
BLOCK
 67
     1
  8
0
  2
$PAPER_SPACE
 70
     0
 10
0.0
 20
0.0
 30
0.0
  3
$PAPER_SPACE
  1

  0
ENDBLK
  5
1D
 67
     1
  8
0
  0
BLOCK
  8
0
  2
_FILLED
 70
     0
 10
0.0
 20
0.0
 30
0.0
  3
_FILLED
  1

  0
SOLID
  5
4F44
  8
0
  6
BYBLOCK
 62
     0
 10
0.0
 20
0.0
 30
0.0
 11
-1.0
 21
0.1666666667
 31
0.0
 12
-1.0
 22
-0.1666666667
 32
0.0
 13
-1.0
 23
-0.1666666667
 33
0.0
  0
ENDBLK
  5
4F45
  8
0
  6
BYBLOCK
 62
     0
  0
ENDSEC
  0
SECTION
  2
ENTITIES
  0
ATTDEF
  5
4EF9
  8
DEFPOINTS
 10
393.6730252197378945
 20
-3.3043000484410281
 30
0.0
 40
0.001
  1
K-24256K-HC
  3

  2
MODELNUMBER
 70
     0
1001
ACDBATTR
1070
     0
1070
     1
  0
ATTDEF
  5
4EFA
  8
DEFPOINTS
 10
393.6730252197378945
 20
-3.305966715107707
 30
0.0
 40
0.001
  1
VEIL
  3

  2
TRADENAME
 70
     0
1001
ACDBATTR
1070
     0
1070
     1
  0
ATTDEF
  5
4EFB
  8
DEFPOINTS
 10
393.6730252197378945
 20
-3.3076333817743868
 30
0.0
 40
0.001
  1
TOILET
  3

  2
PRODUCT
 70
     0
1001
ACDBATTR
1070
     0
1070
     1
  0
LINE
  5
58A5
  8
0
 10
393.6712290625501964
 20
11.8492949426158898
 30
0.0
 11
370.487667861450177
 21
11.8492949426158898
 31
0.0
  0
ARC
  5
58A6
  8
0
 10
370.5463697547235142
 20
11.6131307775280206
 30
0.0
 40
0.2433504163660222
 50
103.9587766957751001
 51
205.8443414303116867
  0
ARC
  5
58A7
  8
0
 10
347.0708084674956808
 20
0.0150817917856401
 30
0.0
 40
25.9409408648252793
 50
10.19874690890747
 51
26.2957679580989314
  0
ARC
  5
58A8
  8
0
 10
330.7928874027825827
 20
-3.676844721509652
 30
0.0
 40
42.621990072538253
 50
0.6518661836902905
 51
11.2088504663283999
  0
ARC
  5
58A9
  8
0
 10
373.530214569161501
 20
-3.19007513605652
 30
0.0
 40
0.1181102362275901
 50
180.9026536397857967
 51
269.9999999945187028
  0
LINE
  5
58AA
  8
0
 10
373.530214569161501
 20
-3.308185372284111
 30
0.0
 11
393.6712290625501964
 21
-3.308185372284111
 31
0.0
  0
LINE
  5
58AB
  8
0
 10
393.6712290625501964
 20
-3.308185372284111
 30
0.0
 11
393.6712290625501964
 21
11.8492949426158898
 31
0.0
  0
LINE
  5
58AC
  8
0
 10
376.7043848622502082
 20
-3.1873689610841112
 30
0.0
 11
376.70140387905019
 21
-2.9213743486841111
 31
0.0
  0
LINE
  5
58AD
  8
0
 10
376.70140387905019
 20
-2.9213743486841111
 30
0.0
 11
382.3754542111500996
 21
-2.9209647302841111
 31
0.0
  0
LINE
  5
58AE
  8
0
 10
382.3754542111500996
 20
-2.9209647302841111
 30
0.0
 11
382.4769358507501806
 21
-3.1916775029841089
 31
0.0
  0
ARC
  5
58AF
  8
0
 10
385.392505470237893
 20
-3.1923580068406241
 30
0.0
 40
2.9155809198110809
 50
179.9860391666250905
 51
181.3027586638795015
  0
ARC
  5
58B0
  8
0
 10
383.2431969959782805
 20
-3.2450345649367121
 30
0.0
 40
0.7656397987515799
 50
181.0185829582935924
 51
184.0146651791598913
  0
ARC
  5
58B1
  8
0
 10
382.579616031599528
 20
-3.290838185914843
 30
0.0
 40
0.1004832891967763
 50
184.452170543822092
 51
189.941205891637594
  0
ARC
  5
58B2
  8
0
 10
376.0880048767525068
 20
-3.1910474553446728
 30
0.0
 40
0.6163913546468369
 50
357.6180700761922253
 51
0.3419298244609394
  0
ARC
  5
58B3
  8
0
 10
376.0740527613485824
 20
-3.1917517829161142
 30
0.0
 40
0.6303034499727725
 50
352.7722035822081921
 51
357.7347497012714825
  0
ARC
  5
58B4
  8
0
 10
376.4903429283056084
 20
-3.246268370852273
 30
0.0
 40
0.2104691678094936
 50
347.095225421364205
 51
353.2371849510248012
  0
ARC
  5
58B5
  8
0
 10
376.6436218944464258
 20
-3.282719485304411
 30
0.0
 40
0.0529368823581866
 50
331.2452579524456269
 51
348.5007391329957045
  0
CIRCLE
  5
58B6
  8
0
 10
382.7782305012370898
 20
-2.3257720484000468
 30
0.0
 40
0.550236757482527
  0
ARC
  5
58B7
  8
0
 10
370.6193746103060107
 20
13.1107798728002791
 30
0.0
 40
0.2500000120851745
 50
93.0157721148374748
 51
174.4999976912976933
  0
ARC
  5
58B8
  8
0
 10
370.3266940681990036
 20
12.0633873033880494
 30
0.0
 40
0.0590550425721685
 50
174.4920541846967978
 51
270.0000345891439224
  0
LINE
  5
58B9
  8
0
 10
370.2679116888501767
 20
12.0690556304158907
 30
0.0
 11
370.3705255496500968
 21
13.1347413221158895
 31
0.0
  0
LINE
  5
58BA
  8
0
 10
370.3268093737519848
 20
12.0043323733138596
 30
0.0
 11
389.4925813263500913
 21
12.0043322608158896
 31
0.0
  0
LINE
  5
58BB
  8
0
 10
389.4925813263500913
 20
11.9947859526980505
 30
0.0
 11
370.6349808980501734
 21
11.9947859528158904
 31
0.0
  0
ARC
  5
58BC
  8
0
 10
370.6349259315285281
 20
12.0731539882134697
 30
0.0
 40
0.0783680546740508
 50
241.4241388074399026
 51
270.04018665481982
  0
ARC
  5
58BD
  8
0
 10
371.6043858983493919
 20
11.3160356694155002
 30
0.0
 40
1.3022416810008119
 50
24.1730101148754208
 51
31.4139096242015903
  0
ARC
  5
58BE
  8
0
 10
389.4406428471572781
 20
13.69636744918175
 30
0.0
 40
0.1262597187795771
 50
16.2478655116595583
 51
86.6229844337077139
  0
ARC
  5
58BF
  8
0
 10
389.5111815976475214
 20
12.3981199348463509
 30
0.0
 40
0.394007354512075
 50
295.018003745994406
 51
14.9247862047516104
  0
ARC
  5
58C0
  8
0
 10
389.5088863448099801
 20
12.4073364635577903
 30
0.0
 40
0.4033339076430512
 50
267.6831519389024265
 51
294.7597748644042781
  0
ARC
  5
58C1
  8
0
 10
389.4925813292356906
 20
12.3884867420724092
 30
0.0
 40
0.3937007893743622
 50
269.9999995800633883
 51
298.0652647949352172
  0
LINE
  5
58C2
  8
0
 10
389.5618597879230833
 20
13.7316940660265203
 30
0.0
 11
389.8918970167457019
 21
12.4995968537518998
 31
0.0
  0
ARC
  5
58C3
  8
0
 10
389.0127359736014796
 20
61.746831666288891
 30
0.0
 40
47.9264010313529312
 50
269.6554853340161912
 51
270.5204591745930998
  0
ARC
  5
58C4
  8
0
 10
388.1360806695140013
 20
-319.5642532033635916
 30
0.0
 40
333.3860696094791933
 50
89.898863746729873
 51
90.8769051676902961
  0
ARC
  5
58C5
  8
0
 10
388.1324350671030743
 20
-319.3326916743072843
 30
0.0
 40
333.1544794069906743
 50
90.8768877475590955
 51
91.8732116680078832
  0
ARC
  5
58C6
  8
0
 10
388.1298014562415801
 20
-319.2218731263661198
 30
0.0
 40
333.0436339938669903
 50
91.873382022463602
 51
92.6674069336618658
  0
ARC
  5
58C7
  8
0
 10
388.1066688335023969
 20
-318.778126340564711
 30
0.0
 40
332.5992914612306208
 50
92.666983782241175
 51
93.016136917151087
  0
ARC
  5
58C8
  8
0
 10
-64.4828201387309718
 20
33520.588375185681798
 30
0.0
 40
33510.2752369743029703
 50
270.7435319632625124
 51
270.7764084893747167
  0
ARC
  5
58C9
  8
0
 10
389.5235609192801007
 20
13.6651737920298402
 30
0.0
 40
0.2850586646077868
 50
284.9608441749394956
 51
295.9576081368555265
  0
LINE
  5
58CA
  8
0
 10
373.7609945879564748
 20
11.8492949426158898
 30
0.0
 11
373.7533697271501865
 21
11.9947859528158904
 31
0.0
  0
ARC
  5
58CB
  8
0
 10
389.3523500642447175
 20
12.8122267195724309
 30
0.0
 40
0.4922476458189877
 50
14.0410273249468691
 51
41.5600227276736121
  0
ARC
  5
58CC
  8
0
 10
389.352460894791875
 20
12.8122850172364195
 30
0.0
 40
0.5216535424824223
 50
13.9999999587772894
 51
47.4543134517446319
  0
ARC
  5
58CD
  8
0
 10
389.6914412255504203
 20
12.6303076343159209
 30
0.0
 40
0.1974797396997987
 50
1.0208036765903541
 51
13.9791963233032401
  0
ARC
  5
58CE
  8
0
 10
389.6923370255256032
 20
12.6300975920266207
 30
0.0
 40
0.2359483131523486
 50
0.9909546972672632
 51
14.0037414822585902
  0
LINE
  5
58CF
  8
0
 10
389.9282500497560022
 20
12.6341782142736303
 30
0.0
 11
389.9419537401500975
 21
11.8492949426158898
 31
0.0
  0
LINE
  5
58D0
  8
0
 10
389.9212549710035205
 20
12.6872038285067497
 30
0.0
 11
389.8586190977501929
 21
12.9384844307158904
 31
0.0
  0
LINE
  5
58D1
  8
0
 10
389.8422740431906277
 20
12.8599402864668004
 30
0.0
 11
389.8690237106761174
 21
12.5849876344960006
 31
0.0
  0
ARC
  5
58D2
  8
0
 10
389.3524683062587997
 20
12.8122865665710908
 30
0.0
 40
0.492118417610207
 50
5.5568782543204724
 51
14.0376077033514797
  0
LINE
  5
58D3
  8
0
 10
389.8830723070088879
 20
12.6780127305946593
 30
0.0
 11
389.8451928630159955
 21
12.8299388825515894
 31
0.0
  0
LINE
  5
58D4
  8
0
 10
389.8888896237161816
 20
12.6338258232893601
 30
0.0
 11
389.8908923135006717
 21
12.5033476186934607
 31
0.0
  0
ARC
  5
58D5
  8
0
 10
389.8012795014502103
 20
12.5563792128158909
 30
0.0
 40
0.0885826771999931
 50
340.3089549752600078
 51
43.1430221941965399
  0
ARC
  5
58D6
  8
0
 10
389.9869270355501953
 20
12.2256708434158696
 30
0.0
 40
0.0118110236000106
 50
0.0000000000517031
 51
89.9999999995505533
  0
LINE
  5
58D7
  8
0
 10
389.9869270355501953
 20
12.2374818670158891
 30
0.0
 11
389.9351779121798813
 21
12.2374818671158891
 31
0.0
  0
ARC
  5
58D8
  8
0
 10
389.9633049884280922
 20
12.2256708433836092
 30
0.0
 40
0.0118110236779217
 50
90.0000002672700106
 51
179.9999998434171005
  0
LINE
  5
58D9
  8
0
 10
389.9987380591501847
 20
12.2256708434158696
 30
0.0
 11
389.9987380591501847
 21
11.8752771426158894
 31
0.0
  0
LINE
  5
58DA
  8
0
 10
389.9514939647502274
 20
11.8752771426159303
 30
0.0
 11
389.9514939647502274
 21
12.2256708433836092
 31
0.0
  0
ARC
  5
58DB
  8
0
 10
389.9633049883502167
 20
11.8752771426158894
 30
0.0
 40
0.0118110236000106
 50
180.0000000000343903
 51
269.9999999999641886
  0
ARC
  5
58DC
  8
0
 10
389.9869270355501953
 20
11.8752771426158894
 30
0.0
 40
0.0118110236000053
 50
269.9999999999316174
 51
359.9999999999741931
  0
LINE
  5
58DD
  8
0
 10
389.9869270355500817
 20
11.8634661190158894
 30
0.0
 11
389.9417063181181788
 21
11.8634661190158894
 31
0.0
  0
LINE
  5
58DE
  8
0
 10
374.685252058448782
 20
11.9947859527905791
 30
0.0
 11
374.6780170944501833
 21
11.8567346168158902
 31
0.0
  0
ARC
  5
58DF
  8
0
 10
374.6190429122623868
 20
11.8598253224830295
 30
0.0
 40
0.0590551151572718
 50
349.7284038483584823
 51
357.000000248376125
  0
ARC
  5
58E0
  8
0
 10
383.1682642938329195
 20
11.9306914645726891
 30
0.0
 40
0.0590551180567981
 50
182.9999830779711942
 51
269.9996906768217855
  0
ARC
  5
58E1
  8
0
 10
383.6167470186381934
 20
11.9307224285615092
 30
0.0
 40
0.0591238190109778
 50
268.0092369412053017
 51
356.9734579236389891
  0
LINE
  5
58E2
  8
0
 10
383.1057690818543051
 20
11.9947859527379599
 30
0.0
 11
383.1092901078501995
 21
11.9276007759158897
 31
0.0
  0
LINE
  5
58E3
  8
0
 10
383.1682640197500973
 20
11.8716363465158903
 30
0.0
 11
383.6146931529805784
 21
11.8716342943017104
 31
0.0
  0
LINE
  5
58E4
  8
0
 10
383.6757883707501833
 20
11.9276007759158897
 30
0.0
 11
383.6793093966459196
 21
11.9947859527343805
 31
0.0
  0
ARC
  5
58E5
  8
0
 10
383.4687620908526924
 20
11.9262126759993095
 30
0.0
 40
0.0547963818309722
 50
178.5484483576811101
 51
264.8793613908653128
  0
LINE
  5
58E6
  8
0
 10
383.4139832930501939
 20
11.9276007585158794
 30
0.0
 11
383.4110047608501759
 21
11.9947859528158904
 31
0.0
  0
ENDSEC
  0
EOF
