  0
SECTION
  2
HEADER
  9
$ACADVER
  1
AC1009
  9
$INSBASE
 10
3041.8676505424377865
 20
134.0099698141976035
 30
0.0
  9
$EXTMIN
 10
3007.5456235654601187
 20
133.9995706425685
 30
-0.0000000000112498
  9
$EXTMAX
 10
3041.8947589155691276
 20
159.0025684232805077
 30
0.0000000000002956
  9
$LIMMIN
 10
0.0
 20
0.0
  9
$LIMMAX
 10
11.6929133858000007
 20
8.2677165353999982
  9
$ORTHOMODE
 70
     1
  9
$REGENMODE
 70
     1
  9
$FILLMODE
 70
     1
  9
$QTEXTMODE
 70
     0
  9
$MIRRTEXT
 70
     0
  9
$DRAGMODE
 70
     2
  9
$LTSCALE
 40
0.6431102362
  9
$OSMODE
 70
  4095
  9
$ATTMODE
 70
     1
  9
$TEXTSIZE
 40
0.2
  9
$TRACEWID
 40
0.05
  9
$TEXTSTYLE
  7
STANDARD
  9
$CLAYER
  8
0
  9
$CELTYPE
  6
BYLAYER
  9
$CECOLOR
 62
     1
  9
$DIMSCALE
 40
1.0
  9
$DIMASZ
 40
0.1875
  9
$DIMEXO
 40
0.0625
  9
$DIMDLI
 40
0.4443307087
  9
$DIMRND
 40
0.0
  9
$DIMDLE
 40
0.0
  9
$DIMEXE
 40
0.125
  9
$DIMTP
 40
0.01
  9
$DIMTM
 40
0.01
  9
$DIMTXT
 40
2.0
  9
$DIMCEN
 40
0.1052362205
  9
$DIMTSZ
 40
0.0
  9
$DIMTOL
 70
     1
  9
$DIMLIM
 70
     0
  9
$DIMTIH
 70
     1
  9
$DIMTOH
 70
     1
  9
$DIMSE1
 70
     0
  9
$DIMSE2
 70
     0
  9
$DIMTAD
 70
     0
  9
$DIMZIN
 70
     0
  9
$DIMBLK
  1

  9
$DIMASO
 70
     1
  9
$DIMSHO
 70
     1
  9
$DIMPOST
  1
\X
  9
$DIMAPOST
  1

  9
$DIMALT
 70
     1
  9
$DIMALTD
 70
     2
  9
$DIMALTF
 40
25.3999999999999986
  9
$DIMLFAC
 40
1.0
  9
$DIMTOFL
 70
     0
  9
$DIMTVP
 40
0.0
  9
$DIMTIX
 70
     0
  9
$DIMSOXD
 70
     0
  9
$DIMSAH
 70
     0
  9
$DIMBLK1
  1

  9
$DIMBLK2
  1

  9
$DIMSTYLE
  2
STANDARD
  9
$DIMCLRD
 70
     0
  9
$DIMCLRE
 70
     0
  9
$DIMCLRT
 70
     0
  9
$DIMTFAC
 40
1.0
  9
$DIMGAP
 40
0.09
  9
$LUNITS
 70
     2
  9
$LUPREC
 70
     4
  9
$SKETCHINC
 40
0.1
  9
$FILLETRAD
 40
0.0
  9
$AUNITS
 70
     0
  9
$AUPREC
 70
     0
  9
$MENU
  1
.
  9
$ELEVATION
 40
0.0
  9
$PELEVATION
 40
0.0
  9
$THICKNESS
 40
0.0
  9
$LIMCHECK
 70
     0
  9
$BLIPMODE
 70
     0
  9
$CHAMFERA
 40
0.0
  9
$CHAMFERB
 40
0.0
  9
$SKPOLY
 70
     0
  9
$TDCREATE
 40
2458060.468368056230247
  9
$TDUPDATE
 40
2459634.4779513888061047
  9
$TDINDWG
 40
0.4608635417
  9
$TDUSRTIMER
 40
0.4608635417
  9
$USRTIMER
 70
     1
  9
$ANGBASE
 50
0.0
  9
$ANGDIR
 70
     0
  9
$PDMODE
 70
     0
  9
$PDSIZE
 40
0.3125
  9
$PLINEWID
 40
0.0
  9
$COORDS
 70
     1
  9
$SPLFRAME
 70
     0
  9
$SPLINETYPE
 70
     6
  9
$SPLINESEGS
 70
     8
  9
$ATTDIA
 70
     1
  9
$ATTREQ
 70
     1
  9
$HANDLING
 70
     1
  9
$HANDSEED
  5
2A70C
  9
$SURFTAB1
 70
     6
  9
$SURFTAB2
 70
     6
  9
$SURFTYPE
 70
     6
  9
$SURFU
 70
     6
  9
$SURFV
 70
     6
  9
$UCSNAME
  2

  9
$UCSORG
 10
0.0
 20
0.0
 30
0.0
  9
$UCSXDIR
 10
1.0
 20
0.0
 30
0.0
  9
$UCSYDIR
 10
0.0
 20
1.0
 30
0.0
  9
$PUCSNAME
  2

  9
$PUCSORG
 10
0.0
 20
0.0
 30
0.0
  9
$PUCSXDIR
 10
1.0
 20
0.0
 30
0.0
  9
$PUCSYDIR
 10
0.0
 20
1.0
 30
0.0
  9
$USERI1
 70
     0
  9
$USERI2
 70
     0
  9
$USERI3
 70
     0
  9
$USERI4
 70
     0
  9
$USERI5
 70
     0
  9
$USERR1
 40
0.0
  9
$USERR2
 40
0.0
  9
$USERR3
 40
0.0
  9
$USERR4
 40
0.0
  9
$USERR5
 40
0.0
  9
$WORLDVIEW
 70
     1
  9
$SHADEDGE
 70
     3
  9
$SHADEDIF
 70
    70
  9
$TILEMODE
 70
     1
  9
$MAXACTVP
 70
    64
  9
$PLIMCHECK
 70
     0
  9
$PEXTMIN
 10
1.0000000000000000E+20
 20
1.0000000000000000E+20
 30
1.0000000000000000E+20
  9
$PEXTMAX
 10
-1.0000000000000000E+20
 20
-1.0000000000000000E+20
 30
-1.0000000000000000E+20
  9
$PLIMMIN
 10
0.0
 20
0.0
  9
$PLIMMAX
 10
12.0
 20
9.0
  9
$UNITMODE
 70
     0
  9
$VISRETAIN
 70
     1
  9
$PLINEGEN
 70
     0
  9
$PSLTSCALE
 70
     1
  0
ENDSEC
  0
SECTION
  2
TABLES
  0
TABLE
  2
VPORT
 70
     1
  0
VPORT
  2
*ACTIVE
 70
     0
 10
0.0
 20
0.0
 11
1.0
 21
1.0
 12
-778.8238761422981042
 22
20.5058073361746409
 13
0.0
 23
0.0
 14
1.0
 24
1.0
 15
0.0
 25
0.0
 16
0.0
 26
0.0
 36
17.1152628219792007
 17
3803.5440673828129547
 27
125.9952621967499056
 37
0.0
 40
25.1820168579008197
 41
2.2831541218637992
 42
50.0
 43
0.0
 44
0.0
 50
0.0
 51
0.0
 71
     0
 72
   100
 73
     1
 74
     1
 75
     0
 76
     0
 77
     0
 78
     0
  0
ENDTAB
  0
TABLE
  2
LTYPE
 70
     2
  0
LTYPE
  2
CONTINUOUS
 70
     0
  3
Solid line
 72
    65
 73
     0
 40
0.0
  0
LTYPE
  2
PHANTOM2
 70
     0
  3
___ _ _ ___ _ _ ___ _ _ ___ _ _
 72
    65
 73
     6
 40
1.25
 49
0.625
 49
-0.125
 49
0.125
 49
-0.125
 49
0.125
 49
-0.125
  0
ENDTAB
  0
TABLE
  2
LAYER
 70
     2
  0
LAYER
  2
0
 70
     0
 62
   255
  6
CONTINUOUS
  0
LAYER
  2
DEFPOINTS
 70
     0
 62
     7
  6
CONTINUOUS
  0
ENDTAB
  0
TABLE
  2
STYLE
 70
     1
  0
STYLE
  2
STANDARD
 70
     0
 40
0.0
 41
0.8
 50
0.0
 71
     0
 42
0.2
  3
txt
  4

  0
ENDTAB
  0
TABLE
  2
VIEW
 70
     0
  0
ENDTAB
  0
TABLE
  2
UCS
 70
     0
  0
ENDTAB
  0
TABLE
  2
APPID
 70
     9
  0
APPID
  2
ACAD
 70
     0
  0
APPID
  2
ACAD_MLEADERVER
 70
     0
  0
APPID
  2
ACAD_EXEMPT_FROM_CAD_STANDARDS
 70
     0
  0
APPID
  2
ACAD_NAV_VCDISPLAY
 70
     0
  0
APPID
  2
ACAECLAYERSTANDARD
 70
     0
  0
APPID
  2
ACCMTRANSPARENCY
 70
     0
  0
APPID
  2
ACAD_DSTYLE_DIMJAG
 70
     0
  0
APPID
  2
ACAD_DSTYLE_DIMTALN
 70
     0
  0
APPID
  2
ACDBATTR
 70
     0
  0
ENDTAB
  0
TABLE
  2
DIMSTYLE
 70
     1
  0
DIMSTYLE
  2
STANDARD
 70
     0
  3

  4

  5

  6

  7

 40
1.0
 41
0.1875
 42
0.0625
 43
0.38
 44
0.125
 45
0.0
 46
0.0
 47
0.01
 48
0.01
140
0.15625
141
0.09
142
0.0
143
25.3999999999999986
144
1.0
145
0.0
146
1.0
147
0.09
 71
     1
 72
     0
 73
     1
 74
     1
 75
     0
 76
     0
 77
     0
 78
     4
170
     0
171
     2
172
     0
173
     0
174
     0
175
     0
176
     0
177
     0
178
     0
  0
ENDTAB
  0
ENDSEC
  0
SECTION
  2
BLOCKS
  0
BLOCK
  8
0
  2
$MODEL_SPACE
 70
     0
 10
0.0
 20
0.0
 30
0.0
  3
$MODEL_SPACE
  1

  0
ENDBLK
  5
21
  8
0
  0
BLOCK
 67
     1
  8
0
  2
$PAPER_SPACE
 70
     0
 10
0.0
 20
0.0
 30
0.0
  3
$PAPER_SPACE
  1

  0
ENDBLK
  5
1D
 67
     1
  8
0
  0
ENDSEC
  0
SECTION
  2
ENTITIES
  0
LINE
  5
2A0F7
  8
0
 10
3010.5888355060978938
 20
158.9986996307700053
 30
0.0
 11
3041.6542754071638228
 21
158.9986996307700053
 31
0.0
  0
LINE
  5
2A0FB
  8
0
 10
3010.2928473928368476
 20
134.2068202078976071
 30
0.0
 11
3010.2928473928368476
 21
157.6320170582976061
 31
0.0
  0
LINE
  5
2A0FC
  8
0
 10
3041.8676505424377865
 20
157.8353482232963074
 30
0.0
 11
3041.8676505424377865
 21
157.8288670360975914
 31
0.0
  0
LINE
  5
2A0FD
  8
0
 10
3041.8676505424377865
 20
157.6320233332421878
 30
0.0
 11
3041.8676505424377865
 21
134.1739349999504896
 31
0.0
  0
LINE
  5
2A13E
  8
0
 10
3010.4896977865378176
 20
134.0099698141976035
 30
0.0
 11
3041.6908359636531713
 21
134.0099698141976035
 31
0.0
  0
CIRCLE
  5
2A13F
  8
0
 10
3015.4760993444378983
 20
134.7973713889975897
 30
0.0
 40
0.1968503937000001
  0
CIRCLE
  5
2A140
  8
0
 10
3037.7201938326379604
 20
134.7973713889975897
 30
0.0
 40
0.1968503937000009
  0
ARC
  5
2A141
  8
0
 10
3010.4896977865378176
 20
134.2068202078976071
 30
0.0
 40
0.1968503936999895
 50
179.9999999999984084
 51
269.9999999945023887
  0
ARC
  5
2A142
  8
0
 10
3010.6029414362351417
 20
158.8019517125719915
 30
0.0
 40
0.1972529355428781
 50
90.0859258068765882
 51
177.9219928009877947
  0
LINE
  5
2A143
  8
0
 10
3010.4058182170379041
 20
158.8091041270976973
 30
0.0
 11
3010.3702530473287879
 21
157.8289147492193081
 31
0.0
  0
LINE
  5
2A144
  8
0
 10
3010.3715875520902046
 20
157.8288675000715102
 30
0.0
 11
3041.8676505424377865
 21
157.8288675000715102
 31
0.0
  0
ARC
  5
2A145
  8
0
 10
3010.4916615620531957
 20
157.6309514895282859
 30
0.0
 40
0.1988170247175072
 50
95.4568348126830131
 51
179.6929192274222942
  0
LINE
  5
2A146
  8
0
 10
3010.2928473929378015
 20
156.7100350661976051
 30
0.0
 11
3009.7219812511380042
 21
156.7100350661976051
 31
0.0
  0
LINE
  5
2A147
  8
0
 10
3009.6826111724381008
 20
156.7100350661976051
 30
0.0
 11
3008.1272930622380954
 21
156.7100350661976051
 31
0.0
  0
ARC
  5
2A148
  8
0
 10
3008.1272930622380954
 20
156.3557043575189027
 30
0.0
 40
0.3543307086787113
 50
90.0
 51
135.0000000024377016
  0
ARC
  5
2A149
  8
0
 10
3008.1023836246108658
 20
156.3806137951436028
 30
0.0
 40
0.3191034441572783
 50
135.0000000024377016
 51
170.7508766631985111
  0
ARC
  5
2A14A
  8
0
 10
3008.8600001108570723
 20
156.2572400147107885
 30
0.0
 40
1.086699581413179
 50
170.7508766631985111
 51
179.2890603902224882
  0
LINE
  5
2A14B
  8
0
 10
3007.7733841848648808
 20
156.2707236946287139
 30
0.0
 11
3007.7729363123207804
 21
156.1156399083378119
 31
0.0
  0
ARC
  5
2A14C
  8
0
 10
3009.2340308554757939
 20
156.0917082314356037
 30
0.0
 40
1.4612905218321941
 50
179.0616202842381881
 51
188.0258197815327037
  0
ARC
  5
2A14D
  8
0
 10
3008.0885671137148165
 20
155.9301973799788072
 30
0.0
 40
0.3044962709709166
 50
188.0258197815311121
 51
225.9207363178398964
  0
ARC
  5
2A14E
  8
0
 10
3008.1332174685508107
 20
155.9763063518909973
 30
0.0
 40
0.3686810937700378
 50
225.920736317838788
 51
269.0792636406910106
  0
LINE
  5
2A14F
  8
0
 10
3008.1272930622380954
 20
155.6076728613975888
 30
0.0
 11
3009.6826111724381008
 21
155.6076728614694957
 31
0.0
  0
LINE
  5
2A150
  8
0
 10
3009.7219812511380042
 20
155.6076728614712863
 30
0.0
 11
3010.2928473928368476
 21
155.6076728614976048
 31
0.0
  0
LINE
  5
2A151
  8
0
 10
3009.7022962118380747
 20
155.6240639351798052
 30
0.0
 11
3009.7022962118380747
 21
156.6950218400527035
 31
0.0
  0
ARC
  5
2A152
  8
0
 10
3009.6823932847319156
 20
155.627950549182998
 30
0.0
 40
0.0202788582744669
 50
270.6156306225922208
 51
348.9504839922021233
  0
ARC
  5
2A153
  8
0
 10
3009.7223490236938233
 20
155.6281305604919112
 30
0.0
 40
0.0204610044913137
 50
191.4638568651452033
 51
268.9700921021625959
  0
ARC
  5
2A154
  8
0
 10
3009.6821074488871091
 20
156.6889626675929037
 30
0.0
 40
0.0210784183555206
 50
16.7058666405469509
 51
88.6306381820417784
  0
ARC
  5
2A155
  8
0
 10
3009.7230619742131239
 20
156.6882061175894023
 30
0.0
 40
0.0218556848372379
 50
92.8343258635654962
 51
161.8291695945582092
  0
ARC
  5
2A156
  8
0
 10
3041.6366358842069531
 20
158.8025953498141121
 30
0.0
 40
0.1968913221434607
 50
2.0132943787616022
 51
84.8753070728272832
  0
LINE
  5
2A157
  8
0
 10
3041.8334056658018199
 20
158.8095124146742876
 30
0.0
 11
3041.8678780959121468
 21
157.8288750083623881
 31
0.0
  0
ARC
  5
2A158
  8
0
 10
3041.6678497846019127
 20
157.6313055765905062
 30
0.0
 40
0.1998020246096972
 50
0.2040268873761911
 51
81.4113895046856015
  0
ARC
  5
2A159
  8
0
 10
3041.6653945489069883
 20
134.2147230463097003
 30
0.0
 40
0.2063277772007161
 50
277.0829292502688759
 51
348.5983437395180999
  0
ATTDEF
  5
2A1E7
  8
DEFPOINTS
 10
3041.850730372903854
 20
134.0141915156578136
 30
0.0
 40
0.001
  1
K-24457T-FD
  3

  2
MODELNUMBER
 70
     0
1001
ACDBATTR
1070
     0
1070
     1
  0
ATTDEF
  5
2A1E8
  8
DEFPOINTS
 10
3041.850730372903854
 20
134.0125248489912053
 30
0.0
 40
0.001
  1
TEMPERED
  3

  2
TRADENAME
 70
     0
1001
ACDBATTR
1070
     0
1070
     1
  0
ATTDEF
  5
2A1E9
  8
DEFPOINTS
 10
3041.850730372903854
 20
134.0108581823245117
 30
0.0
 40
0.001
  1
BATH
  3

  2
PRODUCT
 70
     0
1001
ACDBATTR
1070
     0
1070
     1
  0
ENDSEC
  0
EOF
