  0
SECTION
  2
HEADER
  9
$ACADVER
  1
AC1009
  9
$INSBASE
 10
2825.6154275073718054
 20
134.0093375460421043
 30
0.0
  9
$EXTMIN
 10
2792.1067231534361781
 20
134.0050246491807968
 30
-0.0000000349181948
  9
$EXTMAX
 10
2859.2938872895579152
 20
159.0067765904308885
 30
0.0000000814935746
  9
$LIMMIN
 10
0.0
 20
0.0
  9
$LIMMAX
 10
11.6929133858000007
 20
8.2677165353999982
  9
$ORTHOMODE
 70
     1
  9
$REGENMODE
 70
     1
  9
$FILLMODE
 70
     1
  9
$QTEXTMODE
 70
     0
  9
$MIRRTEXT
 70
     0
  9
$DRAGMODE
 70
     2
  9
$LTSCALE
 40
0.6431102362
  9
$OSMODE
 70
  4095
  9
$ATTMODE
 70
     1
  9
$TEXTSIZE
 40
0.2
  9
$TRACEWID
 40
0.05
  9
$TEXTSTYLE
  7
STANDARD
  9
$CLAYER
  8
0
  9
$CELTYPE
  6
BYLAYER
  9
$CECOLOR
 62
     1
  9
$DIMSCALE
 40
1.0
  9
$DIMASZ
 40
0.1875
  9
$DIMEXO
 40
0.0625
  9
$DIMDLI
 40
0.4443307087
  9
$DIMRND
 40
0.0
  9
$DIMDLE
 40
0.0
  9
$DIMEXE
 40
0.125
  9
$DIMTP
 40
0.01
  9
$DIMTM
 40
0.01
  9
$DIMTXT
 40
2.0
  9
$DIMCEN
 40
0.1052362205
  9
$DIMTSZ
 40
0.0
  9
$DIMTOL
 70
     1
  9
$DIMLIM
 70
     0
  9
$DIMTIH
 70
     1
  9
$DIMTOH
 70
     1
  9
$DIMSE1
 70
     0
  9
$DIMSE2
 70
     0
  9
$DIMTAD
 70
     0
  9
$DIMZIN
 70
     0
  9
$DIMBLK
  1

  9
$DIMASO
 70
     1
  9
$DIMSHO
 70
     1
  9
$DIMPOST
  1
\X
  9
$DIMAPOST
  1

  9
$DIMALT
 70
     1
  9
$DIMALTD
 70
     2
  9
$DIMALTF
 40
25.3999999999999986
  9
$DIMLFAC
 40
1.0
  9
$DIMTOFL
 70
     0
  9
$DIMTVP
 40
0.0
  9
$DIMTIX
 70
     0
  9
$DIMSOXD
 70
     0
  9
$DIMSAH
 70
     0
  9
$DIMBLK1
  1

  9
$DIMBLK2
  1

  9
$DIMSTYLE
  2
STANDARD
  9
$DIMCLRD
 70
     0
  9
$DIMCLRE
 70
     0
  9
$DIMCLRT
 70
     0
  9
$DIMTFAC
 40
1.0
  9
$DIMGAP
 40
0.09
  9
$LUNITS
 70
     2
  9
$LUPREC
 70
     4
  9
$SKETCHINC
 40
0.1
  9
$FILLETRAD
 40
0.0
  9
$AUNITS
 70
     0
  9
$AUPREC
 70
     0
  9
$MENU
  1
.
  9
$ELEVATION
 40
0.0
  9
$PELEVATION
 40
0.0
  9
$THICKNESS
 40
0.0
  9
$LIMCHECK
 70
     0
  9
$BLIPMODE
 70
     0
  9
$CHAMFERA
 40
0.0
  9
$CHAMFERB
 40
0.0
  9
$SKPOLY
 70
     0
  9
$TDCREATE
 40
2458060.468368056230247
  9
$TDUPDATE
 40
2459653.4653587960638106
  9
$TDINDWG
 40
0.4685255787
  9
$TDUSRTIMER
 40
0.4685255787
  9
$USRTIMER
 70
     1
  9
$ANGBASE
 50
0.0
  9
$ANGDIR
 70
     0
  9
$PDMODE
 70
     0
  9
$PDSIZE
 40
0.3125
  9
$PLINEWID
 40
0.0
  9
$COORDS
 70
     1
  9
$SPLFRAME
 70
     0
  9
$SPLINETYPE
 70
     6
  9
$SPLINESEGS
 70
     8
  9
$ATTDIA
 70
     1
  9
$ATTREQ
 70
     1
  9
$HANDLING
 70
     1
  9
$HANDSEED
  5
2BBF2
  9
$SURFTAB1
 70
     6
  9
$SURFTAB2
 70
     6
  9
$SURFTYPE
 70
     6
  9
$SURFU
 70
     6
  9
$SURFV
 70
     6
  9
$UCSNAME
  2

  9
$UCSORG
 10
0.0
 20
0.0
 30
0.0
  9
$UCSXDIR
 10
1.0
 20
0.0
 30
0.0
  9
$UCSYDIR
 10
0.0
 20
1.0
 30
0.0
  9
$PUCSNAME
  2

  9
$PUCSORG
 10
0.0
 20
0.0
 30
0.0
  9
$PUCSXDIR
 10
1.0
 20
0.0
 30
0.0
  9
$PUCSYDIR
 10
0.0
 20
1.0
 30
0.0
  9
$USERI1
 70
     0
  9
$USERI2
 70
     0
  9
$USERI3
 70
     0
  9
$USERI4
 70
     0
  9
$USERI5
 70
     0
  9
$USERR1
 40
0.0
  9
$USERR2
 40
0.0
  9
$USERR3
 40
0.0
  9
$USERR4
 40
0.0
  9
$USERR5
 40
0.0
  9
$WORLDVIEW
 70
     1
  9
$SHADEDGE
 70
     3
  9
$SHADEDIF
 70
    70
  9
$TILEMODE
 70
     1
  9
$MAXACTVP
 70
    64
  9
$PLIMCHECK
 70
     0
  9
$PEXTMIN
 10
1.0000000000000000E+20
 20
1.0000000000000000E+20
 30
1.0000000000000000E+20
  9
$PEXTMAX
 10
-1.0000000000000000E+20
 20
-1.0000000000000000E+20
 30
-1.0000000000000000E+20
  9
$PLIMMIN
 10
0.0
 20
0.0
  9
$PLIMMAX
 10
12.0
 20
9.0
  9
$UNITMODE
 70
     0
  9
$VISRETAIN
 70
     1
  9
$PLINEGEN
 70
     0
  9
$PSLTSCALE
 70
     1
  0
ENDSEC
  0
SECTION
  2
TABLES
  0
TABLE
  2
VPORT
 70
     1
  0
VPORT
  2
*ACTIVE
 70
     0
 10
0.0
 20
0.0
 11
1.0
 21
1.0
 12
-977.8437621613156807
 22
20.51063842305593
 13
0.0
 23
0.0
 14
1.0
 24
1.0
 15
0.0
 25
0.0
 16
0.0
 26
0.0
 36
17.1152628219792007
 17
3803.5440673828129547
 27
125.9952621967499056
 37
0.0
 40
29.5196283386840186
 41
2.2831541218637992
 42
50.0
 43
0.0
 44
0.0
 50
0.0
 51
0.0
 71
     0
 72
   100
 73
     1
 74
     1
 75
     0
 76
     0
 77
     0
 78
     0
  0
ENDTAB
  0
TABLE
  2
LTYPE
 70
     2
  0
LTYPE
  2
CONTINUOUS
 70
     0
  3
Solid line
 72
    65
 73
     0
 40
0.0
  0
LTYPE
  2
PHANTOM2
 70
     0
  3
___ _ _ ___ _ _ ___ _ _ ___ _ _
 72
    65
 73
     6
 40
1.25
 49
0.625
 49
-0.125
 49
0.125
 49
-0.125
 49
0.125
 49
-0.125
  0
ENDTAB
  0
TABLE
  2
LAYER
 70
     2
  0
LAYER
  2
0
 70
     0
 62
   255
  6
CONTINUOUS
  0
LAYER
  2
DEFPOINTS
 70
     0
 62
     7
  6
CONTINUOUS
  0
ENDTAB
  0
TABLE
  2
STYLE
 70
     1
  0
STYLE
  2
STANDARD
 70
     0
 40
0.0
 41
0.8
 50
0.0
 71
     0
 42
0.2
  3
txt
  4

  0
ENDTAB
  0
TABLE
  2
VIEW
 70
     0
  0
ENDTAB
  0
TABLE
  2
UCS
 70
     0
  0
ENDTAB
  0
TABLE
  2
APPID
 70
     9
  0
APPID
  2
ACAD
 70
     0
  0
APPID
  2
ACAD_MLEADERVER
 70
     0
  0
APPID
  2
ACAD_EXEMPT_FROM_CAD_STANDARDS
 70
     0
  0
APPID
  2
ACAD_NAV_VCDISPLAY
 70
     0
  0
APPID
  2
ACAECLAYERSTANDARD
 70
     0
  0
APPID
  2
ACCMTRANSPARENCY
 70
     0
  0
APPID
  2
ACAD_DSTYLE_DIMJAG
 70
     0
  0
APPID
  2
ACAD_DSTYLE_DIMTALN
 70
     0
  0
APPID
  2
ACDBATTR
 70
     0
  0
ENDTAB
  0
TABLE
  2
DIMSTYLE
 70
     1
  0
DIMSTYLE
  2
STANDARD
 70
     0
  3

  4

  5

  6

  7

 40
1.0
 41
0.1875
 42
0.0625
 43
0.38
 44
0.125
 45
0.0
 46
0.0
 47
0.01
 48
0.01
140
0.15625
141
0.09
142
0.0
143
25.3999999999999986
144
1.0
145
0.0
146
1.0
147
0.09
 71
     1
 72
     0
 73
     1
 74
     1
 75
     0
 76
     0
 77
     0
 78
     4
170
     0
171
     2
172
     0
173
     0
174
     0
175
     0
176
     0
177
     0
178
     0
  0
ENDTAB
  0
ENDSEC
  0
SECTION
  2
BLOCKS
  0
BLOCK
  8
0
  2
$MODEL_SPACE
 70
     0
 10
0.0
 20
0.0
 30
0.0
  3
$MODEL_SPACE
  1

  0
ENDBLK
  5
21
  8
0
  0
BLOCK
 67
     1
  8
0
  2
$PAPER_SPACE
 70
     0
 10
0.0
 20
0.0
 30
0.0
  3
$PAPER_SPACE
  1

  0
ENDBLK
  5
1D
 67
     1
  8
0
  0
BLOCK
  8
0
  2
_FILLED
 70
     0
 10
0.0
 20
0.0
 30
0.0
  3
_FILLED
  1

  0
SOLID
  5
2AE28
  8
0
  6
BYBLOCK
 62
     0
 10
0.0
 20
0.0
 30
0.0
 11
-1.0
 21
0.1666666667
 31
0.0
 12
-1.0
 22
-0.1666666667
 32
0.0
 13
-1.0
 23
-0.1666666667
 33
0.0
  0
ENDBLK
  5
2AE29
  8
0
  6
BYBLOCK
 62
     0
  0
ENDSEC
  0
SECTION
  2
ENTITIES
  0
ATTDEF
  5
2B694
  8
DEFPOINTS
 10
2825.6166961705871472
 20
134.0141915156578136
 30
0.0
 40
0.001
  1
K-24460T-FD
  3

  2
MODELNUMBER
 70
     0
1001
ACDBATTR
1070
     0
1070
     1
  0
ATTDEF
  5
2B695
  8
DEFPOINTS
 10
2825.6166961705871472
 20
134.0125248489912053
 30
0.0
 40
0.001
  1
TEMPERED
  3

  2
TRADENAME
 70
     0
1001
ACDBATTR
1070
     0
1070
     1
  0
ATTDEF
  5
2B696
  8
DEFPOINTS
 10
2825.6166961705871472
 20
134.0108581823245117
 30
0.0
 40
0.001
  1
BATH
  3

  2
PRODUCT
 70
     0
1001
ACDBATTR
1070
     0
1070
     1
  0
LINE
  5
2B8A5
  8
0
 10
2858.9224645152221456
 20
134.0093375460421043
 30
0.0
 11
2792.3083904995228295
 21
134.0093375460421043
 31
0.0
  0
LINE
  5
2B8A6
  8
0
 10
2792.1114904995229153
 20
134.2062375460421038
 30
0.0
 11
2792.1114904995229153
 21
157.6313351838421966
 31
0.0
  0
LINE
  5
2B8A7
  8
0
 10
2859.1193645152220597
 20
157.8282351838421107
 30
0.0
 11
2792.1902383684218876
 21
157.8282351838421107
 31
0.0
  0
LINE
  5
2B8A8
  8
0
 10
2858.8884114528541431
 20
158.9970712908420865
 30
0.0
 11
2792.421199145997889
 21
158.9970712908420865
 31
0.0
  0
LINE
  5
2B8A9
  8
0
 10
2792.2244190921687732
 20
158.8070430020542005
 30
0.0
 11
2792.1902383684218876
 21
157.8282351838421107
 31
0.0
  0
LINE
  5
2B8AA
  8
0
 10
2859.1193645152220597
 20
134.2062375460421038
 30
0.0
 11
2859.1193645152220597
 21
157.6313351838421966
 31
0.0
  0
LINE
  5
2B8AB
  8
0
 10
2859.0851915066828042
 20
158.8070430020526089
 30
0.0
 11
2859.1193645152220597
 21
157.8282351838421107
 31
0.0
  0
ARC
  5
2B8AC
  8
0
 10
2858.9224645152221456
 20
134.2062375460421038
 30
0.0
 40
0.1969
 50
270.0
 51
0.0
  0
ARC
  5
2B8AD
  8
0
 10
2792.3083904995228295
 20
134.2062375460421038
 30
0.0
 40
0.1969
 50
180.0
 51
270.0
  0
ARC
  5
2B8AE
  8
0
 10
2792.3083904995228295
 20
157.6313351838421966
 30
0.0
 40
0.1969
 50
90.0
 51
180.0
  0
ARC
  5
2B8AF
  8
0
 10
2792.421199145997889
 20
158.800171290842087
 30
0.0
 40
0.1969
 50
90.0
 51
177.9999999093525105
  0
ARC
  5
2B8B0
  8
0
 10
2858.8884114528541431
 20
158.8001712908422007
 30
0.0
 40
0.1969
 50
2.0000000901730082
 51
90.0
  0
ARC
  5
2B8B1
  8
0
 10
2858.9224645152221456
 20
157.6313351838421966
 30
0.0
 40
0.1969
 50
0.0
 51
90.0
  0
LINE
  5
2B8B2
  8
0
 10
2823.7170100796711267
 20
156.3528541824541094
 30
0.0
 11
2797.9108079710799757
 21
156.3528541824541094
 31
0.0
  0
LINE
  5
2B8B3
  8
0
 10
2796.0658503160220789
 20
155.0650116555420936
 30
0.0
 11
2796.0658503160220789
 21
148.5678654131714893
 31
0.0
  0
LINE
  5
2B8B4
  8
0
 10
2823.9955670388230828
 20
156.6314116555421094
 30
0.0
 11
2797.6322503160217821
 21
156.6314116555421094
 31
0.0
  0
LINE
  5
2B8B5
  8
0
 10
2796.3444079710798178
 20
154.7864541824540083
 30
0.0
 11
2796.3444079710798178
 21
148.5678654131714893
 31
0.0
  0
LINE
  5
2B8B6
  8
0
 10
2797.6322503160217821
 20
147.001465413171502
 30
0.0
 11
2823.9955670388230828
 21
147.001465413171502
 31
0.0
  0
LINE
  5
2B8B7
  8
0
 10
2825.2834100796721941
 20
154.7864541824540083
 30
0.0
 11
2825.2834100796721941
 21
148.5678654131714893
 31
0.0
  0
LINE
  5
2B8B8
  8
0
 10
2825.561967038822786
 20
155.0650116555420936
 30
0.0
 11
2825.561967038822786
 21
148.5678654131714893
 31
0.0
  0
ARC
  5
2B8B9
  8
0
 10
2823.7170100796720362
 20
154.7864541824540083
 30
0.0
 40
1.5663999999999989
 50
0.0
 51
90.0
  0
ARC
  5
2B8BA
  8
0
 10
2823.9955670388230828
 20
155.0650116555420936
 30
0.0
 40
1.5663999999999989
 50
0.0
 51
90.0
  0
ARC
  5
2B8BB
  8
0
 10
2797.9108079710799757
 20
154.7864541824540083
 30
0.0
 40
1.5663999999999989
 50
90.0
 51
180.0
  0
ARC
  5
2B8BC
  8
0
 10
2797.6322503160217821
 20
155.0650116555420936
 30
0.0
 40
1.5663999999999989
 50
90.0
 51
180.0
  0
ARC
  5
2B8BD
  8
0
 10
2797.9108079710799757
 20
148.5678654131714893
 30
0.0
 40
1.5663999999999989
 50
180.0
 51
270.0
  0
ARC
  5
2B8BE
  8
0
 10
2797.6322503160217821
 20
148.5678654131714893
 30
0.0
 40
1.5663999999999989
 50
180.0
 51
270.0
  0
ARC
  5
2B8BF
  8
0
 10
2823.7170100796720362
 20
148.5678654131714893
 30
0.0
 40
1.5663999999999989
 50
270.0
 51
0.0
  0
ARC
  5
2B8C0
  8
0
 10
2823.9955670388230828
 20
148.5678654131714893
 30
0.0
 40
1.5663999999999989
 50
270.0
 51
0.0
  0
LINE
  5
2B8C1
  8
0
 10
2797.6282677675039849
 20
135.2832883361421068
 30
0.0
 11
2809.0248500133220659
 21
135.2832883361421068
 31
0.0
  0
LINE
  5
2B8C2
  8
0
 10
2796.0501677675038081
 20
144.0313025040420882
 30
0.0
 11
2796.0501677675038081
 21
136.8613883361421131
 31
0.0
  0
LINE
  5
2B8C3
  8
0
 10
2797.6282677675039849
 20
145.6094025040420945
 30
0.0
 11
2809.0248500133220659
 21
145.6094025040420945
 31
0.0
  0
LINE
  5
2B8C4
  8
0
 10
2810.602950013321788
 20
136.8613883361421131
 30
0.0
 11
2810.602950013321788
 21
144.0313025040420882
 31
0.0
  0
ARC
  5
2B8C5
  8
0
 10
2797.6282677675039849
 20
144.0313025040420882
 30
0.0
 40
1.5781000000000001
 50
90.0
 51
180.0
  0
ARC
  5
2B8C6
  8
0
 10
2797.6282677675039849
 20
136.8613883361421131
 30
0.0
 40
1.5781000000000001
 50
180.0
 51
270.0
  0
ARC
  5
2B8C7
  8
0
 10
2809.0248500133220659
 20
136.8613883361421131
 30
0.0
 40
1.5781000000000001
 50
270.0
 51
0.0
  0
ARC
  5
2B8C8
  8
0
 10
2809.0248500133220659
 20
144.0313025040420882
 30
0.0
 40
1.5781000000000001
 50
0.0
 51
90.0
  0
CIRCLE
  5
2B8C9
  8
0
 10
2827.702041680522143
 20
134.7967391208422043
 30
0.0
 40
0.1968503937000001
  0
CIRCLE
  5
2B8CA
  8
0
 10
2856.9540101844218043
 20
134.7967391208422043
 30
0.0
 40
0.1968503936999987
  0
LINE
  5
2B8CB
  8
0
 10
2852.3107983176128073
 20
155.6077627429421
 30
0.0
 11
2832.3902141773319272
 21
155.6077627429421
 31
0.0
  0
LINE
  5
2B8CC
  8
0
 10
2852.3107981077209843
 20
156.7101249476421003
 30
0.0
 11
2832.390214387224205
 21
156.7101249476421003
 31
0.0
  0
LINE
  5
2B8CD
  8
0
 10
2832.0355456175220752
 20
156.0277863009328883
 30
0.0
 11
2832.0355456175220752
 21
156.2901013897514133
 31
0.0
  0
ARC
  5
2B8CE
  8
0
 10
2833.0721233082140316
 20
156.0631119663970878
 30
0.0
 40
1.0371794499895799
 50
181.9518349175295953
 51
190.1613416994896966
  0
ARC
  5
2B8CF
  8
0
 10
2832.3637109202159081
 20
155.9361418498830858
 30
0.0
 40
0.317478455160513
 50
190.1613416994896966
 51
225.0272840928734865
  0
ARC
  5
2B8D0
  8
0
 10
2832.3900452516500081
 20
155.9625012739406884
 30
0.0
 40
0.3547385712194739
 50
225.0272840928550977
 51
270.0272841179818215
  0
ARC
  5
2B8D1
  8
0
 10
2833.0721233082140316
 20
156.2547757242872137
 30
0.0
 40
1.0371794499895799
 50
169.8386583005103034
 51
178.0481650824686994
  0
ARC
  5
2B8D2
  8
0
 10
2832.3637109202159081
 20
156.3817458408011873
 30
0.0
 40
0.317478455160513
 50
134.9727159071263998
 51
169.8386583005103034
  0
ARC
  5
2B8D3
  8
0
 10
2832.3900452516500081
 20
156.3553864167436132
 30
0.0
 40
0.3547385712194739
 50
89.9727158820181501
 51
134.9727159071449023
  0
LINE
  5
2B8D4
  8
0
 10
2852.6654668774222046
 20
156.0277863009328883
 30
0.0
 11
2852.6654668774222046
 21
156.2901013897514133
 31
0.0
  0
ARC
  5
2B8D5
  8
0
 10
2851.6288891867311577
 20
156.0631119663970878
 30
0.0
 40
1.0371794499895799
 50
349.8386583005101897
 51
358.0481650824688131
  0
ARC
  5
2B8D6
  8
0
 10
2852.3373015747288264
 20
155.9361418498830858
 30
0.0
 40
0.317478455160513
 50
314.972715907126485
 51
349.8386583005101897
  0
ARC
  5
2B8D7
  8
0
 10
2852.3109672432951811
 20
155.9625012739406884
 30
0.0
 40
0.3547385712194739
 50
269.9727158820181216
 51
314.972715907126485
  0
ARC
  5
2B8D8
  8
0
 10
2851.6288891867311577
 20
156.2547757242872137
 30
0.0
 40
1.0371794499895799
 50
1.951834917529609
 51
10.1613416994897197
  0
ARC
  5
2B8D9
  8
0
 10
2852.3373015747288264
 20
156.3817458408011873
 30
0.0
 40
0.317478455160513
 50
10.1613416994897197
 51
45.0272840928735292
  0
ARC
  5
2B8DA
  8
0
 10
2852.3109672432951811
 20
156.3553864167436132
 30
0.0
 40
0.3547385712194739
 50
45.0272840928735292
 51
90.0272841179818641
  0
ENDSEC
  0
EOF
