  0
SECTION
  2
HEADER
  9
$ACADVER
  1
AC1009
  9
$INSBASE
 10
198.4376286379502119
 20
20.93509813596771
 30
0.0
  9
$EXTMIN
 10
164.9173052598540892
 20
20.9324927013789299
 30
-0.0000000000000058
  9
$EXTMAX
 10
231.9488031527089902
 20
46.5152307721267206
 30
0.0000000000000104
  9
$LIMMIN
 10
0.0
 20
0.0
  9
$LIMMAX
 10
11.6929133858000007
 20
8.2677165353999982
  9
$ORTHOMODE
 70
     0
  9
$REGENMODE
 70
     1
  9
$FILLMODE
 70
     1
  9
$QTEXTMODE
 70
     0
  9
$MIRRTEXT
 70
     0
  9
$DRAGMODE
 70
     2
  9
$LTSCALE
 40
0.6431102362
  9
$OSMODE
 70
  4095
  9
$ATTMODE
 70
     1
  9
$TEXTSIZE
 40
0.2
  9
$TRACEWID
 40
0.05
  9
$TEXTSTYLE
  7
STANDARD
  9
$CLAYER
  8
0
  9
$CELTYPE
  6
BYLAYER
  9
$CECOLOR
 62
   256
  9
$DIMSCALE
 40
1.0
  9
$DIMASZ
 40
0.1875
  9
$DIMEXO
 40
0.0625
  9
$DIMDLI
 40
0.4443307087
  9
$DIMRND
 40
0.0
  9
$DIMDLE
 40
0.0
  9
$DIMEXE
 40
0.125
  9
$DIMTP
 40
0.01
  9
$DIMTM
 40
0.01
  9
$DIMTXT
 40
1.0
  9
$DIMCEN
 40
0.1052362205
  9
$DIMTSZ
 40
0.0
  9
$DIMTOL
 70
     1
  9
$DIMLIM
 70
     0
  9
$DIMTIH
 70
     0
  9
$DIMTOH
 70
     1
  9
$DIMSE1
 70
     0
  9
$DIMSE2
 70
     0
  9
$DIMTAD
 70
     0
  9
$DIMZIN
 70
     0
  9
$DIMBLK
  1

  9
$DIMASO
 70
     1
  9
$DIMSHO
 70
     1
  9
$DIMPOST
  1
\X
  9
$DIMAPOST
  1

  9
$DIMALT
 70
     1
  9
$DIMALTD
 70
     2
  9
$DIMALTF
 40
25.3999999999999986
  9
$DIMLFAC
 40
1.0
  9
$DIMTOFL
 70
     0
  9
$DIMTVP
 40
0.0
  9
$DIMTIX
 70
     0
  9
$DIMSOXD
 70
     0
  9
$DIMSAH
 70
     0
  9
$DIMBLK1
  1

  9
$DIMBLK2
  1

  9
$DIMSTYLE
  2
STANDARD
  9
$DIMCLRD
 70
     0
  9
$DIMCLRE
 70
     0
  9
$DIMCLRT
 70
     0
  9
$DIMTFAC
 40
1.0
  9
$DIMGAP
 40
0.09
  9
$LUNITS
 70
     2
  9
$LUPREC
 70
     4
  9
$SKETCHINC
 40
0.1
  9
$FILLETRAD
 40
0.0
  9
$AUNITS
 70
     0
  9
$AUPREC
 70
     0
  9
$MENU
  1
.
  9
$ELEVATION
 40
0.0
  9
$PELEVATION
 40
0.0
  9
$THICKNESS
 40
0.0
  9
$LIMCHECK
 70
     0
  9
$BLIPMODE
 70
     0
  9
$CHAMFERA
 40
0.0
  9
$CHAMFERB
 40
0.0
  9
$SKPOLY
 70
     0
  9
$TDCREATE
 40
2458172.5207638889551163
  9
$TDUPDATE
 40
2459867.6013541668653488
  9
$TDINDWG
 40
0.0652889815
  9
$TDUSRTIMER
 40
0.0652889815
  9
$USRTIMER
 70
     1
  9
$ANGBASE
 50
0.0
  9
$ANGDIR
 70
     0
  9
$PDMODE
 70
     0
  9
$PDSIZE
 40
0.3125
  9
$PLINEWID
 40
0.0
  9
$COORDS
 70
     1
  9
$SPLFRAME
 70
     0
  9
$SPLINETYPE
 70
     6
  9
$SPLINESEGS
 70
     8
  9
$ATTDIA
 70
     1
  9
$ATTREQ
 70
     1
  9
$HANDLING
 70
     1
  9
$HANDSEED
  5
1283
  9
$SURFTAB1
 70
     6
  9
$SURFTAB2
 70
     6
  9
$SURFTYPE
 70
     6
  9
$SURFU
 70
     6
  9
$SURFV
 70
     6
  9
$UCSNAME
  2

  9
$UCSORG
 10
0.0
 20
0.0
 30
0.0
  9
$UCSXDIR
 10
1.0
 20
0.0
 30
0.0
  9
$UCSYDIR
 10
0.0
 20
1.0
 30
0.0
  9
$PUCSNAME
  2

  9
$PUCSORG
 10
0.0
 20
0.0
 30
0.0
  9
$PUCSXDIR
 10
1.0
 20
0.0
 30
0.0
  9
$PUCSYDIR
 10
0.0
 20
1.0
 30
0.0
  9
$USERI1
 70
     0
  9
$USERI2
 70
     0
  9
$USERI3
 70
     0
  9
$USERI4
 70
     0
  9
$USERI5
 70
     0
  9
$USERR1
 40
0.0
  9
$USERR2
 40
0.0
  9
$USERR3
 40
0.0
  9
$USERR4
 40
0.0
  9
$USERR5
 40
0.0
  9
$WORLDVIEW
 70
     1
  9
$SHADEDGE
 70
     3
  9
$SHADEDIF
 70
    70
  9
$TILEMODE
 70
     1
  9
$MAXACTVP
 70
    64
  9
$PLIMCHECK
 70
     0
  9
$PEXTMIN
 10
1.0000000000000000E+20
 20
1.0000000000000000E+20
 30
1.0000000000000000E+20
  9
$PEXTMAX
 10
-1.0000000000000000E+20
 20
-1.0000000000000000E+20
 30
-1.0000000000000000E+20
  9
$PLIMMIN
 10
0.0
 20
0.0
  9
$PLIMMAX
 10
12.0
 20
9.0
  9
$UNITMODE
 70
     0
  9
$VISRETAIN
 70
     1
  9
$PLINEGEN
 70
     0
  9
$PSLTSCALE
 70
     1
  0
ENDSEC
  0
SECTION
  2
TABLES
  0
TABLE
  2
VPORT
 70
     1
  0
VPORT
  2
*ACTIVE
 70
     0
 10
0.0
 20
0.0
 11
1.0
 21
1.0
 12
136.5332390977548869
 22
14.1168018444968801
 13
0.0
 23
0.0
 14
1.0
 24
1.0
 15
0.0
 25
0.0
 16
-0.0000000000000071
 26
0.0
 36
29.9165360186120388
 17
61.8998151085265818
 27
19.6070598922559505
 37
0.0
 40
42.4948824190100396
 41
1.5824829931972779
 42
50.0
 43
0.0
 44
0.0
 50
0.0
 51
0.0
 71
     0
 72
   100
 73
     1
 74
     1
 75
     0
 76
     0
 77
     0
 78
     0
  0
ENDTAB
  0
TABLE
  2
LTYPE
 70
     2
  0
LTYPE
  2
CONTINUOUS
 70
     0
  3
Solid line
 72
    65
 73
     0
 40
0.0
  0
LTYPE
  2
PHANTOM2
 70
     0
  3
___ _ _ ___ _ _ ___ _ _ ___ _ _
 72
    65
 73
     6
 40
1.25
 49
0.625
 49
-0.125
 49
0.125
 49
-0.125
 49
0.125
 49
-0.125
  0
ENDTAB
  0
TABLE
  2
LAYER
 70
     2
  0
LAYER
  2
0
 70
     0
 62
   255
  6
CONTINUOUS
  0
LAYER
  2
DEFPOINTS
 70
     0
 62
     7
  6
CONTINUOUS
  0
ENDTAB
  0
TABLE
  2
STYLE
 70
     1
  0
STYLE
  2
STANDARD
 70
     0
 40
0.0
 41
0.8
 50
0.0
 71
     0
 42
0.2
  3
txt
  4

  0
ENDTAB
  0
TABLE
  2
VIEW
 70
     0
  0
ENDTAB
  0
TABLE
  2
UCS
 70
     0
  0
ENDTAB
  0
TABLE
  2
APPID
 70
    10
  0
APPID
  2
ACAD
 70
     0
  0
APPID
  2
ACAD_MLEADERVER
 70
     0
  0
APPID
  2
ACAD_EXEMPT_FROM_CAD_STANDARDS
 70
     0
  0
APPID
  2
ACAD_DSTYLE_DIMJAG
 70
     0
  0
APPID
  2
ACAD_DSTYLE_DIMTALN
 70
     0
  0
APPID
  2
ACAD_NAV_VCDISPLAY
 70
     0
  0
APPID
  2
ACAECLAYERSTANDARD
 70
     0
  0
APPID
  2
ACCMTRANSPARENCY
 70
     0
  0
APPID
  2
DCO15
 70
     0
  0
APPID
  2
ACDBATTR
 70
     0
  0
ENDTAB
  0
TABLE
  2
DIMSTYLE
 70
     1
  0
DIMSTYLE
  2
STANDARD
 70
     0
  3

  4

  5

  6

  7

 40
1.0
 41
0.1875
 42
0.0625
 43
0.38
 44
0.125
 45
0.0
 46
0.0
 47
0.01
 48
0.01
140
0.15625
141
0.09
142
0.0
143
25.3999999999999986
144
1.0
145
0.0
146
1.0
147
0.09
 71
     1
 72
     0
 73
     1
 74
     1
 75
     0
 76
     0
 77
     0
 78
     4
170
     0
171
     2
172
     0
173
     0
174
     0
175
     0
176
     0
177
     0
178
     0
  0
ENDTAB
  0
ENDSEC
  0
SECTION
  2
BLOCKS
  0
BLOCK
  8
0
  2
$MODEL_SPACE
 70
     0
 10
0.0
 20
0.0
 30
0.0
  3
$MODEL_SPACE
  1

  0
ENDBLK
  5
21
  8
0
  0
BLOCK
 67
     1
  8
0
  2
$PAPER_SPACE
 70
     0
 10
0.0
 20
0.0
 30
0.0
  3
$PAPER_SPACE
  1

  0
ENDBLK
  5
1D
 67
     1
  8
0
  0
ENDSEC
  0
SECTION
  2
ENTITIES
  0
ATTDEF
  5
829
  8
DEFPOINTS
 10
198.4343615547371087
 20
20.9394131033237798
 30
0.0
 40
0.001
  1
K-24460T
  3

  2
MODELNUMBER
 70
     0
1001
ACDBATTR
1070
     0
1070
     1
  0
ATTDEF
  5
82A
  8
DEFPOINTS
 10
198.4343615547371087
 20
20.9377464366571218
 30
0.0
 40
0.001
  1
ALEUTIAN 2.0
  3

  2
TRADENAME
 70
     0
1001
ACDBATTR
1070
     0
1070
     1
  0
ATTDEF
  5
82B
  8
DEFPOINTS
 10
198.4343615547371087
 20
20.9360797699904495
 30
0.0
 40
0.001
  1
BATH
  3

  2
PRODUCT
 70
     0
1001
ACDBATTR
1070
     0
1070
     1
  0
LINE
  5
109F
  8
0
 10
231.744665645800211
 20
21.525649317067721
 30
0.0
 11
165.1305916301002128
 21
21.525649317067721
 31
0.0
  0
LINE
  5
10A0
  8
0
 10
164.9336916301002134
 20
21.7225493170677204
 30
0.0
 11
164.9336916301002134
 21
45.1476469548677102
 31
0.0
  0
LINE
  5
10A1
  8
0
 10
231.9415656458002104
 20
45.3445469548677096
 30
0.0
 11
165.0124394990002088
 21
45.3445469548677096
 31
0.0
  0
LINE
  5
10A2
  8
0
 10
231.7106125834322086
 20
46.5133830618677067
 30
0.0
 11
165.2434002765762955
 21
46.5133830618677067
 31
0.0
  0
LINE
  5
10A3
  8
0
 10
165.0466202227470944
 20
46.3233547730797426
 30
0.0
 11
165.0124394990002088
 21
45.3445469548677096
 31
0.0
  0
LINE
  5
10A4
  8
0
 10
231.9415656458002104
 20
21.7225493170677204
 30
0.0
 11
231.9415656458002104
 21
45.1476469548677102
 31
0.0
  0
LINE
  5
10A5
  8
0
 10
231.9073926372614096
 20
46.3233547730781297
 30
0.0
 11
231.9415656458002104
 21
45.3445469548677096
 31
0.0
  0
ARC
  5
10A6
  8
0
 10
231.744665645800211
 20
21.7225493170677204
 30
0.0
 40
0.1969
 50
270.0000000000017053
 51
0.0
  0
ARC
  5
10A7
  8
0
 10
165.1305916301002128
 20
21.7225493170677204
 30
0.0
 40
0.1969
 50
180.0000000000007958
 51
269.9999999999992042
  0
ARC
  5
10A8
  8
0
 10
165.1305916301002128
 20
45.1476469548677102
 30
0.0
 40
0.1969
 50
90.0
 51
180.0
  0
ARC
  5
10A9
  8
0
 10
165.2434002765762955
 20
46.3164830618677072
 30
0.0
 40
0.1969
 50
90.0000000000032543
 51
177.9999999093531926
  0
ARC
  5
10AA
  8
0
 10
231.7106125834322086
 20
46.3164830618677215
 30
0.0
 40
0.1969
 50
2.0000000901742201
 51
90.0
  0
ARC
  5
10AB
  8
0
 10
231.744665645800211
 20
45.1476469548677102
 30
0.0
 40
0.1969
 50
0.0
 51
90.0
  0
LINE
  5
10AC
  8
0
 10
196.5392112102493059
 20
43.8691659534796301
 30
0.0
 11
170.7330091016580127
 21
43.8691659534796301
 31
0.0
  0
LINE
  5
10AD
  8
0
 10
168.8880514466002012
 20
42.5813234265677067
 30
0.0
 11
168.8880514466002012
 21
36.0841771841970385
 31
0.0
  0
LINE
  5
10AE
  8
0
 10
196.8177681694002104
 20
44.1477234265677083
 30
0.0
 11
170.4544514466001885
 21
44.1477234265677083
 31
0.0
  0
LINE
  5
10AF
  8
0
 10
169.1666091016579969
 20
42.3027659534796214
 30
0.0
 11
169.1666091016579969
 21
36.0841771841970385
 31
0.0
  0
LINE
  5
10B0
  8
0
 10
170.4544514466001885
 20
34.5177771841970511
 30
0.0
 11
196.8177681694002104
 21
34.5177771841970511
 31
0.0
  0
LINE
  5
10B1
  8
0
 10
198.1056112102492932
 20
42.3027659534796214
 30
0.0
 11
198.1056112102492932
 21
36.0841771841970385
 31
0.0
  0
LINE
  5
10B2
  8
0
 10
198.3841681694001977
 20
42.5813234265677067
 30
0.0
 11
198.3841681694001977
 21
36.0841771841970385
 31
0.0
  0
ARC
  5
10B3
  8
0
 10
196.5392112102493059
 20
42.3027659534796214
 30
0.0
 40
1.5663999999999989
 50
0.0
 51
90.0
  0
ARC
  5
10B4
  8
0
 10
196.8177681694002104
 20
42.5813234265677067
 30
0.0
 40
1.5663999999999989
 50
0.0
 51
90.0
  0
ARC
  5
10B5
  8
0
 10
170.7330091016580127
 20
42.3027659534796214
 30
0.0
 40
1.5663999999999989
 50
90.0
 51
180.0
  0
ARC
  5
10B6
  8
0
 10
170.4544514466001885
 20
42.5813234265677067
 30
0.0
 40
1.5663999999999989
 50
90.0
 51
180.0
  0
ARC
  5
10B7
  8
0
 10
170.7330091016580127
 20
36.0841771841970385
 30
0.0
 40
1.5663999999999989
 50
180.0
 51
270.0
  0
ARC
  5
10B8
  8
0
 10
170.4544514466001885
 20
36.0841771841970385
 30
0.0
 40
1.5663999999999989
 50
180.0
 51
270.0
  0
ARC
  5
10B9
  8
0
 10
196.5392112102493059
 20
36.0841771841970385
 30
0.0
 40
1.5663999999999989
 50
270.0
 51
0.0
  0
ARC
  5
10BA
  8
0
 10
196.8177681694002104
 20
36.0841771841970385
 30
0.0
 40
1.5663999999999989
 50
270.0
 51
0.0
  0
LINE
  5
10BB
  8
0
 10
170.4504688980815104
 20
22.7996001071677092
 30
0.0
 11
181.8470511439001882
 21
22.7996001071677092
 31
0.0
  0
LINE
  5
10BC
  8
0
 10
168.8723688980815894
 20
31.5476142750677191
 30
0.0
 11
168.8723688980815894
 21
24.3777001071677191
 31
0.0
  0
LINE
  5
10BD
  8
0
 10
170.4504688980815104
 20
33.1257142750677076
 30
0.0
 11
181.8470511439001882
 21
33.1257142750677076
 31
0.0
  0
LINE
  5
10BE
  8
0
 10
183.4251511439001945
 20
24.3777001071677191
 30
0.0
 11
183.4251511439001945
 21
31.5476142750677191
 31
0.0
  0
ARC
  5
10BF
  8
0
 10
170.4504688980815104
 20
31.5476142750677191
 30
0.0
 40
1.5781000000000001
 50
90.0
 51
180.0
  0
ARC
  5
10C0
  8
0
 10
170.4504688980815104
 20
24.3777001071677084
 30
0.0
 40
1.5781000000000001
 50
180.0
 51
270.0
  0
ARC
  5
10C1
  8
0
 10
181.8470511439001882
 20
24.3777001071677191
 30
0.0
 40
1.5781000000000001
 50
270.0
 51
0.0
  0
ARC
  5
10C2
  8
0
 10
181.8470511439001882
 20
31.5476142750677191
 30
0.0
 40
1.5781000000000001
 50
0.0
 51
90.0
  0
LINE
  5
10C3
  8
0
 10
227.1179829686001881
 20
20.93509813596771
 30
0.0
 11
229.0864869056001965
 21
20.93509813596771
 31
0.0
  0
LINE
  5
10C4
  8
0
 10
227.1179829686001881
 20
20.93509813596771
 30
0.0
 11
227.1179829686001881
 21
21.4469091596677188
 31
0.0
  0
LINE
  5
10C5
  8
0
 10
229.0864869056001965
 20
20.93509813596771
 30
0.0
 11
229.0864869056001965
 21
21.4469091596677188
 31
0.0
  0
ARC
  5
10C6
  8
0
 10
227.2360932048001985
 20
21.4469091596677188
 30
0.0
 40
0.1181102362
 50
138.1896851476101915
 51
180.0
  0
ARC
  5
10C7
  8
0
 10
228.9683766694001861
 20
21.4469091596677188
 30
0.0
 40
0.1181102362
 50
0.0
 51
41.8103148523886574
  0
LINE
  5
10C8
  8
0
 10
197.8856995040002005
 20
20.93509813596771
 30
0.0
 11
199.8542034410002088
 21
20.93509813596771
 31
0.0
  0
LINE
  5
10C9
  8
0
 10
197.8856995040002005
 20
20.93509813596771
 30
0.0
 11
197.8856995040002005
 21
21.4469091596677188
 31
0.0
  0
LINE
  5
10CA
  8
0
 10
199.8542034410002088
 20
20.93509813596771
 30
0.0
 11
199.8542034410002088
 21
21.4469091596677188
 31
0.0
  0
ARC
  5
10CB
  8
0
 10
198.0038097402002109
 20
21.4469091596677188
 30
0.0
 40
0.1181102362
 50
138.1896851476101915
 51
180.0
  0
ARC
  5
10CC
  8
0
 10
199.7360932048001985
 20
21.4469091596677188
 30
0.0
 40
0.1181102362
 50
0.0
 51
41.8103148523898085
  0
LINE
  5
10CD
  8
0
 10
166.9998727324002061
 20
20.93509813596771
 30
0.0
 11
168.9683766694001861
 21
20.93509813596771
 31
0.0
  0
LINE
  5
10CE
  8
0
 10
166.9998727324002061
 20
20.93509813596771
 30
0.0
 11
166.9998727324002061
 21
21.4469091596677188
 31
0.0
  0
LINE
  5
10CF
  8
0
 10
168.9683766694001861
 20
20.93509813596771
 30
0.0
 11
168.9683766694001861
 21
21.4469091596677188
 31
0.0
  0
ARC
  5
10D0
  8
0
 10
167.1179829686001881
 20
21.4469091596677188
 30
0.0
 40
0.1181102362
 50
138.1896851476101915
 51
180.0
  0
ARC
  5
10D1
  8
0
 10
168.8502664332002041
 20
21.4469091596677188
 30
0.0
 40
0.1181102362
 50
0.0
 51
41.8103148523898085
  0
CIRCLE
  5
10D2
  8
0
 10
200.5242428111002937
 20
22.3130508918677215
 30
0.0
 40
0.1968503937000001
  0
CIRCLE
  5
10D3
  8
0
 10
229.7762113150002108
 20
22.3130508918677215
 30
0.0
 40
0.1968503936999987
  0
LINE
  5
10D4
  8
0
 10
225.1329994481905032
 20
43.1240745139676989
 30
0.0
 11
205.2124153079099074
 21
43.1240745139676989
 31
0.0
  0
LINE
  5
10D5
  8
0
 10
225.1329992382979981
 20
44.2264367186677134
 30
0.0
 11
205.2124155178024978
 21
44.2264367186677134
 31
0.0
  0
LINE
  5
10D6
  8
0
 10
204.8577467481001975
 20
43.5440980719584587
 30
0.0
 11
204.8577467481001975
 21
43.8064131607769767
 31
0.0
  0
ARC
  5
10D7
  8
0
 10
205.8943244387922107
 20
43.5794237374226583
 30
0.0
 40
1.0371794499895799
 50
181.9518349175299932
 51
190.1613416994906913
  0
ARC
  5
10D8
  8
0
 10
205.1859120507932914
 20
43.4524536209086278
 30
0.0
 40
0.317478455160513
 50
190.1613416994906913
 51
225.0272840928643063
  0
ARC
  5
10D9
  8
0
 10
205.2122463822273062
 20
43.4788130449662518
 30
0.0
 40
0.3547385712194739
 50
225.0272840928643063
 51
270.0272841179801731
  0
ARC
  5
10DA
  8
0
 10
205.8943244387922107
 20
43.7710874953127629
 30
0.0
 40
1.0371794499895799
 50
169.8386583005093087
 51
178.0481650824698932
  0
ARC
  5
10DB
  8
0
 10
205.1859120507932914
 20
43.8980576118268075
 30
0.0
 40
0.317478455160513
 50
134.9727159071352958
 51
169.8386583005093087
  0
ARC
  5
10DC
  8
0
 10
205.2122463822273062
 20
43.8716981877691907
 30
0.0
 40
0.3547385712194739
 50
89.9727158820189743
 51
134.9727159071356937
  0
LINE
  5
10DD
  8
0
 10
225.4876680080002131
 20
43.5440980719584587
 30
0.0
 11
225.4876680080002131
 21
43.8064131607769767
 31
0.0
  0
ARC
  5
10DE
  8
0
 10
224.4510903173081999
 20
43.5794237374226583
 30
0.0
 40
1.0371794499895799
 50
349.8386583005092803
 51
358.0481650824698932
  0
ARC
  5
10DF
  8
0
 10
225.1595027053072045
 20
43.4524536209086278
 30
0.0
 40
0.317478455160513
 50
314.9727159071354095
 51
349.8386583005092803
  0
ARC
  5
10E0
  8
0
 10
225.1331683738731044
 20
43.4788130449662518
 30
0.0
 40
0.3547385712194739
 50
269.9727158820189175
 51
314.9727159071356937
  0
ARC
  5
10E1
  8
0
 10
224.4510903173081999
 20
43.7710874953127629
 30
0.0
 40
1.0371794499895799
 50
1.951834917530062
 51
10.1613416994907197
  0
ARC
  5
10E2
  8
0
 10
225.1595027053072045
 20
43.8980576118268075
 30
0.0
 40
0.317478455160513
 50
10.1613416994907197
 51
45.0272840928646119
  0
ARC
  5
10E3
  8
0
 10
225.1331683738731044
 20
43.8716981877691907
 30
0.0
 40
0.3547385712194739
 50
45.0272840928643205
 51
90.0272841179810399
  0
LINE
  5
10E5
  8
0
 10
183.3998893356001929
 20
31.3804524667677107
 30
0.0
 11
183.3998893356001929
 21
24.5448619155677115
 31
0.0
  0
LINE
  5
10E6
  8
0
 10
170.4410704379002084
 20
33.1004524667677202
 30
0.0
 11
181.679889335600194
 21
33.1004524667677202
 31
0.0
  0
LINE
  5
10E7
  8
0
 10
168.9510704379001993
 20
31.6104524667677182
 30
0.0
 11
168.9510704379001993
 21
24.3248619155677197
 31
0.0
  0
ARC
  5
10E8
  8
0
 10
170.4410704379002084
 20
31.6104524667677182
 30
0.0
 40
1.49
 50
90.0
 51
180.0
  0
ARC
  5
10E9
  8
0
 10
181.679889335600194
 20
31.3804524667677107
 30
0.0
 40
1.7199999999999991
 50
0.0
 51
90.0
  0
LINE
  5
10EA
  8
0
 10
181.679889335600194
 20
22.8248619155677197
 30
0.0
 11
170.4510704379001993
 21
22.8248619155677197
 31
0.0
  0
ARC
  5
10EB
  8
0
 10
181.679889335600194
 20
24.5448619155677115
 30
0.0
 40
1.7199999999999991
 50
270.0
 51
0.0
  0
ARC
  5
10EC
  8
0
 10
170.4510704379001993
 20
24.3248619155677197
 30
0.0
 40
1.5
 50
180.0
 51
270.0
  0
LINE
  5
10ED
  8
0
 10
171.4356937510002012
 20
22.7995952463677192
 30
0.0
 11
171.4356937510002012
 21
22.8248619155677197
 31
0.0
  0
LINE
  5
10EE
  8
0
 10
169.4541278842457928
 20
23.1538928534922306
 30
0.0
 11
169.5136079354032006
 21
23.1538947698236015
 31
0.0
  0
LINE
  5
10EF
  8
0
 10
168.8906646845640864
 20
24.1380953795572495
 30
0.0
 11
168.9627431686043906
 21
24.1380948427991413
 31
0.0
  0
LINE
  5
10F0
  8
0
 10
168.9512564497892129
 20
24.3012398693677092
 30
0.0
 11
168.8742222669874025
 21
24.3012398693677092
 31
0.0
  0
LINE
  5
10F1
  8
0
 10
168.8723688980815894
 20
26.8996650661677208
 30
0.0
 11
168.9510704379001993
 21
26.8996650661677208
 31
0.0
  0
LINE
  5
10F2
  8
0
 10
168.8723688980815894
 20
29.0256493181677193
 30
0.0
 11
168.9510704379001993
 21
29.0256493181677193
 31
0.0
  0
LINE
  5
10F3
  8
0
 10
168.8723688980815894
 20
31.5059642787677099
 30
0.0
 11
168.9510704379001993
 21
31.5059642787677099
 31
0.0
  0
ARC
  5
10F4
  8
0
 10
180.386347883624012
 20
33.6602187999559135
 30
0.0
 40
0.5137525956244224
 50
263.8525025135646729
 51
276.1700277392465068
  0
ARC
  5
10F5
  8
0
 10
180.3865476203237108
 20
32.6443340820959023
 30
0.0
 40
0.5080956609102159
 50
83.7836635099340441
 51
96.2388667428775619
  0
ARC
  5
10F6
  8
0
 10
181.6467785278667861
 20
33.6602187999559135
 30
0.0
 40
0.5137525956244224
 50
263.8525025135646729
 51
276.1700277392465068
  0
ARC
  5
10F7
  8
0
 10
181.6469782645665134
 20
32.6443340820959023
 30
0.0
 40
0.5080956609102159
 50
83.7836635099340441
 51
96.2388667428775619
  0
ENDSEC
  0
EOF
