  0
SECTION
  2
HEADER
  9
$ACADVER
  1
AC1009
  9
$INSBASE
 10
894.8676009370782367
 20
65.9431282771230656
 30
0.0
  9
$EXTMIN
 10
884.1060227647070633
 20
65.9374892032080311
 30
-0.0000000000112498
  9
$EXTMAX
 10
905.6000107044463903
 20
96.9478691208224319
 30
0.0000000000002956
  9
$LIMMIN
 10
0.0
 20
0.0
  9
$LIMMAX
 10
11.6929133858000007
 20
8.2677165353999982
  9
$ORTHOMODE
 70
     0
  9
$REGENMODE
 70
     1
  9
$FILLMODE
 70
     1
  9
$QTEXTMODE
 70
     0
  9
$MIRRTEXT
 70
     0
  9
$DRAGMODE
 70
     2
  9
$LTSCALE
 40
0.6431102362
  9
$OSMODE
 70
  4095
  9
$ATTMODE
 70
     1
  9
$TEXTSIZE
 40
0.2
  9
$TRACEWID
 40
0.05
  9
$TEXTSTYLE
  7
STANDARD
  9
$CLAYER
  8
0
  9
$CELTYPE
  6
BYLAYER
  9
$CECOLOR
 62
   256
  9
$DIMSCALE
 40
1.0
  9
$DIMASZ
 40
0.1875
  9
$DIMEXO
 40
0.0625
  9
$DIMDLI
 40
0.4443307087
  9
$DIMRND
 40
0.0
  9
$DIMDLE
 40
0.0
  9
$DIMEXE
 40
0.125
  9
$DIMTP
 40
0.01
  9
$DIMTM
 40
0.01
  9
$DIMTXT
 40
1.0
  9
$DIMCEN
 40
0.1052362205
  9
$DIMTSZ
 40
0.0
  9
$DIMTOL
 70
     1
  9
$DIMLIM
 70
     0
  9
$DIMTIH
 70
     0
  9
$DIMTOH
 70
     1
  9
$DIMSE1
 70
     0
  9
$DIMSE2
 70
     0
  9
$DIMTAD
 70
     0
  9
$DIMZIN
 70
     0
  9
$DIMBLK
  1

  9
$DIMASO
 70
     1
  9
$DIMSHO
 70
     1
  9
$DIMPOST
  1
\X
  9
$DIMAPOST
  1

  9
$DIMALT
 70
     1
  9
$DIMALTD
 70
     2
  9
$DIMALTF
 40
25.3999999999999986
  9
$DIMLFAC
 40
1.0
  9
$DIMTOFL
 70
     0
  9
$DIMTVP
 40
0.0
  9
$DIMTIX
 70
     0
  9
$DIMSOXD
 70
     0
  9
$DIMSAH
 70
     0
  9
$DIMBLK1
  1

  9
$DIMBLK2
  1

  9
$DIMSTYLE
  2
STANDARD
  9
$DIMCLRD
 70
     0
  9
$DIMCLRE
 70
     0
  9
$DIMCLRT
 70
     0
  9
$DIMTFAC
 40
1.0
  9
$DIMGAP
 40
0.09
  9
$LUNITS
 70
     2
  9
$LUPREC
 70
     4
  9
$SKETCHINC
 40
0.1
  9
$FILLETRAD
 40
0.02
  9
$AUNITS
 70
     0
  9
$AUPREC
 70
     0
  9
$MENU
  1
.
  9
$ELEVATION
 40
0.0
  9
$PELEVATION
 40
0.0
  9
$THICKNESS
 40
0.0
  9
$LIMCHECK
 70
     0
  9
$BLIPMODE
 70
     0
  9
$CHAMFERA
 40
0.0
  9
$CHAMFERB
 40
0.0
  9
$SKPOLY
 70
     0
  9
$TDCREATE
 40
2458172.5207638889551163
  9
$TDUPDATE
 40
2459941.4819097220897675
  9
$TDINDWG
 40
0.3960308102
  9
$TDUSRTIMER
 40
0.3960308102
  9
$USRTIMER
 70
     1
  9
$ANGBASE
 50
0.0
  9
$ANGDIR
 70
     0
  9
$PDMODE
 70
     0
  9
$PDSIZE
 40
0.3125
  9
$PLINEWID
 40
0.0
  9
$COORDS
 70
     1
  9
$SPLFRAME
 70
     0
  9
$SPLINETYPE
 70
     6
  9
$SPLINESEGS
 70
     8
  9
$ATTDIA
 70
     1
  9
$ATTREQ
 70
     1
  9
$HANDLING
 70
     1
  9
$HANDSEED
  5
FA46
  9
$SURFTAB1
 70
     6
  9
$SURFTAB2
 70
     6
  9
$SURFTYPE
 70
     6
  9
$SURFU
 70
     6
  9
$SURFV
 70
     6
  9
$UCSNAME
  2

  9
$UCSORG
 10
0.0
 20
0.0
 30
0.0
  9
$UCSXDIR
 10
1.0
 20
0.0
 30
0.0
  9
$UCSYDIR
 10
0.0
 20
1.0
 30
0.0
  9
$PUCSNAME
  2

  9
$PUCSORG
 10
0.0
 20
0.0
 30
0.0
  9
$PUCSXDIR
 10
1.0
 20
0.0
 30
0.0
  9
$PUCSYDIR
 10
0.0
 20
1.0
 30
0.0
  9
$USERI1
 70
     0
  9
$USERI2
 70
     0
  9
$USERI3
 70
     0
  9
$USERI4
 70
     0
  9
$USERI5
 70
     0
  9
$USERR1
 40
0.0
  9
$USERR2
 40
0.0
  9
$USERR3
 40
0.0
  9
$USERR4
 40
0.0
  9
$USERR5
 40
0.0
  9
$WORLDVIEW
 70
     1
  9
$SHADEDGE
 70
     3
  9
$SHADEDIF
 70
    70
  9
$TILEMODE
 70
     1
  9
$MAXACTVP
 70
    64
  9
$PLIMCHECK
 70
     0
  9
$PEXTMIN
 10
1.0000000000000000E+20
 20
1.0000000000000000E+20
 30
1.0000000000000000E+20
  9
$PEXTMAX
 10
-1.0000000000000000E+20
 20
-1.0000000000000000E+20
 30
-1.0000000000000000E+20
  9
$PLIMMIN
 10
0.0
 20
0.0
  9
$PLIMMAX
 10
12.0
 20
9.0
  9
$UNITMODE
 70
     0
  9
$VISRETAIN
 70
     1
  9
$PLINEGEN
 70
     0
  9
$PSLTSCALE
 70
     1
  0
ENDSEC
  0
SECTION
  2
TABLES
  0
TABLE
  2
VPORT
 70
     1
  0
VPORT
  2
*ACTIVE
 70
     0
 10
0.0
 20
0.0
 11
1.0
 21
1.0
 12
428.1108150267467067
 22
-7.6904679579145627
 13
0.0
 23
0.0
 14
1.0
 24
1.0
 15
0.0
 25
0.0
 16
0.0
 26
0.0
 36
24.1179433675886514
 17
466.74220170783002
 27
89.133147119929788
 37
0.0
 40
31.2561689262084208
 41
1.6441798941798931
 42
50.0
 43
0.0
 44
0.0
 50
0.0
 51
0.0
 71
     0
 72
   100
 73
     1
 74
     1
 75
     0
 76
     0
 77
     0
 78
     0
  0
ENDTAB
  0
TABLE
  2
LTYPE
 70
     2
  0
LTYPE
  2
CONTINUOUS
 70
     0
  3
Solid line
 72
    65
 73
     0
 40
0.0
  0
LTYPE
  2
PHANTOM2
 70
     0
  3
___ _ _ ___ _ _ ___ _ _ ___ _ _
 72
    65
 73
     6
 40
1.25
 49
0.625
 49
-0.125
 49
0.125
 49
-0.125
 49
0.125
 49
-0.125
  0
ENDTAB
  0
TABLE
  2
LAYER
 70
     2
  0
LAYER
  2
0
 70
     0
 62
   255
  6
CONTINUOUS
  0
LAYER
  2
DEFPOINTS
 70
     0
 62
     7
  6
CONTINUOUS
  0
ENDTAB
  0
TABLE
  2
STYLE
 70
     1
  0
STYLE
  2
STANDARD
 70
     0
 40
0.0
 41
0.8
 50
0.0
 71
     0
 42
0.2
  3
txt
  4

  0
ENDTAB
  0
TABLE
  2
VIEW
 70
     0
  0
ENDTAB
  0
TABLE
  2
UCS
 70
     0
  0
ENDTAB
  0
TABLE
  2
APPID
 70
    11
  0
APPID
  2
ACAD
 70
     0
  0
APPID
  2
ACAD_MLEADERVER
 70
     0
  0
APPID
  2
ACAD_EXEMPT_FROM_CAD_STANDARDS
 70
     0
  0
APPID
  2
ACAD_DSTYLE_DIMJAG
 70
     0
  0
APPID
  2
ACAD_DSTYLE_DIMTALN
 70
     0
  0
APPID
  2
ACAD_NAV_VCDISPLAY
 70
     0
  0
APPID
  2
ACAECLAYERSTANDARD
 70
     0
  0
APPID
  2
ACCMTRANSPARENCY
 70
     0
  0
APPID
  2
DCO15
 70
     0
  0
APPID
  2
ACDBATTR
 70
     0
  0
APPID
  2
ACADANNOTATIVE
 70
     0
  0
ENDTAB
  0
TABLE
  2
DIMSTYLE
 70
     1
  0
DIMSTYLE
  2
STANDARD
 70
     0
  3

  4

  5

  6

  7

 40
1.0
 41
0.1875
 42
0.0625
 43
0.38
 44
0.125
 45
0.0
 46
0.0
 47
0.01
 48
0.01
140
0.15625
141
0.09
142
0.0
143
25.3999999999999986
144
1.0
145
0.0
146
1.0
147
0.09
 71
     1
 72
     0
 73
     1
 74
     1
 75
     0
 76
     0
 77
     0
 78
     4
170
     0
171
     2
172
     0
173
     0
174
     0
175
     0
176
     0
177
     0
178
     0
  0
ENDTAB
  0
ENDSEC
  0
SECTION
  2
BLOCKS
  0
BLOCK
  8
0
  2
$MODEL_SPACE
 70
     0
 10
0.0
 20
0.0
 30
0.0
  3
$MODEL_SPACE
  1

  0
ENDBLK
  5
21
  8
0
  0
BLOCK
 67
     1
  8
0
  2
$PAPER_SPACE
 70
     0
 10
0.0
 20
0.0
 30
0.0
  3
$PAPER_SPACE
  1

  0
ENDBLK
  5
1D
 67
     1
  8
0
  0
BLOCK
  8
0
  2
_FILLED
 70
     0
 10
0.0
 20
0.0
 30
0.0
  3
_FILLED
  1

  0
SOLID
  5
F3A0
  8
0
  6
BYBLOCK
 62
     0
 10
0.0
 20
0.0
 30
0.0
 11
-1.0
 21
0.1666666667
 31
0.0
 12
-1.0
 22
-0.1666666667
 32
0.0
 13
-1.0
 23
-0.1666666667
 33
0.0
  0
ENDBLK
  5
F3A1
  8
0
  6
BYBLOCK
 62
     0
  0
ENDSEC
  0
SECTION
  2
ENTITIES
  0
ATTDEF
  5
829
  8
DEFPOINTS
 10
894.8626767259758026
 20
65.9473109094853243
 30
0.0
 40
0.001
  1
K-24558IN
  3

  2
MODELNUMBER
 70
     0
1001
ACDBATTR
1070
     0
1070
     1
  0
ATTDEF
  5
82A
  8
DEFPOINTS
 10
894.8626767259758026
 20
65.9456442428186591
 30
0.0
 40
0.001
  1
SPAN SQUARE
  3

  2
TRADENAME
 70
     0
1001
ACDBATTR
1070
     0
1070
     1
  0
ATTDEF
  5
82B
  8
DEFPOINTS
 10
894.8626767259758026
 20
65.943977576151994
 30
0.0
 40
0.001
  1
BATHROOM SINK
  3

  2
PRODUCT
 70
     0
1001
ACDBATTR
1070
     0
1070
     1
  0
LINE
  5
F998
  8
0
 10
903.5489214020691406
 20
91.3919505069052889
 30
0.0
 11
886.1862804720874465
 21
91.3919505069052889
 31
0.0
  0
LINE
  5
F999
  8
0
 10
905.3811077768015139
 20
96.943128277123094
 30
0.0
 11
884.3540940973548459
 21
96.943128277123094
 31
0.0
  0
ARC
  5
F99A
  8
0
 10
915.1242324625043238
 20
105.0538770034642937
 30
0.0
 40
32.0688067890630535
 50
195.1090741891403013
 51
205.0806740559418131
  0
ARC
  5
F99B
  8
0
 10
886.1862804720874465
 20
91.5102505069052938
 30
0.0
 40
0.1183
 50
205.0806740559413868
 51
270.0
  0
ARC
  5
F99C
  8
0
 10
884.3540940973548459
 20
96.7462282771230804
 30
0.0
 40
0.1969
 50
90.0
 51
195.1090741891387097
  0
ARC
  5
F99D
  8
0
 10
874.6109694116522633
 20
105.0538770034642937
 30
0.0
 40
32.0688067890630535
 50
334.9193259440581869
 51
344.8909258108591871
  0
ARC
  5
F99E
  8
0
 10
903.5489214020691406
 20
91.5102505069052938
 30
0.0
 40
0.1183
 50
270.0
 51
334.9193259440581869
  0
ARC
  5
F99F
  8
0
 10
905.3811077768015139
 20
96.7462282771230804
 30
0.0
 40
0.1969
 50
344.890925810861404
 51
90.0
  0
LINE
  5
F9A0
  8
0
 10
891.6129911915119237
 20
91.3919505069052889
 30
0.0
 11
891.9973589262632458
 21
82.5884882062214416
 31
0.0
  0
LINE
  5
F9A1
  8
0
 10
890.2378013043561396
 20
91.2426991040545943
 30
0.0
 11
890.3421876890441808
 21
90.4577470753896478
 31
0.0
  0
ARC
  5
F9A2
  8
0
 10
890.9276336135739029
 20
90.5356022579489661
 30
0.0
 40
0.5906000000000001
 50
187.5750000027850035
 51
235.9265343459190944
  0
LINE
  5
F9A3
  8
0
 10
890.5967467447887884
 20
90.0463965342851225
 30
0.0
 11
891.4570999661282258
 21
89.4644745131641912
 31
0.0
  0
ARC
  5
F9A4
  8
0
 10
890.4719603173532505
 20
91.2738386027300237
 30
0.0
 40
0.2362204727484853
 50
149.9995328893965905
 51
187.5749999562291919
  0
ARC
  5
F9A5
  8
0
 10
891.1197020538040761
 20
88.9680677425359221
 30
0.0
 40
0.6002141560861681
 50
6.7701614933743972
 51
55.7968245922817303
  0
CIRCLE
  5
F9A6
  8
0
 10
891.12744344602811
 20
90.722657500464166
 30
0.0
 40
0.1574803149999999
  0
ARC
  5
F9A7
  8
0
 10
895.0566610104774554
 20
91.2708619013956337
 30
0.0
 40
9.9487023304047923
 50
262.1496602552688273
 51
268.9111146346542114
  0
ARC
  5
F9A8
  8
0
 10
894.2176919791338605
 20
84.4026875445477316
 30
0.0
 40
3.0321917286199311
 50
242.6045261459526898
 51
260.1275763369520178
  0
ARC
  5
F9A9
  8
0
 10
894.1406310437580487
 20
84.2539931811721345
 30
0.0
 40
2.8647151587341151
 50
226.2926662626090888
 51
242.6045261459526898
  0
ARC
  5
F9AA
  8
0
 10
892.6648477680455471
 20
82.6224933263114139
 30
0.0
 40
0.6683544733866157
 50
182.9164036805302942
 51
221.0979583654005864
  0
ARC
  5
F9AB
  8
0
 10
894.9375156147679036
 20
71.885044404186857
 30
0.0
 40
9.5339793411490721
 50
90.420165779463801
 51
93.7352070217076232
  0
ARC
  5
F9AC
  8
0
 10
894.8718316446366998
 20
84.5879933745608668
 30
0.0
 40
3.2372239409404449
 50
260.1208617525549016
 51
269.9251204856781783
  0
LINE
  5
F9AD
  8
0
 10
898.1222106826445497
 20
91.3919505069052889
 30
0.0
 11
897.7378429478932276
 21
82.5884882062214416
 31
0.0
  0
LINE
  5
F9AE
  8
0
 10
899.4974005698004476
 20
91.2426991040545943
 30
0.0
 11
899.3930141851122926
 21
90.4577470753896478
 31
0.0
  0
ARC
  5
F9AF
  8
0
 10
898.8075682605825705
 20
90.5356022579489661
 30
0.0
 40
0.5906000000000001
 50
304.0734656540810192
 51
352.4249999972145133
  0
LINE
  5
F9B0
  8
0
 10
899.138455129367685
 20
90.0463965342851225
 30
0.0
 11
898.2781019080282476
 21
89.4644745131641912
 31
0.0
  0
ARC
  5
F9B1
  8
0
 10
899.2632415568033366
 20
91.2738386027300237
 30
0.0
 40
0.2362204727484853
 50
352.4250000437702965
 51
30.0004671106034095
  0
ARC
  5
F9B2
  8
0
 10
898.6154998203523974
 20
88.9680677425359221
 30
0.0
 40
0.6002141560861681
 50
124.2031754077183052
 51
173.2298385066256117
  0
CIRCLE
  5
F9B3
  8
0
 10
898.6077584281282498
 20
90.722657500464166
 30
0.0
 40
0.1574803149999999
  0
ARC
  5
F9B4
  8
0
 10
894.678540863679018
 20
91.2708619013948805
 30
0.0
 40
9.9487023304040125
 50
271.0888853653457886
 51
277.8503397447312864
  0
ARC
  5
F9B5
  8
0
 10
895.5175098950223855
 20
84.4026875445477316
 30
0.0
 40
3.0321917286199311
 50
279.8724236630479254
 51
297.3954738540473954
  0
ARC
  5
F9B6
  8
0
 10
895.5945708303985384
 20
84.2539931811721345
 30
0.0
 40
2.8647151587341151
 50
297.3954738540473954
 51
313.707333737390627
  0
ARC
  5
F9B7
  8
0
 10
897.07035410611104
 20
82.6224933263114139
 30
0.0
 40
0.6683544733866157
 50
318.9020416345994136
 51
357.0835963194696774
  0
ARC
  5
F9B8
  8
0
 10
894.8223464198293868
 20
72.564792678564487
 30
0.0
 40
8.8540903656974201
 50
86.1374753655660754
 51
89.7071518332573561
  0
ARC
  5
F9B9
  8
0
 10
894.7718841924804565
 20
85.6385386474128154
 30
0.0
 40
4.2888346690563024
 50
271.2788137749186035
 51
278.675203986843826
  0
LINE
  5
F9BB
  8
0
 10
893.4067008963455692
 20
82.9143970529641763
 30
0.0
 11
896.3285009778109043
 21
82.9143970529641763
 31
0.0
  0
ARC
  5
F9BC
  8
0
 10
893.6209990445037192
 20
73.3642751639805937
 30
0.0
 40
9.5525259377165437
 50
91.2854620493828151
 51
95.3409106645635944
  0
ARC
  5
F9BD
  8
0
 10
892.7867795382538816
 20
82.2876101296232463
 30
0.0
 40
0.590281291777198
 50
95.3409106645635944
 51
125.8299301708906057
  0
ARC
  5
F9BE
  8
0
 10
891.5602237088320408
 20
84.3236826810111069
 30
0.0
 40
1.7894096969839159
 50
284.1398894793828163
 51
299.4951704242110964
  0
ARC
  5
F9BF
  8
0
 10
896.1142028296527542
 20
73.3642751639805937
 30
0.0
 40
9.5525259377165437
 50
84.6590893354364056
 51
88.7145379506171849
  0
ARC
  5
F9C0
  8
0
 10
896.9484223359025918
 20
82.2876101296232463
 30
0.0
 40
0.590281291777198
 50
54.1700698291094014
 51
84.6590893354364056
  0
ARC
  5
F9C1
  8
0
 10
898.17497816532466
 20
84.3236826810111069
 30
0.0
 40
1.7894096969839159
 50
240.50482957578879
 51
255.8601105206172122
  0
ENDSEC
  0
EOF
