  0
SECTION
  2
HEADER
  9
$ACADVER
  1
AC1009
  9
$INSBASE
 10
332.2232044413162271
 20
150.8554219024439078
 30
0.0
  9
$EXTMIN
 10
329.520531503222287
 20
147.4134894459155873
 30
-0.0000000000112498
  9
$EXTMAX
 10
332.2581705298629231
 20
152.8354177025665024
 30
0.0000000000002956
  9
$LIMMIN
 10
0.0
 20
0.0
  9
$LIMMAX
 10
11.6929133858000007
 20
8.2677165353999982
  9
$ORTHOMODE
 70
     0
  9
$REGENMODE
 70
     1
  9
$FILLMODE
 70
     1
  9
$QTEXTMODE
 70
     0
  9
$MIRRTEXT
 70
     0
  9
$DRAGMODE
 70
     2
  9
$LTSCALE
 40
0.6431102362
  9
$OSMODE
 70
  4095
  9
$ATTMODE
 70
     1
  9
$TEXTSIZE
 40
0.2
  9
$TRACEWID
 40
0.05
  9
$TEXTSTYLE
  7
STANDARD
  9
$CLAYER
  8
0
  9
$CELTYPE
  6
BYLAYER
  9
$CECOLOR
 62
   256
  9
$DIMSCALE
 40
1.0
  9
$DIMASZ
 40
0.1875
  9
$DIMEXO
 40
0.0625
  9
$DIMDLI
 40
0.4443307087
  9
$DIMRND
 40
0.0
  9
$DIMDLE
 40
0.0
  9
$DIMEXE
 40
0.125
  9
$DIMTP
 40
0.01
  9
$DIMTM
 40
0.01
  9
$DIMTXT
 40
0.15625
  9
$DIMCEN
 40
0.1052362205
  9
$DIMTSZ
 40
0.0
  9
$DIMTOL
 70
     1
  9
$DIMLIM
 70
     0
  9
$DIMTIH
 70
     1
  9
$DIMTOH
 70
     1
  9
$DIMSE1
 70
     0
  9
$DIMSE2
 70
     0
  9
$DIMTAD
 70
     0
  9
$DIMZIN
 70
     0
  9
$DIMBLK
  1
_FILLED
  9
$DIMASO
 70
     1
  9
$DIMSHO
 70
     1
  9
$DIMPOST
  1

  9
$DIMAPOST
  1

  9
$DIMALT
 70
     1
  9
$DIMALTD
 70
     2
  9
$DIMALTF
 40
25.3999999999999986
  9
$DIMLFAC
 40
1.0
  9
$DIMTOFL
 70
     0
  9
$DIMTVP
 40
0.0
  9
$DIMTIX
 70
     0
  9
$DIMSOXD
 70
     0
  9
$DIMSAH
 70
     0
  9
$DIMBLK1
  1

  9
$DIMBLK2
  1

  9
$DIMSTYLE
  2
STANDARD
  9
$DIMCLRD
 70
     0
  9
$DIMCLRE
 70
     0
  9
$DIMCLRT
 70
     0
  9
$DIMTFAC
 40
1.0
  9
$DIMGAP
 40
0.09
  9
$LUNITS
 70
     2
  9
$LUPREC
 70
     4
  9
$SKETCHINC
 40
0.1
  9
$FILLETRAD
 40
0.0
  9
$AUNITS
 70
     0
  9
$AUPREC
 70
     0
  9
$MENU
  1
.
  9
$ELEVATION
 40
0.0
  9
$PELEVATION
 40
0.0
  9
$THICKNESS
 40
0.0
  9
$LIMCHECK
 70
     0
  9
$BLIPMODE
 70
     0
  9
$CHAMFERA
 40
0.0
  9
$CHAMFERB
 40
0.0
  9
$SKPOLY
 70
     0
  9
$TDCREATE
 40
2459868.5124768521636724
  9
$TDUPDATE
 40
2460059.428425925783813
  9
$TDINDWG
 40
0.3528240741
  9
$TDUSRTIMER
 40
0.3528240741
  9
$USRTIMER
 70
     1
  9
$ANGBASE
 50
0.0
  9
$ANGDIR
 70
     0
  9
$PDMODE
 70
     0
  9
$PDSIZE
 40
0.3125
  9
$PLINEWID
 40
0.0
  9
$COORDS
 70
     1
  9
$SPLFRAME
 70
     0
  9
$SPLINETYPE
 70
     6
  9
$SPLINESEGS
 70
     8
  9
$ATTDIA
 70
     1
  9
$ATTREQ
 70
     1
  9
$HANDLING
 70
     1
  9
$HANDSEED
  5
62E2
  9
$SURFTAB1
 70
     6
  9
$SURFTAB2
 70
     6
  9
$SURFTYPE
 70
     6
  9
$SURFU
 70
     6
  9
$SURFV
 70
     6
  9
$UCSNAME
  2

  9
$UCSORG
 10
0.0
 20
0.0
 30
0.0
  9
$UCSXDIR
 10
1.0
 20
0.0
 30
0.0
  9
$UCSYDIR
 10
0.0
 20
1.0
 30
0.0
  9
$PUCSNAME
  2

  9
$PUCSORG
 10
0.0
 20
0.0
 30
0.0
  9
$PUCSXDIR
 10
1.0
 20
0.0
 30
0.0
  9
$PUCSYDIR
 10
0.0
 20
1.0
 30
0.0
  9
$USERI1
 70
     0
  9
$USERI2
 70
     0
  9
$USERI3
 70
     0
  9
$USERI4
 70
     0
  9
$USERI5
 70
     0
  9
$USERR1
 40
0.0
  9
$USERR2
 40
0.0
  9
$USERR3
 40
0.0
  9
$USERR4
 40
0.0
  9
$USERR5
 40
0.0
  9
$WORLDVIEW
 70
     1
  9
$SHADEDGE
 70
     3
  9
$SHADEDIF
 70
    70
  9
$TILEMODE
 70
     1
  9
$MAXACTVP
 70
    64
  9
$PLIMCHECK
 70
     0
  9
$PEXTMIN
 10
1.0000000000000000E+20
 20
1.0000000000000000E+20
 30
1.0000000000000000E+20
  9
$PEXTMAX
 10
-1.0000000000000000E+20
 20
-1.0000000000000000E+20
 30
-1.0000000000000000E+20
  9
$PLIMMIN
 10
0.0
 20
0.0
  9
$PLIMMAX
 10
12.0
 20
9.0
  9
$UNITMODE
 70
     0
  9
$VISRETAIN
 70
     1
  9
$PLINEGEN
 70
     0
  9
$PSLTSCALE
 70
     1
  0
ENDSEC
  0
SECTION
  2
TABLES
  0
TABLE
  2
VPORT
 70
     1
  0
VPORT
  2
*ACTIVE
 70
     0
 10
0.0
 20
0.0
 11
1.0
 21
1.0
 12
330.8893510165426051
 22
150.124453574240988
 13
0.0
 23
0.0
 14
1.0
 24
1.0
 15
0.0
 25
0.0
 16
0.0
 26
0.0
 36
1.0
 17
0.0
 27
0.0
 37
0.0
 40
5.464902588936126
 41
2.5251322751322749
 42
50.0
 43
0.0
 44
0.0
 50
0.0
 51
0.0
 71
     0
 72
   100
 73
     1
 74
     1
 75
     0
 76
     0
 77
     0
 78
     0
  0
ENDTAB
  0
TABLE
  2
LTYPE
 70
     1
  0
LTYPE
  2
CONTINUOUS
 70
     0
  3
Solid line
 72
    65
 73
     0
 40
0.0
  0
ENDTAB
  0
TABLE
  2
LAYER
 70
     2
  0
LAYER
  2
0
 70
     0
 62
     7
  6
CONTINUOUS
  0
LAYER
  2
DEFPOINTS
 70
     0
 62
     7
  6
CONTINUOUS
  0
ENDTAB
  0
TABLE
  2
STYLE
 70
     1
  0
STYLE
  2
STANDARD
 70
     0
 40
0.0
 41
0.8
 50
0.0
 71
     0
 42
0.2
  3
txt
  4

  0
ENDTAB
  0
TABLE
  2
VIEW
 70
     0
  0
ENDTAB
  0
TABLE
  2
UCS
 70
     0
  0
ENDTAB
  0
TABLE
  2
APPID
 70
    12
  0
APPID
  2
ACAD
 70
     0
  0
APPID
  2
ACAD_DSTYLE_DIMRADIAL_EXTENSION
 70
     0
  0
APPID
  2
ACAD_NAV_VCDISPLAY
 70
     0
  0
APPID
  2
ACAD_MLEADERVER
 70
     0
  0
APPID
  2
ACAD_EXEMPT_FROM_CAD_STANDARDS
 70
     0
  0
APPID
  2
ACAECLAYERSTANDARD
 70
     0
  0
APPID
  2
ACCMTRANSPARENCY
 70
     0
  0
APPID
  2
ACAD_DSTYLE_DIMJAG
 70
     0
  0
APPID
  2
ACAD_DSTYLE_DIMTALN
 70
     0
  0
APPID
  2
ACDBATTR
 70
     0
  0
APPID
  2
ACADANNOTATIVE
 70
     0
  0
APPID
  2
DCO15
 70
     0
  0
ENDTAB
  0
TABLE
  2
DIMSTYLE
 70
     1
  0
DIMSTYLE
  2
STANDARD
 70
     0
  3

  4

  5
_FILLED
  6
_FILLED
  7
_FILLED
 40
1.0
 41
0.1875
 42
0.0625
 43
0.38
 44
0.125
 45
0.0
 46
0.0
 47
0.01
 48
0.01
140
0.15625
141
0.09
142
0.0
143
25.3999999999999986
144
1.0
145
0.0
146
1.0
147
0.09
 71
     1
 72
     0
 73
     1
 74
     1
 75
     0
 76
     0
 77
     0
 78
     4
170
     1
171
     2
172
     0
173
     0
174
     0
175
     0
176
     0
177
     0
178
     0
  0
ENDTAB
  0
ENDSEC
  0
SECTION
  2
BLOCKS
  0
BLOCK
  8
0
  2
$MODEL_SPACE
 70
     0
 10
0.0
 20
0.0
 30
0.0
  3
$MODEL_SPACE
  1

  0
ENDBLK
  5
21
  8
0
  0
BLOCK
 67
     1
  8
0
  2
$PAPER_SPACE
 70
     0
 10
0.0
 20
0.0
 30
0.0
  3
$PAPER_SPACE
  1

  0
ENDBLK
  5
1D
 67
     1
  8
0
  0
BLOCK
  8
0
  2
_FILLED
 70
     0
 10
0.0
 20
0.0
 30
0.0
  3
_FILLED
  1

  0
SOLID
  5
212
  8
0
  6
BYBLOCK
 62
     0
 10
0.0
 20
0.0
 30
0.0
 11
-1.0
 21
0.1666666667
 31
0.0
 12
-1.0
 22
-0.1666666667
 32
0.0
 13
-1.0
 23
-0.1666666667
 33
0.0
  0
ENDBLK
  5
213
  8
0
  6
BYBLOCK
 62
     0
  0
ENDSEC
  0
SECTION
  2
ENTITIES
  0
LINE
  5
D45
  8
0
 10
-1.607698385787991
 20
273788.254113320785109
 30
0.0
 11
-1.607698385787991
 21
273788.2541133213089779
 31
0.0
  0
LINE
  5
612A
  8
0
 10
332.0263138902162154
 20
148.8869179654438142
 30
0.0
 11
332.2232044413162271
 21
148.8869179654438142
 31
0.0
  0
LINE
  5
6135
  8
0
 10
332.0263138902162154
 20
152.8239258394440014
 30
0.0
 11
332.2232044413162271
 21
152.8239258394440014
 31
0.0
  0
LINE
  5
6139
  8
0
 10
329.9874213956127846
 20
147.418296171143794
 30
0.0
 11
329.9884487857848967
 21
147.418296171143794
 31
0.0
  0
LINE
  5
613A
  8
0
 10
329.5598051432863258
 20
150.0616342060438058
 30
0.0
 11
330.0908808518037745
 21
150.0616342060438058
 31
0.0
  0
LINE
  5
6148
  8
0
 10
329.5598594807162272
 20
151.6821935559437975
 30
0.0
 11
329.7704484577724884
 21
151.6821935559437975
 31
0.0
  0
LINE
  5
6149
  8
0
 10
330.0224169603599762
 20
151.6821935559437975
 30
0.0
 11
330.1825221921134244
 21
151.6821935559437975
 31
0.0
  0
LINE
  5
614A
  8
0
 10
330.7113564098162897
 20
151.6821935559437975
 30
0.0
 11
331.9476138902161892
 21
151.6821935559437975
 31
0.0
  0
CIRCLE
  5
6166
  8
0
 10
329.7684799531161843
 20
147.5877053670438102
 30
0.0
 40
0.0393700787482911
  0
LINE
  5
6167
  8
0
 10
332.2232044413162271
 20
148.8869179654438142
 30
0.0
 11
332.2232044413162271
 21
152.8239258394440014
 31
0.0
  0
LINE
  5
6168
  8
0
 10
331.9476138902161892
 20
148.965617965443812
 30
0.0
 11
331.9476138902161892
 21
152.74522583944389
 31
0.0
  0
LINE
  5
6169
  8
0
 10
329.5322594807162204
 20
147.4570043193457991
 30
0.0
 11
329.5322594807162204
 21
151.6545935559437908
 31
0.0
  0
LINE
  5
616A
  8
0
 10
329.9874213956127846
 20
147.418296171143794
 30
0.0
 11
329.5590396146347985
 21
147.4295137429091085
 31
0.0
  0
ARC
  5
616B
  8
0
 10
329.5597594807161954
 20
147.4570043193457991
 30
0.0
 40
0.0275
 50
180.0000000000032117
 51
268.4999999937303983
  0
LINE
  5
616C
  8
0
 10
330.0159108666887846
 20
147.4443525256100997
 30
0.0
 11
330.1482592286162117
 21
149.9619798363438008
 31
0.0
  0
ARC
  5
616D
  8
0
 10
329.9884487857848967
 20
147.4457961711437974
 30
0.0
 40
0.0275
 50
270.0000000000064801
 51
356.9908060000320802
  0
ARC
  5
616E
  8
0
 10
330.2260688270230844
 20
149.9499100918708052
 30
0.0
 40
0.078740157073
 50
90.0000096970029517
 51
171.1826107858373121
  0
LINE
  5
616F
  8
0
 10
330.226068813696827
 20
150.0286502489437908
 30
0.0
 11
330.5637665673161791
 21
150.0286502489437908
 31
0.0
  0
LINE
  5
6170
  8
0
 10
330.7113564098162897
 20
150.0286502489437908
 30
0.0
 11
331.9476138902161892
 21
150.0286502489437908
 31
0.0
  0
LINE
  5
6171
  8
0
 10
330.575566567316173
 20
150.040450248943813
 30
0.0
 11
330.575566567316173
 21
150.7881390934599892
 31
0.0
  0
LINE
  5
6172
  8
0
 10
330.7074564098161886
 20
150.0325502489438065
 30
0.0
 11
330.7074564098161886
 21
151.6782935559438101
 31
0.0
  0
ARC
  5
6173
  8
0
 10
330.5637665673161791
 20
150.040450248943813
 30
0.0
 40
0.0118
 50
270.0
 51
0.0000000000040711
  0
ARC
  5
6174
  8
0
 10
330.7113564098162897
 20
150.0325502489438065
 30
0.0
 40
0.0039
 50
180.0000000000129887
 51
269.9999999999739089
  0
ARC
  5
6175
  8
0
 10
330.8270577081161719
 20
150.961297807443799
 30
0.0
 40
0.8661417322999621
 50
253.1176941712002133
 51
262.0629436070000793
  0
ARC
  5
6176
  8
0
 10
332.0263138902162154
 20
148.965617965443812
 30
0.0
 40
0.0787
 50
180.0000000000015916
 51
269.9999999999968168
  0
ARC
  5
6177
  8
0
 10
332.0263138902162154
 20
152.74522583944389
 30
0.0
 40
0.0787
 50
89.9999999999967457
 51
180.0000000000023874
  0
ARC
  5
6178
  8
0
 10
329.5598594807162272
 20
151.6545935559437908
 30
0.0
 40
0.0276
 50
90.000000000014623
 51
179.9999999999926104
  0
ARC
  5
6179
  8
0
 10
329.8964327090661754
 20
152.4993745619451886
 30
0.0
 40
0.826835429904534
 50
261.2357498580913102
 51
278.7642501419086898
  0
ARC
  5
617A
  8
0
 10
330.3194994880718127
 20
151.4353534677937887
 30
0.0
 40
0.0140186400311126
 50
161.9886277643925894
 51
183.1777089643506997
  0
ARC
  5
617B
  8
0
 10
330.314026539951783
 20
151.4371329374812092
 30
0.0
 40
0.0082636705705687
 50
123.5195242372899003
 51
161.9886277643878998
  0
ARC
  5
617C
  8
0
 10
330.8270577081161719
 20
150.7495459975438905
 30
0.0
 40
0.8661417322999175
 50
117.6203480177570952
 51
126.6972329468549958
  0
ARC
  5
617D
  8
0
 10
330.8270577081161719
 20
150.7495459975438052
 30
0.0
 40
0.8661417322999767
 50
97.9370563962635856
 51
117.6203480177570952
  0
ARC
  5
617E
  8
0
 10
330.1825121500074829
 20
151.6703825211043011
 30
0.0
 40
0.0118110391086453
 50
25.000024226008069
 51
89.9512853737540468
  0
LINE
  5
617F
  8
0
 10
330.1932165846141061
 20
151.6753740864477891
 30
0.0
 11
330.5386798692384787
 21
150.9345256815871892
 31
0.0
  0
ARC
  5
6180
  8
0
 10
330.7113564098162897
 20
151.6782935559438101
 30
0.0
 40
0.0039
 50
90.0000000000521254
 51
179.9999999999608917
  0
ARC
  5
6181
  8
0
 10
330.1818657875791132
 20
150.7681405414271012
 30
0.0
 40
0.3937007794462112
 50
12.4999999313135604
 51
25.0000001773616809
  0
ARC
  5
6182
  8
0
 10
330.0761096806261889
 20
150.7499401735659035
 30
0.0
 40
0.5009155010010961
 50
4.3735195390382398
 51
11.9142543802134107
  0
ARC
  5
6183
  8
0
 10
329.558675908964517
 20
150.0887769156547051
 30
0.0
 40
0.0264180760480324
 50
180.639943326482495
 51
243.4155379939763009
  0
ARC
  5
6184
  8
0
 10
329.5620602841531195
 20
150.0955399370714929
 30
0.0
 40
0.0339806453271723
 50
243.4155379939766988
 51
266.1947429391012747
  0
ARC
  5
6185
  8
0
 10
330.0799442246740796
 20
149.7232768198003896
 30
0.0
 40
0.3385340908069274
 50
64.4283636315903721
 51
88.1486897702804129
  0
ATTDEF
  5
61CC
  8
DEFPOINTS
 10
332.2233565415643284
 20
150.858843499160713
 30
0.0
 40
0.001
  1
K-24573X-4A
  3

  2
MODELNUMBER
 70
     0
1001
ACDBATTR
1070
     0
1070
     1
  0
ATTDEF
  5
61CD
  8
DEFPOINTS
 10
332.2232307319080178
 20
150.8571766587816114
 30
0.0
 40
0.001
  1
TAUT
  3

  2
TRADENAME
 70
     0
1001
ACDBATTR
1070
     0
1070
     1
  0
ATTDEF
  5
61CE
  8
DEFPOINTS
 10
332.2233565415643284
 20
150.8555101658274111
 30
0.0
 40
0.001
  1
VALVE TRIM
  3

  2
PRODUCT
 70
     0
1001
ACDBATTR
1070
     0
1070
     1
  0
ENDSEC
  0
EOF
