  0
SECTION
  2
HEADER
  9
$ACADVER
  1
AC1009
  9
$INSBASE
 10
4690.4793612560770271
 20
175.4478132598416948
 30
0.0
  9
$EXTMIN
 10
4688.5108573190773313
 20
171.4108787974417112
 30
0.0
  9
$EXTMAX
 10
4692.4478651930767228
 20
175.4526446464878973
 30
0.0
  9
$LIMMIN
 10
0.0
 20
0.0
  9
$LIMMAX
 10
11.6929133858000007
 20
8.2677165353999982
  9
$ORTHOMODE
 70
     0
  9
$REGENMODE
 70
     1
  9
$FILLMODE
 70
     1
  9
$QTEXTMODE
 70
     0
  9
$MIRRTEXT
 70
     0
  9
$DRAGMODE
 70
     2
  9
$LTSCALE
 40
0.6431102362
  9
$OSMODE
 70
  4095
  9
$ATTMODE
 70
     1
  9
$TEXTSIZE
 40
0.2
  9
$TRACEWID
 40
0.05
  9
$TEXTSTYLE
  7
STANDARD
  9
$CLAYER
  8
0
  9
$CELTYPE
  6
BYLAYER
  9
$CECOLOR
 62
   256
  9
$DIMSCALE
 40
1.0
  9
$DIMASZ
 40
0.1875
  9
$DIMEXO
 40
0.0625
  9
$DIMDLI
 40
0.4443307087
  9
$DIMRND
 40
0.0
  9
$DIMDLE
 40
0.0
  9
$DIMEXE
 40
0.125
  9
$DIMTP
 40
0.01
  9
$DIMTM
 40
0.01
  9
$DIMTXT
 40
2.0
  9
$DIMCEN
 40
0.1052362205
  9
$DIMTSZ
 40
0.0
  9
$DIMTOL
 70
     1
  9
$DIMLIM
 70
     0
  9
$DIMTIH
 70
     1
  9
$DIMTOH
 70
     1
  9
$DIMSE1
 70
     0
  9
$DIMSE2
 70
     0
  9
$DIMTAD
 70
     0
  9
$DIMZIN
 70
     0
  9
$DIMBLK
  1

  9
$DIMASO
 70
     1
  9
$DIMSHO
 70
     1
  9
$DIMPOST
  1
\X
  9
$DIMAPOST
  1

  9
$DIMALT
 70
     1
  9
$DIMALTD
 70
     2
  9
$DIMALTF
 40
25.3999999999999986
  9
$DIMLFAC
 40
1.0
  9
$DIMTOFL
 70
     0
  9
$DIMTVP
 40
0.0
  9
$DIMTIX
 70
     0
  9
$DIMSOXD
 70
     0
  9
$DIMSAH
 70
     0
  9
$DIMBLK1
  1

  9
$DIMBLK2
  1

  9
$DIMSTYLE
  2
STANDARD
  9
$DIMCLRD
 70
     0
  9
$DIMCLRE
 70
     0
  9
$DIMCLRT
 70
     0
  9
$DIMTFAC
 40
1.0
  9
$DIMGAP
 40
0.09
  9
$LUNITS
 70
     2
  9
$LUPREC
 70
     4
  9
$SKETCHINC
 40
0.1
  9
$FILLETRAD
 40
0.0
  9
$AUNITS
 70
     0
  9
$AUPREC
 70
     0
  9
$MENU
  1
.
  9
$ELEVATION
 40
0.0
  9
$PELEVATION
 40
0.0
  9
$THICKNESS
 40
0.0
  9
$LIMCHECK
 70
     0
  9
$BLIPMODE
 70
     0
  9
$CHAMFERA
 40
0.0
  9
$CHAMFERB
 40
0.0
  9
$SKPOLY
 70
     0
  9
$TDCREATE
 40
2458060.468368056230247
  9
$TDUPDATE
 40
2460725.6751388888806105
  9
$TDINDWG
 40
0.4539769676
  9
$TDUSRTIMER
 40
0.4539769676
  9
$USRTIMER
 70
     1
  9
$ANGBASE
 50
0.0
  9
$ANGDIR
 70
     0
  9
$PDMODE
 70
     0
  9
$PDSIZE
 40
0.3125
  9
$PLINEWID
 40
0.0
  9
$COORDS
 70
     1
  9
$SPLFRAME
 70
     0
  9
$SPLINETYPE
 70
     6
  9
$SPLINESEGS
 70
     8
  9
$ATTDIA
 70
     1
  9
$ATTREQ
 70
     1
  9
$HANDLING
 70
     1
  9
$HANDSEED
  5
D3EA
  9
$SURFTAB1
 70
     6
  9
$SURFTAB2
 70
     6
  9
$SURFTYPE
 70
     6
  9
$SURFU
 70
     6
  9
$SURFV
 70
     6
  9
$UCSNAME
  2

  9
$UCSORG
 10
0.0
 20
0.0
 30
0.0
  9
$UCSXDIR
 10
1.0
 20
0.0
 30
0.0
  9
$UCSYDIR
 10
0.0
 20
1.0
 30
0.0
  9
$PUCSNAME
  2

  9
$PUCSORG
 10
0.0
 20
0.0
 30
0.0
  9
$PUCSXDIR
 10
1.0
 20
0.0
 30
0.0
  9
$PUCSYDIR
 10
0.0
 20
1.0
 30
0.0
  9
$USERI1
 70
     0
  9
$USERI2
 70
     0
  9
$USERI3
 70
     0
  9
$USERI4
 70
     0
  9
$USERI5
 70
     0
  9
$USERR1
 40
0.0
  9
$USERR2
 40
0.0
  9
$USERR3
 40
0.0
  9
$USERR4
 40
0.0
  9
$USERR5
 40
0.0
  9
$WORLDVIEW
 70
     1
  9
$SHADEDGE
 70
     3
  9
$SHADEDIF
 70
    70
  9
$TILEMODE
 70
     1
  9
$MAXACTVP
 70
    64
  9
$PLIMCHECK
 70
     0
  9
$PEXTMIN
 10
1.0000000000000000E+20
 20
1.0000000000000000E+20
 30
1.0000000000000000E+20
  9
$PEXTMAX
 10
-1.0000000000000000E+20
 20
-1.0000000000000000E+20
 30
-1.0000000000000000E+20
  9
$PLIMMIN
 10
0.0
 20
0.0
  9
$PLIMMAX
 10
12.0
 20
9.0
  9
$UNITMODE
 70
     0
  9
$VISRETAIN
 70
     1
  9
$PLINEGEN
 70
     0
  9
$PSLTSCALE
 70
     1
  0
ENDSEC
  0
SECTION
  2
TABLES
  0
TABLE
  2
VPORT
 70
     1
  0
VPORT
  2
*ACTIVE
 70
     0
 10
0.0
 20
0.0
 11
1.0
 21
1.0
 12
886.9352938732648681
 22
47.4364995252149413
 13
0.0
 23
0.0
 14
1.0
 24
1.0
 15
0.0
 25
0.0
 16
0.0
 26
0.0
 36
17.1152628219792007
 17
3803.5440673828129547
 27
125.9952621967499056
 37
0.0
 40
4.0712971182929136
 41
2.204387990762124
 42
50.0
 43
0.0
 44
0.0
 50
0.0
 51
0.0
 71
     0
 72
   100
 73
     1
 74
     1
 75
     0
 76
     0
 77
     0
 78
     0
  0
ENDTAB
  0
TABLE
  2
LTYPE
 70
     2
  0
LTYPE
  2
CONTINUOUS
 70
     0
  3
Solid line
 72
    65
 73
     0
 40
0.0
  0
LTYPE
  2
PHANTOM2
 70
     0
  3
___ _ _ ___ _ _ ___ _ _ ___ _ _
 72
    65
 73
     6
 40
1.25
 49
0.625
 49
-0.125
 49
0.125
 49
-0.125
 49
0.125
 49
-0.125
  0
ENDTAB
  0
TABLE
  2
LAYER
 70
     2
  0
LAYER
  2
0
 70
     0
 62
   255
  6
CONTINUOUS
  0
LAYER
  2
DEFPOINTS
 70
     0
 62
     7
  6
CONTINUOUS
  0
ENDTAB
  0
TABLE
  2
STYLE
 70
     1
  0
STYLE
  2
STANDARD
 70
     0
 40
0.0
 41
0.8
 50
0.0
 71
     0
 42
0.2
  3
txt
  4

  0
ENDTAB
  0
TABLE
  2
VIEW
 70
     0
  0
ENDTAB
  0
TABLE
  2
UCS
 70
     0
  0
ENDTAB
  0
TABLE
  2
APPID
 70
     9
  0
APPID
  2
ACAD
 70
     0
  0
APPID
  2
ACAD_MLEADERVER
 70
     0
  0
APPID
  2
ACAD_EXEMPT_FROM_CAD_STANDARDS
 70
     0
  0
APPID
  2
ACAD_NAV_VCDISPLAY
 70
     0
  0
APPID
  2
ACAECLAYERSTANDARD
 70
     0
  0
APPID
  2
ACCMTRANSPARENCY
 70
     0
  0
APPID
  2
ACAD_DSTYLE_DIMJAG
 70
     0
  0
APPID
  2
ACAD_DSTYLE_DIMTALN
 70
     0
  0
APPID
  2
ACDBATTR
 70
     0
  0
ENDTAB
  0
TABLE
  2
DIMSTYLE
 70
     1
  0
DIMSTYLE
  2
STANDARD
 70
     0
  3

  4

  5

  6

  7

 40
1.0
 41
0.1875
 42
0.0625
 43
0.38
 44
0.125
 45
0.0
 46
0.0
 47
0.01
 48
0.01
140
0.15625
141
0.09
142
0.0
143
25.3999999999999986
144
1.0
145
0.0
146
1.0
147
0.09
 71
     1
 72
     0
 73
     1
 74
     1
 75
     0
 76
     0
 77
     0
 78
     4
170
     0
171
     2
172
     0
173
     0
174
     0
175
     0
176
     0
177
     0
178
     0
  0
ENDTAB
  0
ENDSEC
  0
SECTION
  2
BLOCKS
  0
BLOCK
  8
0
  2
$MODEL_SPACE
 70
     0
 10
0.0
 20
0.0
 30
0.0
  3
$MODEL_SPACE
  1

  0
ENDBLK
  5
21
  8
0
  0
BLOCK
 67
     1
  8
0
  2
$PAPER_SPACE
 70
     0
 10
0.0
 20
0.0
 30
0.0
  3
$PAPER_SPACE
  1

  0
ENDBLK
  5
1D
 67
     1
  8
0
  0
BLOCK
  8
0
  2
_FILLED
 70
     0
 10
0.0
 20
0.0
 30
0.0
  3
_FILLED
  1

  0
SOLID
  5
CCCB
  8
0
  6
BYBLOCK
 62
     0
 10
0.0
 20
0.0
 30
0.0
 11
-1.0
 21
0.1666666667
 31
0.0
 12
-1.0
 22
-0.1666666667
 32
0.0
 13
-1.0
 23
-0.1666666667
 33
0.0
  0
ENDBLK
  5
CCCC
  8
0
  6
BYBLOCK
 62
     0
  0
ENDSEC
  0
SECTION
  2
ENTITIES
  0
ATTDEF
  5
3930
  8
DEFPOINTS
 10
4690.4772451754588474
 20
175.4516446464878072
 30
0.0
 40
0.001
  1
K-24574X-4CD
  3

  2
MODELNUMBER
 70
     0
1001
ACDBATTR
1070
     0
1070
     1
  0
ATTDEF
  5
3931
  8
DEFPOINTS
 10
4690.4772451754588474
 20
175.4499779798211989
 30
0.0
 40
0.001
  1
TAUT
  3

  2
TRADENAME
 70
     0
1001
ACDBATTR
1070
     0
1070
     1
  0
ATTDEF
  5
3932
  8
DEFPOINTS
 10
4690.4772451754588474
 20
175.4483113131545053
 30
0.0
 40
0.001
  1
VALVE TRIM
  3

  2
PRODUCT
 70
     0
1001
ACDBATTR
1070
     0
1070
     1
  0
LINE
  5
D2A5
  8
0
 10
4688.5108573190773313
 20
175.2509227086416956
 30
0.0
 11
4688.5108573190773313
 21
175.4478132598416948
 31
0.0
  0
LINE
  5
D2A6
  8
0
 10
4688.5895573190773575
 20
175.1722227086416979
 30
0.0
 11
4692.3691651930766966
 21
175.1722227086416979
 31
0.0
  0
LINE
  5
D2A7
  8
0
 10
4688.5108573190773313
 20
175.4478132598416948
 30
0.0
 11
4692.4478651930767228
 21
175.4478132598416948
 31
0.0
  0
ARC
  5
D2A8
  8
0
 10
4688.5895573190773575
 20
175.2509227086416956
 30
0.0
 40
0.0787
 50
179.9999999999984084
 51
270.0
  0
LINE
  5
D2A9
  8
0
 10
4689.6526060850774229
 20
172.4957690579416862
 30
0.0
 11
4691.3061164357768575
 21
172.4957690579416862
 31
0.0
  0
ARC
  5
D2AA
  8
0
 10
4690.5934388047144239
 20
172.6183332333945089
 30
0.0
 40
0.8746757926445983
 50
188.0550947374289024
 51
212.2350304007229056
  0
LINE
  5
D2AB
  8
0
 10
4692.4478651930767228
 20
175.2509227086416956
 30
0.0
 11
4692.4478651930767228
 21
175.4478132598416948
 31
0.0
  0
ARC
  5
D2AC
  8
0
 10
4692.3691651930766966
 20
175.2509227086416956
 30
0.0
 40
0.0787
 50
270.0
 51
0.0000000000016284
  0
LINE
  5
D2AE
  8
0
 10
4689.6526060850774229
 20
171.4557869341539913
 30
0.0
 11
4689.6526060850774229
 21
172.3503981917417036
 31
0.0
  0
ARC
  5
D2AF
  8
0
 10
4689.6779060850767564
 20
172.3503981917417036
 30
0.0
 40
0.0253
 50
90.0
 51
180.0
  0
ARC
  5
D2B0
  8
0
 10
4690.4793612560770271
 20
195.032926041545295
 30
0.0
 40
23.6220472441035696
 50
268.0681499687277096
 51
270.0000000105263211
  0
ARC
  5
D2B1
  8
0
 10
4689.6841060850765643
 20
171.4557869341539913
 30
0.0
 40
0.0315
 50
180.0000000000015916
 51
268.0681499687277096
  0
LINE
  5
D2B2
  8
0
 10
4689.7531027581771923
 20
172.3756981917416908
 30
0.0
 11
4689.6779060850767564
 21
172.3756981917416908
 31
0.0
  0
ARC
  5
D2B3
  8
0
 10
4690.4767919060368513
 20
173.6556506782278859
 30
0.0
 40
1.6851938571332341
 50
255.8855408132689888
 51
270.0873578470267944
  0
ARC
  5
D2B4
  8
0
 10
4690.3031696268180895
 20
172.9651689461159947
 30
0.0
 40
0.9732179318228906
 50
239.5713613759315876
 51
255.8855408132689888
  0
ARC
  5
D2B5
  8
0
 10
4690.0057491470997775
 20
172.4588080698694057
 30
0.0
 40
0.3859698762716796
 50
212.9772188643713093
 51
239.5713613759315876
  0
ARC
  5
D2B6
  8
0
 10
4689.8384282828019423
 20
172.3502431901956982
 30
0.0
 40
0.186514104913775
 50
184.8775466787334949
 51
212.9772188643713093
  0
ARC
  5
D2B7
  8
0
 10
4690.4782854248405783
 20
173.6074908015312985
 30
0.0
 40
1.601536609337022
 50
258.0644087668022166
 51
270.0384885632635132
  0
ARC
  5
D2B8
  8
0
 10
4690.361979788222925
 20
173.05727513767809
 30
0.0
 40
1.0391628209554551
 50
242.4817514967002978
 51
258.0644087668022166
  0
ARC
  5
D2B9
  8
0
 10
4690.0821705006819684
 20
172.5201842218326931
 30
0.0
 40
0.4335557789903362
 50
216.0100916425012088
 51
242.4817514967002978
  0
ARC
  5
D2BA
  8
0
 10
4689.8682413493097556
 20
172.3646980183204107
 30
0.0
 40
0.1690909584763881
 50
188.8061745270887002
 51
216.0100916425012088
  0
ARC
  5
D2BB
  8
0
 10
4689.6598121893030111
 20
172.3324084793563031
 30
0.0
 40
0.0418244963104735
 50
8.8061745270902776
 51
31.8130014811715895
  0
ARC
  5
D2BC
  8
0
 10
4689.7700681606111175
 20
172.4161830213097062
 30
0.0
 40
0.096914793237011
 50
212.6186771178419974
 51
219.5624147495713032
  0
ARC
  5
D2BD
  8
0
 10
4689.7072810710960766
 20
172.3766285010233901
 30
0.0
 40
0.0227151739786408
 50
194.3927840596718113
 51
213.9537263934035138
  0
ARC
  5
D2BE
  8
0
 10
4689.6928587432512359
 20
172.3720446148531948
 30
0.0
 40
0.0076540060373801
 50
172.6133703705341134
 51
187.9784200668310916
  0
ARC
  5
D2BF
  8
0
 10
4689.6876065776523319
 20
172.3727255057989964
 30
0.0
 40
0.0023578889732453
 50
125.3398400021231964
 51
172.6133703705502001
  0
ARC
  5
D2C0
  8
0
 10
4689.6900413114426556
 20
172.3692918729626058
 30
0.0
 40
0.0065671363033877
 50
102.705933134018295
 51
125.3398400021231964
  0
LINE
  5
D2C1
  8
0
 10
4690.4793612604271402
 20
172.0938150510417017
 30
0.0
 11
4689.9726161665075779
 21
172.0938150510417017
 31
0.0
  0
LINE
  5
D2C2
  8
0
 10
4690.4793612560770271
 20
172.0548320500417105
 30
0.0
 11
4690.2457269558772168
 21
172.0548320499416945
 31
0.0
  0
ARC
  5
D2C3
  8
0
 10
4690.2457269558935877
 20
172.0154619712178032
 30
0.0
 40
0.039370078723918
 50
90.000000024543894
 51
160.1834713371482053
  0
LINE
  5
D2C4
  8
0
 10
4690.3021959017769404
 20
172.0938150510417017
 30
0.0
 11
4690.3021959017769404
 21
172.0548320500417105
 31
0.0
  0
LINE
  5
D2C5
  8
0
 10
4690.3021959017769404
 20
172.0627775678179887
 30
0.0
 11
4690.2964101587667756
 21
172.0548320500417105
 31
0.0
  0
LINE
  5
D2C6
  8
0
 10
4689.6526060850774229
 20
172.4957690579416862
 30
0.0
 11
4689.6526060850774229
 21
175.1722227086416979
 31
0.0
  0
ARC
  5
D2C7
  8
0
 10
4690.365283716140766
 20
172.6183332333945089
 30
0.0
 40
0.8746757926445983
 50
327.7649695992769807
 51
351.9449052625711261
  0
LINE
  5
D2C8
  8
0
 10
4691.3061164357768575
 20
171.4557869341539913
 30
0.0
 11
4691.3061164357768575
 21
172.3503981917417036
 31
0.0
  0
ARC
  5
D2C9
  8
0
 10
4691.2808164357766145
 20
172.3503981917417036
 30
0.0
 40
0.0253
 50
0.0
 51
90.0
  0
ARC
  5
D2CA
  8
0
 10
4690.4793612647772534
 20
195.032926041545295
 30
0.0
 40
23.6220472441035696
 50
269.9999999894736789
 51
271.9318500312722904
  0
ARC
  5
D2CB
  8
0
 10
4691.2746164357768066
 20
171.4557869341539913
 30
0.0
 40
0.0315
 50
271.9318500312722904
 51
359.9999999999984084
  0
LINE
  5
D2CC
  8
0
 10
4691.2056197626770881
 20
172.3756981917416908
 30
0.0
 11
4691.2808164357766145
 21
172.3756981917416908
 31
0.0
  0
ARC
  5
D2CD
  8
0
 10
4690.4819306148183387
 20
173.6556506782278859
 30
0.0
 40
1.6851938571332341
 50
269.9126421529732056
 51
284.1144591867309828
  0
ARC
  5
D2CE
  8
0
 10
4690.655552894036191
 20
172.9651689461159947
 30
0.0
 40
0.9732179318228906
 50
284.1144591867309828
 51
300.4286386240684124
  0
ARC
  5
D2CF
  8
0
 10
4690.9529733737535935
 20
172.4588080698694057
 30
0.0
 40
0.3859698762716796
 50
300.4286386240684124
 51
327.0227811356286907
  0
ARC
  5
D2D0
  8
0
 10
4691.1202942380532477
 20
172.3502431901956982
 30
0.0
 40
0.186514104913775
 50
327.0227811356286907
 51
355.1224533212663914
  0
ARC
  5
D2D1
  8
0
 10
4690.4804370960118831
 20
173.6074908015312985
 30
0.0
 40
1.601536609337022
 50
269.9615114367364868
 51
281.9355912331977834
  0
ARC
  5
D2D2
  8
0
 10
4690.596742732632265
 20
173.05727513767809
 30
0.0
 40
1.0391628209554551
 50
281.9355912331977834
 51
297.5182485032996738
  0
ARC
  5
D2D3
  8
0
 10
4690.876552020172312
 20
172.5201842218326931
 30
0.0
 40
0.4335557789903362
 50
297.5182485032996738
 51
323.9899083574987912
  0
ARC
  5
D2D4
  8
0
 10
4691.0904811715454343
 20
172.3646980183204107
 30
0.0
 40
0.1690909584763881
 50
323.9899083574987912
 51
351.1938254729113282
  0
ARC
  5
D2D5
  8
0
 10
4691.2989103315521788
 20
172.3324084793563031
 30
0.0
 40
0.0418244963104735
 50
148.1869985188284033
 51
171.1938254729097082
  0
ARC
  5
D2D6
  8
0
 10
4691.188654360241344
 20
172.4161830213097062
 30
0.0
 40
0.096914793237011
 50
320.4375852504286968
 51
327.3813228821579742
  0
ARC
  5
D2D7
  8
0
 10
4691.2514414497582038
 20
172.3766285010233901
 30
0.0
 40
0.0227151739786408
 50
326.0462736065965146
 51
345.6072159403281034
  0
ARC
  5
D2D8
  8
0
 10
4691.2658637776030446
 20
172.3720446148531948
 30
0.0
 40
0.0076540060373801
 50
352.0215799331688231
 51
7.3866296294658911
  0
ARC
  5
D2D9
  8
0
 10
4691.2711159432019485
 20
172.3727255057989964
 30
0.0
 40
0.0023578889732453
 50
7.3866296294497422
 51
54.6601599978768107
  0
ARC
  5
D2DA
  8
0
 10
4691.2686812094107154
 20
172.3692918729626058
 30
0.0
 40
0.0065671363033877
 50
54.6601599978768107
 51
77.2940668659817334
  0
LINE
  5
D2DB
  8
0
 10
4690.4793612604271402
 20
172.0938150510417017
 30
0.0
 11
4690.9861063543457931
 21
172.0938150510417017
 31
0.0
  0
LINE
  5
D2DC
  8
0
 10
4690.4793612647772534
 20
172.0548320500417105
 30
0.0
 11
4690.7129955649770636
 21
172.0548320499416945
 31
0.0
  0
ARC
  5
D2DD
  8
0
 10
4690.7129955649597832
 20
172.0154619712178032
 30
0.0
 40
0.039370078723918
 50
19.8165286628517805
 51
89.9999999754560918
  0
LINE
  5
D2DE
  8
0
 10
4690.65652661907734
 20
172.0938150510417017
 30
0.0
 11
4690.65652661907734
 21
172.0548320500417105
 31
0.0
  0
LINE
  5
D2DF
  8
0
 10
4690.65652661907734
 20
172.0627775678179887
 30
0.0
 11
4690.6623123620884144
 21
172.0548320500417105
 31
0.0
  0
LINE
  5
D2E0
  8
0
 10
4691.3061164357768575
 20
172.4957690579416862
 30
0.0
 11
4691.3061164357768575
 21
175.1722227086416979
 31
0.0
  0
ENDSEC
  0
EOF
