  0
SECTION
  2
HEADER
  9
$ACADVER
  1
AC1009
  9
$INSBASE
 10
2284.1741704444661991
 20
287.3725173976761766
 30
0.0
  9
$EXTMIN
 10
2282.0715098687269347
 20
284.6758342224331955
 30
-0.0000000000112498
  9
$EXTMAX
 10
2286.2576422243059824
 20
287.3946332471106189
 30
0.0000000000002956
  9
$LIMMIN
 10
0.0
 20
0.0
  9
$LIMMAX
 10
11.6929133858000007
 20
8.2677165353999982
  9
$ORTHOMODE
 70
     0
  9
$REGENMODE
 70
     1
  9
$FILLMODE
 70
     1
  9
$QTEXTMODE
 70
     0
  9
$MIRRTEXT
 70
     0
  9
$DRAGMODE
 70
     2
  9
$LTSCALE
 40
0.6431102362
  9
$OSMODE
 70
  4095
  9
$ATTMODE
 70
     1
  9
$TEXTSIZE
 40
0.2
  9
$TRACEWID
 40
0.05
  9
$TEXTSTYLE
  7
STANDARD
  9
$CLAYER
  8
0
  9
$CELTYPE
  6
BYLAYER
  9
$CECOLOR
 62
   256
  9
$DIMSCALE
 40
1.0
  9
$DIMASZ
 40
0.1875
  9
$DIMEXO
 40
0.0625
  9
$DIMDLI
 40
0.4443307087
  9
$DIMRND
 40
0.0
  9
$DIMDLE
 40
0.0
  9
$DIMEXE
 40
0.125
  9
$DIMTP
 40
0.01
  9
$DIMTM
 40
0.01
  9
$DIMTXT
 40
2.0
  9
$DIMCEN
 40
0.1052362205
  9
$DIMTSZ
 40
0.0
  9
$DIMTOL
 70
     1
  9
$DIMLIM
 70
     0
  9
$DIMTIH
 70
     1
  9
$DIMTOH
 70
     1
  9
$DIMSE1
 70
     0
  9
$DIMSE2
 70
     0
  9
$DIMTAD
 70
     0
  9
$DIMZIN
 70
     0
  9
$DIMBLK
  1

  9
$DIMASO
 70
     1
  9
$DIMSHO
 70
     1
  9
$DIMPOST
  1
\X
  9
$DIMAPOST
  1

  9
$DIMALT
 70
     1
  9
$DIMALTD
 70
     2
  9
$DIMALTF
 40
25.3999999999999986
  9
$DIMLFAC
 40
1.0
  9
$DIMTOFL
 70
     0
  9
$DIMTVP
 40
0.0
  9
$DIMTIX
 70
     0
  9
$DIMSOXD
 70
     0
  9
$DIMSAH
 70
     0
  9
$DIMBLK1
  1

  9
$DIMBLK2
  1

  9
$DIMSTYLE
  2
STANDARD
  9
$DIMCLRD
 70
     0
  9
$DIMCLRE
 70
     0
  9
$DIMCLRT
 70
     0
  9
$DIMTFAC
 40
1.0
  9
$DIMGAP
 40
0.09
  9
$LUNITS
 70
     2
  9
$LUPREC
 70
     4
  9
$SKETCHINC
 40
0.1
  9
$FILLETRAD
 40
0.0
  9
$AUNITS
 70
     0
  9
$AUPREC
 70
     0
  9
$MENU
  1
.
  9
$ELEVATION
 40
0.0
  9
$PELEVATION
 40
0.0
  9
$THICKNESS
 40
0.0
  9
$LIMCHECK
 70
     0
  9
$BLIPMODE
 70
     0
  9
$CHAMFERA
 40
0.0
  9
$CHAMFERB
 40
0.0
  9
$SKPOLY
 70
     0
  9
$TDCREATE
 40
2458060.468368056230247
  9
$TDUPDATE
 40
2460094.4828935191035271
  9
$TDINDWG
 40
0.2790001157
  9
$TDUSRTIMER
 40
0.2790001157
  9
$USRTIMER
 70
     1
  9
$ANGBASE
 50
0.0
  9
$ANGDIR
 70
     0
  9
$PDMODE
 70
     0
  9
$PDSIZE
 40
0.3125
  9
$PLINEWID
 40
0.0
  9
$COORDS
 70
     1
  9
$SPLFRAME
 70
     0
  9
$SPLINETYPE
 70
     6
  9
$SPLINESEGS
 70
     8
  9
$ATTDIA
 70
     1
  9
$ATTREQ
 70
     1
  9
$HANDLING
 70
     1
  9
$HANDSEED
  5
5D1C
  9
$SURFTAB1
 70
     6
  9
$SURFTAB2
 70
     6
  9
$SURFTYPE
 70
     6
  9
$SURFU
 70
     6
  9
$SURFV
 70
     6
  9
$UCSNAME
  2

  9
$UCSORG
 10
0.0
 20
0.0
 30
0.0
  9
$UCSXDIR
 10
1.0
 20
0.0
 30
0.0
  9
$UCSYDIR
 10
0.0
 20
1.0
 30
0.0
  9
$PUCSNAME
  2

  9
$PUCSORG
 10
0.0
 20
0.0
 30
0.0
  9
$PUCSXDIR
 10
1.0
 20
0.0
 30
0.0
  9
$PUCSYDIR
 10
0.0
 20
1.0
 30
0.0
  9
$USERI1
 70
     0
  9
$USERI2
 70
     0
  9
$USERI3
 70
     0
  9
$USERI4
 70
     0
  9
$USERI5
 70
     0
  9
$USERR1
 40
0.0
  9
$USERR2
 40
0.0
  9
$USERR3
 40
0.0
  9
$USERR4
 40
0.0
  9
$USERR5
 40
0.0
  9
$WORLDVIEW
 70
     1
  9
$SHADEDGE
 70
     3
  9
$SHADEDIF
 70
    70
  9
$TILEMODE
 70
     1
  9
$MAXACTVP
 70
    64
  9
$PLIMCHECK
 70
     0
  9
$PEXTMIN
 10
1.0000000000000000E+20
 20
1.0000000000000000E+20
 30
1.0000000000000000E+20
  9
$PEXTMAX
 10
-1.0000000000000000E+20
 20
-1.0000000000000000E+20
 30
-1.0000000000000000E+20
  9
$PLIMMIN
 10
0.0
 20
0.0
  9
$PLIMMAX
 10
12.0
 20
9.0
  9
$UNITMODE
 70
     0
  9
$VISRETAIN
 70
     1
  9
$PLINEGEN
 70
     0
  9
$PSLTSCALE
 70
     1
  0
ENDSEC
  0
SECTION
  2
TABLES
  0
TABLE
  2
VPORT
 70
     1
  0
VPORT
  2
*ACTIVE
 70
     0
 10
0.0
 20
0.0
 11
1.0
 21
1.0
 12
430.2594246793286743
 22
113.9237615886707005
 13
0.0
 23
0.0
 14
1.0
 24
1.0
 15
0.0
 25
0.0
 16
0.0
 26
0.0
 36
198.6867210225404961
 17
1853.9051513671870453
 27
172.1114721461011925
 37
0.0
 40
2.7403482903948202
 41
2.5251322751322749
 42
50.0
 43
0.0
 44
0.0
 50
0.0
 51
0.0
 71
     0
 72
   100
 73
     1
 74
     1
 75
     0
 76
     0
 77
     0
 78
     0
  0
ENDTAB
  0
TABLE
  2
LTYPE
 70
     2
  0
LTYPE
  2
CONTINUOUS
 70
     0
  3
Solid line
 72
    65
 73
     0
 40
0.0
  0
LTYPE
  2
PHANTOM2
 70
     0
  3
___ _ _ ___ _ _ ___ _ _ ___ _ _
 72
    65
 73
     6
 40
1.25
 49
0.625
 49
-0.125
 49
0.125
 49
-0.125
 49
0.125
 49
-0.125
  0
ENDTAB
  0
TABLE
  2
LAYER
 70
     2
  0
LAYER
  2
0
 70
     0
 62
   255
  6
CONTINUOUS
  0
LAYER
  2
DEFPOINTS
 70
     0
 62
     7
  6
CONTINUOUS
  0
ENDTAB
  0
TABLE
  2
STYLE
 70
     1
  0
STYLE
  2
STANDARD
 70
     0
 40
0.0
 41
0.8
 50
0.0
 71
     0
 42
0.2
  3
txt
  4

  0
ENDTAB
  0
TABLE
  2
VIEW
 70
     0
  0
ENDTAB
  0
TABLE
  2
UCS
 70
     0
  0
ENDTAB
  0
TABLE
  2
APPID
 70
     9
  0
APPID
  2
ACAD
 70
     0
  0
APPID
  2
ACAD_MLEADERVER
 70
     0
  0
APPID
  2
ACAD_EXEMPT_FROM_CAD_STANDARDS
 70
     0
  0
APPID
  2
ACAD_NAV_VCDISPLAY
 70
     0
  0
APPID
  2
ACAECLAYERSTANDARD
 70
     0
  0
APPID
  2
ACCMTRANSPARENCY
 70
     0
  0
APPID
  2
ACAD_DSTYLE_DIMJAG
 70
     0
  0
APPID
  2
ACAD_DSTYLE_DIMTALN
 70
     0
  0
APPID
  2
ACDBATTR
 70
     0
  0
ENDTAB
  0
TABLE
  2
DIMSTYLE
 70
     1
  0
DIMSTYLE
  2
STANDARD
 70
     0
  3

  4

  5

  6

  7

 40
1.0
 41
0.1875
 42
0.0625
 43
0.38
 44
0.125
 45
0.0
 46
0.0
 47
0.01
 48
0.01
140
0.15625
141
0.09
142
0.0
143
25.3999999999999986
144
1.0
145
0.0
146
1.0
147
0.09
 71
     1
 72
     0
 73
     1
 74
     1
 75
     0
 76
     0
 77
     0
 78
     4
170
     0
171
     2
172
     0
173
     0
174
     0
175
     0
176
     0
177
     0
178
     0
  0
ENDTAB
  0
ENDSEC
  0
SECTION
  2
BLOCKS
  0
BLOCK
  8
0
  2
$MODEL_SPACE
 70
     0
 10
0.0
 20
0.0
 30
0.0
  3
$MODEL_SPACE
  1

  0
ENDBLK
  5
21
  8
0
  0
BLOCK
 67
     1
  8
0
  2
$PAPER_SPACE
 70
     0
 10
0.0
 20
0.0
 30
0.0
  3
$PAPER_SPACE
  1

  0
ENDBLK
  5
1D
 67
     1
  8
0
  0
BLOCK
  8
0
  2
_FILLED
 70
     0
 10
0.0
 20
0.0
 30
0.0
  3
_FILLED
  1

  0
SOLID
  5
518D
  8
0
  6
BYBLOCK
 62
     0
 10
0.0
 20
0.0
 30
0.0
 11
-1.0
 21
0.1666666667
 31
0.0
 12
-1.0
 22
-0.1666666667
 32
0.0
 13
-1.0
 23
-0.1666666667
 33
0.0
  0
ENDBLK
  5
518E
  8
0
  6
BYBLOCK
 62
     0
  0
ENDSEC
  0
SECTION
  2
ENTITIES
  0
ATTDEF
  5
3930
  8
DEFPOINTS
 10
2284.1725578341352048
 20
287.3765427429769943
 30
0.0
 40
0.001
  1
K-24575X-4ACD
  3

  2
MODELNUMBER
 70
     0
1001
ACDBATTR
1070
     0
1070
     1
  0
ATTDEF
  5
3931
  8
DEFPOINTS
 10
2284.1725578341352048
 20
287.374876076310386
 30
0.0
 40
0.001
  1
TAUT
  3

  2
TRADENAME
 70
     0
1001
ACDBATTR
1070
     0
1070
     1
  0
ATTDEF
  5
3932
  8
DEFPOINTS
 10
2284.1725578341352048
 20
287.3732094096437208
 30
0.0
 40
0.001
  1
VALVE TRIM
  3

  2
PRODUCT
 70
     0
1001
ACDBATTR
1070
     0
1070
     1
  0
LINE
  5
5BE4
  8
0
 10
2282.2056665074660486
 20
287.1756268464761206
 30
0.0
 11
2282.2056665074660486
 21
287.3725173976761766
 31
0.0
  0
LINE
  5
5BE5
  8
0
 10
2283.3749987909668562
 20
284.6815724370762268
 30
0.0
 11
2284.9733420979659968
 21
284.6815724370762268
 31
0.0
  0
LINE
  5
5BE6
  8
0
 10
2282.2843665074660748
 20
287.0969268464762081
 30
0.0
 11
2286.0639743814658686
 21
287.0969268464762081
 31
0.0
  0
LINE
  5
5BE7
  8
0
 10
2282.2056665074660486
 20
287.3725173976761766
 30
0.0
 11
2286.1426743814668043
 21
287.3725173976761766
 31
0.0
  0
ARC
  5
5BE8
  8
0
 10
2282.2843665074660748
 20
287.1756268464761206
 30
0.0
 40
0.0787
 50
180.0
 51
270.0
  0
LINE
  5
5BE9
  8
0
 10
2283.3473987909660536
 20
287.0969268464762081
 30
0.0
 11
2283.3473987909660536
 21
285.8410133819760972
 31
0.0
  0
LINE
  5
5BEA
  8
0
 10
2283.3473987909660536
 20
285.8410133819760972
 30
0.0
 11
2285.0009420979658898
 21
285.8410133819760972
 31
0.0
  0
LINE
  5
5BEB
  8
0
 10
2283.3473987909660536
 20
284.7091724370761767
 30
0.0
 11
2283.3473987909660536
 21
285.7048795236761976
 31
0.0
  0
LINE
  5
5BEC
  8
0
 10
2283.3473987909660536
 20
285.8410133819760972
 30
0.0
 11
2283.3473987909660536
 21
287.0969268464762081
 31
0.0
  0
ARC
  5
5BED
  8
0
 10
2283.3749987909668562
 20
284.7091724370761767
 30
0.0
 40
0.0276
 50
180.0000000000065086
 51
270.0
  0
LINE
  5
5BEE
  8
0
 10
2283.3673987909660354
 20
285.7248795236761225
 30
0.0
 11
2283.4466014284171251
 21
285.7248795236761225
 31
0.0
  0
ARC
  5
5BEF
  8
0
 10
2283.3673987909660354
 20
285.7048795236761976
 30
0.0
 40
0.02
 50
90.0
 51
179.9999999999934914
  0
ARC
  5
5BF0
  8
0
 10
2284.2882479931031412
 20
285.9635775574290051
 30
0.0
 40
0.8746757926445983
 50
188.0550947374273107
 51
211.6698267731497083
  0
ARC
  5
5BF1
  8
0
 10
2283.4057611369421465
 20
285.7172478686292152
 30
0.0
 40
0.0097220888291413
 50
128.2810786312271887
 51
183.3587093898105138
  0
ARC
  5
5BF2
  8
0
 10
2283.5415071540360259
 20
285.714204146004306
 30
0.0
 40
0.1454724474216713
 50
179.0254902195588045
 51
190.3802825555004858
  0
ARC
  5
5BF3
  8
0
 10
2283.5719368908080469
 20
285.7178023004869942
 30
0.0
 40
0.1760632028785399
 50
189.7477741927071975
 51
203.8943129302795114
  0
ARC
  5
5BF4
  8
0
 10
2283.7141084737340861
 20
285.7966860351976948
 30
0.0
 40
0.3383142047127807
 50
206.3568772987611908
 51
239.7789308209997046
  0
ARC
  5
5BF5
  8
0
 10
2284.0555362104059896
 20
286.3750478540382005
 30
0.0
 40
1.0099317774069749
 50
239.5569429291641939
 51
262.137174242982212
  0
ARC
  5
5BF6
  8
0
 10
2284.1716121509020923
 20
286.9483594897108105
 30
0.0
 40
1.5941519490094791
 50
260.8232438134645008
 51
270.0919482531074891
  0
LINE
  5
5BF7
  8
0
 10
2283.9367387052861886
 20
285.4000763740760931
 30
0.0
 11
2284.4116021836471191
 21
285.4000763740760931
 31
0.0
  0
LINE
  5
5BF8
  8
0
 10
2283.9173756629661511
 20
285.3746110203762214
 30
0.0
 11
2283.9176015064581406
 21
285.3810783325624243
 31
0.0
  0
ARC
  5
5BF9
  8
0
 10
2283.9372823256649099
 20
285.3803910632930183
 30
0.0
 40
0.0196928155363665
 50
91.5818515445779155
 51
178.0000002371120047
  0
LINE
  5
5BFA
  8
0
 10
2283.9970050901661125
 20
285.4548153593761981
 30
0.0
 11
2283.9970050901661125
 21
285.4000763740760931
 31
0.0
  0
LINE
  5
5BFB
  8
0
 10
2286.1426743814668043
 20
287.1756268464761206
 30
0.0
 11
2286.1426743814668043
 21
287.3725173976761766
 31
0.0
  0
ARC
  5
5BFC
  8
0
 10
2286.0639743814658686
 20
287.1756268464761206
 30
0.0
 40
0.0787
 50
270.0
 51
0.0
  0
LINE
  5
5BFD
  8
0
 10
2285.0009420979658898
 20
287.0969268464762081
 30
0.0
 11
2285.0009420979658898
 21
285.8410133819760972
 31
0.0
  0
LINE
  5
5BFE
  8
0
 10
2285.0009420979658898
 20
284.7091724370761767
 30
0.0
 11
2285.0009420979658898
 21
285.7048795236761976
 31
0.0
  0
LINE
  5
5BFF
  8
0
 10
2285.0009420979658898
 20
285.8410133819760972
 30
0.0
 11
2285.0009420979658898
 21
287.0969268464762081
 31
0.0
  0
ARC
  5
5C00
  8
0
 10
2284.9733420979659968
 20
284.7091724370761767
 30
0.0
 40
0.0276
 50
270.0
 51
359.9999999999935199
  0
LINE
  5
5C01
  8
0
 10
2284.980942097965908
 20
285.7248795236761225
 30
0.0
 11
2284.9017394605148183
 21
285.7248795236761225
 31
0.0
  0
ARC
  5
5C02
  8
0
 10
2284.980942097965908
 20
285.7048795236761976
 30
0.0
 40
0.02
 50
0.0000000000065138
 51
90.0
  0
ARC
  5
5C03
  8
0
 10
2284.0600928958301665
 20
285.9635775574290051
 30
0.0
 40
0.8746757926445983
 50
328.3301732268502064
 51
351.9449052625727177
  0
ARC
  5
5C04
  8
0
 10
2284.9425797519897969
 20
285.7172478686292152
 30
0.0
 40
0.0097220888291413
 50
356.6412906101894009
 51
51.7189213687728184
  0
ARC
  5
5C05
  8
0
 10
2284.8068337348959176
 20
285.714204146004306
 30
0.0
 40
0.1454724474216713
 50
349.619717444499372
 51
0.9745097804411503
  0
ARC
  5
5C06
  8
0
 10
2284.7764039981238966
 20
285.7178023004869942
 30
0.0
 40
0.1760632028785399
 50
336.1056870697204886
 51
350.2522258072928025
  0
ARC
  5
5C07
  8
0
 10
2284.6342324151978573
 20
285.7966860351976948
 30
0.0
 40
0.3383142047127807
 50
300.2210691790003239
 51
333.6431227012387808
  0
ARC
  5
5C08
  8
0
 10
2284.2928046785268634
 20
286.3750478540382005
 30
0.0
 40
1.0099317774069749
 50
277.862825757017788
 51
300.4430570708357209
  0
ARC
  5
5C09
  8
0
 10
2284.1767287380312155
 20
286.9483594897108105
 30
0.0
 40
1.5941519490094791
 50
269.9080517468664198
 51
279.1767561865356129
  0
LINE
  5
5C0A
  8
0
 10
2284.4309652259671566
 20
285.3746110203762214
 30
0.0
 11
2284.4307393824751671
 21
285.3810783325624243
 31
0.0
  0
ARC
  5
5C0B
  8
0
 10
2284.4110585632670336
 20
285.3803910632930183
 30
0.0
 40
0.0196928155363665
 50
1.999999762887978
 51
88.4181484554220845
  0
LINE
  5
5C0C
  8
0
 10
2284.3513357987671952
 20
285.4548153593761981
 30
0.0
 11
2284.3513357987671952
 21
285.4000763740760931
 31
0.0
  0
CIRCLE
  5
5C0D
  8
0
 10
2284.1741704444661991
 20
285.0457456653762165
 30
0.0
 40
0.1259842520000003
  0
LINE
  5
5C0F
  8
0
 10
2283.6394420494461883
 20
285.4548153593761981
 30
0.0
 11
2284.7088988394862099
 21
285.4548153593761981
 31
0.0
  0
ENDSEC
  0
EOF
