  0
SECTION
  2
HEADER
  9
$ACADVER
  1
AC1009
  9
$INSBASE
 10
2276.2276529591140388
 20
284.2643726543655021
 30
0.0
  9
$EXTMIN
 10
2273.5367079984139309
 20
280.8272479154442749
 30
0.0
  9
$EXTMAX
 10
2276.2392255289128116
 20
286.232876591365482
 30
0.0
  9
$LIMMIN
 10
0.0
 20
0.0
  9
$LIMMAX
 10
11.6929133858000007
 20
8.2677165353999982
  9
$ORTHOMODE
 70
     0
  9
$REGENMODE
 70
     1
  9
$FILLMODE
 70
     1
  9
$QTEXTMODE
 70
     0
  9
$MIRRTEXT
 70
     0
  9
$DRAGMODE
 70
     2
  9
$LTSCALE
 40
0.6431102362
  9
$OSMODE
 70
  4095
  9
$ATTMODE
 70
     1
  9
$TEXTSIZE
 40
0.2
  9
$TRACEWID
 40
0.05
  9
$TEXTSTYLE
  7
STANDARD
  9
$CLAYER
  8
0
  9
$CELTYPE
  6
BYLAYER
  9
$CECOLOR
 62
   256
  9
$DIMSCALE
 40
1.0
  9
$DIMASZ
 40
0.1875
  9
$DIMEXO
 40
0.0625
  9
$DIMDLI
 40
0.4443307087
  9
$DIMRND
 40
0.0
  9
$DIMDLE
 40
0.0
  9
$DIMEXE
 40
0.125
  9
$DIMTP
 40
0.01
  9
$DIMTM
 40
0.01
  9
$DIMTXT
 40
2.0
  9
$DIMCEN
 40
0.1052362205
  9
$DIMTSZ
 40
0.0
  9
$DIMTOL
 70
     1
  9
$DIMLIM
 70
     0
  9
$DIMTIH
 70
     1
  9
$DIMTOH
 70
     1
  9
$DIMSE1
 70
     0
  9
$DIMSE2
 70
     0
  9
$DIMTAD
 70
     0
  9
$DIMZIN
 70
     0
  9
$DIMBLK
  1

  9
$DIMASO
 70
     1
  9
$DIMSHO
 70
     1
  9
$DIMPOST
  1
\X
  9
$DIMAPOST
  1

  9
$DIMALT
 70
     1
  9
$DIMALTD
 70
     2
  9
$DIMALTF
 40
25.3999999999999986
  9
$DIMLFAC
 40
1.0
  9
$DIMTOFL
 70
     0
  9
$DIMTVP
 40
0.0
  9
$DIMTIX
 70
     0
  9
$DIMSOXD
 70
     0
  9
$DIMSAH
 70
     0
  9
$DIMBLK1
  1

  9
$DIMBLK2
  1

  9
$DIMSTYLE
  2
STANDARD
  9
$DIMCLRD
 70
     0
  9
$DIMCLRE
 70
     0
  9
$DIMCLRT
 70
     0
  9
$DIMTFAC
 40
1.0
  9
$DIMGAP
 40
0.09
  9
$LUNITS
 70
     2
  9
$LUPREC
 70
     4
  9
$SKETCHINC
 40
0.1
  9
$FILLETRAD
 40
0.0
  9
$AUNITS
 70
     0
  9
$AUPREC
 70
     0
  9
$MENU
  1
.
  9
$ELEVATION
 40
0.0
  9
$PELEVATION
 40
0.0
  9
$THICKNESS
 40
0.0
  9
$LIMCHECK
 70
     0
  9
$BLIPMODE
 70
     0
  9
$CHAMFERA
 40
0.0
  9
$CHAMFERB
 40
0.0
  9
$SKPOLY
 70
     0
  9
$TDCREATE
 40
2458060.468368056230247
  9
$TDUPDATE
 40
2460094.483101851772517
  9
$TDINDWG
 40
0.279659838
  9
$TDUSRTIMER
 40
0.279659838
  9
$USRTIMER
 70
     1
  9
$ANGBASE
 50
0.0
  9
$ANGDIR
 70
     0
  9
$PDMODE
 70
     0
  9
$PDSIZE
 40
0.3125
  9
$PLINEWID
 40
0.0
  9
$COORDS
 70
     1
  9
$SPLFRAME
 70
     0
  9
$SPLINETYPE
 70
     6
  9
$SPLINESEGS
 70
     8
  9
$ATTDIA
 70
     1
  9
$ATTREQ
 70
     1
  9
$HANDLING
 70
     1
  9
$HANDSEED
  5
5CFC
  9
$SURFTAB1
 70
     6
  9
$SURFTAB2
 70
     6
  9
$SURFTYPE
 70
     6
  9
$SURFU
 70
     6
  9
$SURFV
 70
     6
  9
$UCSNAME
  2

  9
$UCSORG
 10
0.0
 20
0.0
 30
0.0
  9
$UCSXDIR
 10
1.0
 20
0.0
 30
0.0
  9
$UCSYDIR
 10
0.0
 20
1.0
 30
0.0
  9
$PUCSNAME
  2

  9
$PUCSORG
 10
0.0
 20
0.0
 30
0.0
  9
$PUCSXDIR
 10
1.0
 20
0.0
 30
0.0
  9
$PUCSYDIR
 10
0.0
 20
1.0
 30
0.0
  9
$USERI1
 70
     0
  9
$USERI2
 70
     0
  9
$USERI3
 70
     0
  9
$USERI4
 70
     0
  9
$USERI5
 70
     0
  9
$USERR1
 40
0.0
  9
$USERR2
 40
0.0
  9
$USERR3
 40
0.0
  9
$USERR4
 40
0.0
  9
$USERR5
 40
0.0
  9
$WORLDVIEW
 70
     1
  9
$SHADEDGE
 70
     3
  9
$SHADEDIF
 70
    70
  9
$TILEMODE
 70
     1
  9
$MAXACTVP
 70
    64
  9
$PLIMCHECK
 70
     0
  9
$PEXTMIN
 10
1.0000000000000000E+20
 20
1.0000000000000000E+20
 30
1.0000000000000000E+20
  9
$PEXTMAX
 10
-1.0000000000000000E+20
 20
-1.0000000000000000E+20
 30
-1.0000000000000000E+20
  9
$PLIMMIN
 10
0.0
 20
0.0
  9
$PLIMMAX
 10
12.0
 20
9.0
  9
$UNITMODE
 70
     0
  9
$VISRETAIN
 70
     1
  9
$PLINEGEN
 70
     0
  9
$PSLTSCALE
 70
     1
  0
ENDSEC
  0
SECTION
  2
TABLES
  0
TABLE
  2
VPORT
 70
     1
  0
VPORT
  2
*ACTIVE
 70
     0
 10
0.0
 20
0.0
 11
1.0
 21
1.0
 12
420.9828153964759281
 22
111.4185901073037002
 13
0.0
 23
0.0
 14
1.0
 24
1.0
 15
0.0
 25
0.0
 16
0.0
 26
0.0
 36
198.6867210225404961
 17
1853.9051513671870453
 27
172.1114721461011925
 37
0.0
 40
5.2805892414407616
 41
2.5251322751322749
 42
50.0
 43
0.0
 44
0.0
 50
0.0
 51
0.0
 71
     0
 72
   100
 73
     1
 74
     1
 75
     0
 76
     0
 77
     0
 78
     0
  0
ENDTAB
  0
TABLE
  2
LTYPE
 70
     2
  0
LTYPE
  2
CONTINUOUS
 70
     0
  3
Solid line
 72
    65
 73
     0
 40
0.0
  0
LTYPE
  2
PHANTOM2
 70
     0
  3
___ _ _ ___ _ _ ___ _ _ ___ _ _
 72
    65
 73
     6
 40
1.25
 49
0.625
 49
-0.125
 49
0.125
 49
-0.125
 49
0.125
 49
-0.125
  0
ENDTAB
  0
TABLE
  2
LAYER
 70
     2
  0
LAYER
  2
0
 70
     0
 62
   255
  6
CONTINUOUS
  0
LAYER
  2
DEFPOINTS
 70
     0
 62
     7
  6
CONTINUOUS
  0
ENDTAB
  0
TABLE
  2
STYLE
 70
     1
  0
STYLE
  2
STANDARD
 70
     0
 40
0.0
 41
0.8
 50
0.0
 71
     0
 42
0.2
  3
txt
  4

  0
ENDTAB
  0
TABLE
  2
VIEW
 70
     0
  0
ENDTAB
  0
TABLE
  2
UCS
 70
     0
  0
ENDTAB
  0
TABLE
  2
APPID
 70
     9
  0
APPID
  2
ACAD
 70
     0
  0
APPID
  2
ACAD_MLEADERVER
 70
     0
  0
APPID
  2
ACAD_EXEMPT_FROM_CAD_STANDARDS
 70
     0
  0
APPID
  2
ACAD_NAV_VCDISPLAY
 70
     0
  0
APPID
  2
ACAECLAYERSTANDARD
 70
     0
  0
APPID
  2
ACCMTRANSPARENCY
 70
     0
  0
APPID
  2
ACAD_DSTYLE_DIMJAG
 70
     0
  0
APPID
  2
ACAD_DSTYLE_DIMTALN
 70
     0
  0
APPID
  2
ACDBATTR
 70
     0
  0
ENDTAB
  0
TABLE
  2
DIMSTYLE
 70
     1
  0
DIMSTYLE
  2
STANDARD
 70
     0
  3

  4

  5

  6

  7

 40
1.0
 41
0.1875
 42
0.0625
 43
0.38
 44
0.125
 45
0.0
 46
0.0
 47
0.01
 48
0.01
140
0.15625
141
0.09
142
0.0
143
25.3999999999999986
144
1.0
145
0.0
146
1.0
147
0.09
 71
     1
 72
     0
 73
     1
 74
     1
 75
     0
 76
     0
 77
     0
 78
     4
170
     0
171
     2
172
     0
173
     0
174
     0
175
     0
176
     0
177
     0
178
     0
  0
ENDTAB
  0
ENDSEC
  0
SECTION
  2
BLOCKS
  0
BLOCK
  8
0
  2
$MODEL_SPACE
 70
     0
 10
0.0
 20
0.0
 30
0.0
  3
$MODEL_SPACE
  1

  0
ENDBLK
  5
21
  8
0
  0
BLOCK
 67
     1
  8
0
  2
$PAPER_SPACE
 70
     0
 10
0.0
 20
0.0
 30
0.0
  3
$PAPER_SPACE
  1

  0
ENDBLK
  5
1D
 67
     1
  8
0
  0
BLOCK
  8
0
  2
_FILLED
 70
     0
 10
0.0
 20
0.0
 30
0.0
  3
_FILLED
  1

  0
SOLID
  5
518D
  8
0
  6
BYBLOCK
 62
     0
 10
0.0
 20
0.0
 30
0.0
 11
-1.0
 21
0.1666666667
 31
0.0
 12
-1.0
 22
-0.1666666667
 32
0.0
 13
-1.0
 23
-0.1666666667
 33
0.0
  0
ENDBLK
  5
518E
  8
0
  6
BYBLOCK
 62
     0
  0
ENDSEC
  0
SECTION
  2
ENTITIES
  0
ATTDEF
  5
3930
  8
DEFPOINTS
 10
2276.2285588622448813
 20
284.2677179761190018
 30
0.0
 40
0.001
  1
K-24575X-4ACD
  3

  2
MODELNUMBER
 70
     0
1001
ACDBATTR
1070
     0
1070
     1
  0
ATTDEF
  5
3931
  8
DEFPOINTS
 10
2276.2285588622448813
 20
284.2660513094523935
 30
0.0
 40
0.001
  1
TAUT
  3

  2
TRADENAME
 70
     0
1001
ACDBATTR
1070
     0
1070
     1
  0
ATTDEF
  5
3932
  8
DEFPOINTS
 10
2276.2285588622448813
 20
284.2643846427857284
 30
0.0
 40
0.001
  1
VALVE TRIM
  3

  2
PRODUCT
 70
     0
1001
ACDBATTR
1070
     0
1070
     1
  0
LINE
  5
5B4C
  8
0
 10
2276.0307624079127891
 20
286.232876591365482
 30
0.0
 11
2276.2276529591140388
 21
286.232876591365482
 31
0.0
  0
LINE
  5
5B4D
  8
0
 10
2276.0307624079127891
 20
282.2958687173655221
 30
0.0
 11
2276.2276529591140388
 21
282.2958687173655221
 31
0.0
  0
LINE
  5
5B4E
  8
0
 10
2276.2276529591140388
 20
282.2958687173655221
 30
0.0
 11
2276.2276529591140388
 21
286.232876591365482
 31
0.0
  0
LINE
  5
5B4F
  8
0
 10
2275.9520624079132176
 20
286.1541765913655126
 30
0.0
 11
2275.9520624079132176
 21
282.3745687173654915
 31
0.0
  0
ARC
  5
5B50
  8
0
 10
2276.0307624079127891
 20
286.1541765913655126
 30
0.0
 40
0.0787
 50
90.0
 51
180.0
  0
ARC
  5
5B51
  8
0
 10
2276.0307624079127891
 20
282.3745687173654915
 30
0.0
 40
0.0787
 50
180.0
 51
270.0
  0
LINE
  5
5B52
  8
0
 10
2273.5643079984129145
 20
285.0911194878211745
 30
0.0
 11
2273.7660308866761625
 21
285.0911194878211745
 31
0.0
  0
LINE
  5
5B53
  8
0
 10
2274.0482617156139895
 20
285.0911194878211745
 30
0.0
 11
2274.1869792761599456
 21
285.0911194878211745
 31
0.0
  0
LINE
  5
5B54
  8
0
 10
2274.6961489433128918
 20
285.0911194878211745
 30
0.0
 11
2275.9520624079132176
 21
285.0911194878211745
 31
0.0
  0
LINE
  5
5B55
  8
0
 10
2274.6961489433128918
 20
285.0911194878211745
 30
0.0
 11
2274.6961489433128918
 21
283.4376010008655271
 31
0.0
  0
LINE
  5
5B56
  8
0
 10
2274.5682150850138896
 20
283.4376010008655271
 30
0.0
 11
2274.2309584381650893
 21
283.4376010008655271
 31
0.0
  0
LINE
  5
5B57
  8
0
 10
2274.6961489433128918
 20
283.4376010008655271
 30
0.0
 11
2275.9520624079132176
 21
283.4376010008655271
 31
0.0
  0
LINE
  5
5B58
  8
0
 10
2274.5800150850132013
 20
284.1770914657473099
 30
0.0
 11
2274.5800150850132013
 21
283.4494010008655209
 31
0.0
  0
LINE
  5
5B59
  8
0
 10
2274.5431284607680027
 20
284.3434762753984728
 30
0.0
 11
2274.1976737080481143
 21
285.0843063833099222
 31
0.0
  0
ARC
  5
5B5A
  8
0
 10
2274.18631508501403
 20
284.1770914657473099
 30
0.0
 40
0.3937
 50
0.0
 51
25.0000000006285816
  0
LINE
  5
5B5B
  8
0
 10
2273.5367079984139309
 20
285.0635194878212246
 30
0.0
 11
2273.5367079984139309
 21
280.8660625335979262
 31
0.0
  0
ARC
  5
5B5C
  8
0
 10
2273.5643079984129145
 20
285.0635194878212246
 30
0.0
 40
0.0276
 50
90.0
 51
180.0
  0
ARC
  5
5B5D
  8
0
 10
2274.1869792761599456
 20
285.0793194878211807
 30
0.0
 40
0.0118
 50
25.0000000006344791
 51
90.0
  0
ARC
  5
5B5E
  8
0
 10
2273.9071463011441665
 20
286.1182069791429967
 30
0.0
 40
1.0367363575328341
 50
262.176897610529295
 51
277.8331733992112049
  0
ARC
  5
5B5F
  8
0
 10
2274.8157502415128874
 20
284.1584967494654848
 30
0.0
 40
0.8661417322999998
 50
97.9370563895831054
 51
126.245120124268098
  0
ARC
  5
5B60
  8
0
 10
2274.8157502415128874
 20
284.3702485592655194
 30
0.0
 40
0.8661417322999998
 50
254.2067460169008939
 51
262.0629436104168803
  0
ARC
  5
5B61
  8
0
 10
2274.5682150850138896
 20
283.4494010008655209
 30
0.0
 40
0.0118
 50
270.0
 51
0.0000000000032569
  0
LINE
  5
5B62
  8
0
 10
2274.1518673569721614
 20
283.3625532142187922
 30
0.0
 11
2274.0201390324309614
 21
280.8534009320030123
 31
0.0
  0
LINE
  5
5B63
  8
0
 10
2273.5635855146429094
 20
280.8384719914284915
 30
0.0
 11
2273.9918545052141781
 21
280.8272573732749038
 31
0.0
  0
ARC
  5
5B64
  8
0
 10
2273.9925769889850926
 20
280.8548479154442816
 30
0.0
 40
0.0276
 50
268.5000000058748242
 51
356.9947800617110829
  0
ARC
  5
5B65
  8
0
 10
2273.5643079984129145
 20
280.8660625335979262
 30
0.0
 40
0.0276
 50
180.0
 51
268.5000000058748242
  0
ARC
  5
5B66
  8
0
 10
2274.2309584381650893
 20
283.3584010008655127
 30
0.0
 40
0.0792
 50
90.0
 51
176.9947800617109976
  0
LINE
  5
5B67
  8
0
 10
2273.5642670572137831
 20
283.4709864255655134
 30
0.0
 11
2274.0731454996130196
 21
283.4746860478654753
 31
0.0
  0
ARC
  5
5B68
  8
0
 10
2274.0755346440319045
 20
283.1460622068382236
 30
0.0
 40
0.3286325256309681
 50
74.6270992200721253
 51
90.4165415380717548
  0
ARC
  5
5B69
  8
0
 10
2274.0451352476698048
 20
283.0413705134255906
 30
0.0
 40
0.4376401001995532
 50
64.8744785608359962
 51
74.4231315520238326
  0
ARC
  5
5B6A
  8
0
 10
2273.5638856262148693
 20
283.4984066826829121
 30
0.0
 40
0.0274229099475213
 50
187.6689882387744888
 51
270.7969646974428883
  0
ARC
  5
5B6B
  8
0
 10
2274.1833003799761173
 20
283.3797232534111004
 30
0.0
 40
0.0857361155007455
 50
103.9337588229871017
 51
173.259142700575012
  0
LINE
  5
5B6C
  8
0
 10
2274.0981569411128476
 20
283.3897868670654816
 30
0.0
 11
2274.0205784739441697
 21
280.8617713844506056
 31
0.0
  0
ENDSEC
  0
EOF
