  0
SECTION
  2
HEADER
  9
$ACADVER
  1
AC1009
  9
$INSBASE
 10
4105.0884502804601652
 20
129.8335964183742988
 30
0.0
  9
$EXTMIN
 10
4100.9846781436199308
 20
110.5431107499451002
 30
-0.0000000349181948
  9
$EXTMAX
 10
4114.4834287309149659
 20
174.6100476900923013
 30
0.0000000814935746
  9
$LIMMIN
 10
0.0
 20
0.0
  9
$LIMMAX
 10
11.6929133858000007
 20
8.2677165353999982
  9
$ORTHOMODE
 70
     0
  9
$REGENMODE
 70
     1
  9
$FILLMODE
 70
     1
  9
$QTEXTMODE
 70
     0
  9
$MIRRTEXT
 70
     0
  9
$DRAGMODE
 70
     2
  9
$LTSCALE
 40
0.6431102362
  9
$OSMODE
 70
  4095
  9
$ATTMODE
 70
     1
  9
$TEXTSIZE
 40
0.2
  9
$TRACEWID
 40
0.05
  9
$TEXTSTYLE
  7
STANDARD
  9
$CLAYER
  8
0
  9
$CELTYPE
  6
BYLAYER
  9
$CECOLOR
 62
   256
  9
$DIMSCALE
 40
1.0
  9
$DIMASZ
 40
0.1875
  9
$DIMEXO
 40
0.0625
  9
$DIMDLI
 40
0.4443307087
  9
$DIMRND
 40
0.0
  9
$DIMDLE
 40
0.0
  9
$DIMEXE
 40
0.125
  9
$DIMTP
 40
0.01
  9
$DIMTM
 40
0.01
  9
$DIMTXT
 40
2.0
  9
$DIMCEN
 40
0.1052362205
  9
$DIMTSZ
 40
0.0
  9
$DIMTOL
 70
     1
  9
$DIMLIM
 70
     0
  9
$DIMTIH
 70
     1
  9
$DIMTOH
 70
     1
  9
$DIMSE1
 70
     0
  9
$DIMSE2
 70
     0
  9
$DIMTAD
 70
     0
  9
$DIMZIN
 70
     0
  9
$DIMBLK
  1

  9
$DIMASO
 70
     1
  9
$DIMSHO
 70
     1
  9
$DIMPOST
  1
\X
  9
$DIMAPOST
  1

  9
$DIMALT
 70
     1
  9
$DIMALTD
 70
     2
  9
$DIMALTF
 40
25.3999999999999986
  9
$DIMLFAC
 40
1.0
  9
$DIMTOFL
 70
     0
  9
$DIMTVP
 40
0.0
  9
$DIMTIX
 70
     0
  9
$DIMSOXD
 70
     0
  9
$DIMSAH
 70
     0
  9
$DIMBLK1
  1

  9
$DIMBLK2
  1

  9
$DIMSTYLE
  2
STANDARD
  9
$DIMCLRD
 70
     0
  9
$DIMCLRE
 70
     0
  9
$DIMCLRT
 70
     0
  9
$DIMTFAC
 40
1.0
  9
$DIMGAP
 40
0.09
  9
$LUNITS
 70
     2
  9
$LUPREC
 70
     4
  9
$SKETCHINC
 40
0.1
  9
$FILLETRAD
 40
0.0
  9
$AUNITS
 70
     0
  9
$AUPREC
 70
     0
  9
$MENU
  1
.
  9
$ELEVATION
 40
0.0
  9
$PELEVATION
 40
0.0
  9
$THICKNESS
 40
0.0
  9
$LIMCHECK
 70
     0
  9
$BLIPMODE
 70
     0
  9
$CHAMFERA
 40
0.0
  9
$CHAMFERB
 40
0.0
  9
$SKPOLY
 70
     0
  9
$TDCREATE
 40
2458060.468368056230247
  9
$TDUPDATE
 40
2459104.483541666995734
  9
$TDINDWG
 40
0.3791042824
  9
$TDUSRTIMER
 40
0.3791042824
  9
$USRTIMER
 70
     1
  9
$ANGBASE
 50
0.0
  9
$ANGDIR
 70
     0
  9
$PDMODE
 70
     0
  9
$PDSIZE
 40
0.3125
  9
$PLINEWID
 40
0.0
  9
$COORDS
 70
     1
  9
$SPLFRAME
 70
     0
  9
$SPLINETYPE
 70
     6
  9
$SPLINESEGS
 70
     8
  9
$ATTDIA
 70
     1
  9
$ATTREQ
 70
     1
  9
$HANDLING
 70
     1
  9
$HANDSEED
  5
17646
  9
$SURFTAB1
 70
     6
  9
$SURFTAB2
 70
     6
  9
$SURFTYPE
 70
     6
  9
$SURFU
 70
     6
  9
$SURFV
 70
     6
  9
$UCSNAME
  2

  9
$UCSORG
 10
0.0
 20
0.0
 30
0.0
  9
$UCSXDIR
 10
1.0
 20
0.0
 30
0.0
  9
$UCSYDIR
 10
0.0
 20
1.0
 30
0.0
  9
$PUCSNAME
  2

  9
$PUCSORG
 10
0.0
 20
0.0
 30
0.0
  9
$PUCSXDIR
 10
1.0
 20
0.0
 30
0.0
  9
$PUCSYDIR
 10
0.0
 20
1.0
 30
0.0
  9
$USERI1
 70
     0
  9
$USERI2
 70
     0
  9
$USERI3
 70
     0
  9
$USERI4
 70
     0
  9
$USERI5
 70
     0
  9
$USERR1
 40
0.0
  9
$USERR2
 40
0.0
  9
$USERR3
 40
0.0
  9
$USERR4
 40
0.0
  9
$USERR5
 40
0.0
  9
$WORLDVIEW
 70
     1
  9
$SHADEDGE
 70
     3
  9
$SHADEDIF
 70
    70
  9
$TILEMODE
 70
     1
  9
$MAXACTVP
 70
    64
  9
$PLIMCHECK
 70
     0
  9
$PEXTMIN
 10
1.0000000000000000E+20
 20
1.0000000000000000E+20
 30
1.0000000000000000E+20
  9
$PEXTMAX
 10
-1.0000000000000000E+20
 20
-1.0000000000000000E+20
 30
-1.0000000000000000E+20
  9
$PLIMMIN
 10
0.0
 20
0.0
  9
$PLIMMAX
 10
12.0
 20
9.0
  9
$UNITMODE
 70
     0
  9
$VISRETAIN
 70
     1
  9
$PLINEGEN
 70
     0
  9
$PSLTSCALE
 70
     1
  0
ENDSEC
  0
SECTION
  2
TABLES
  0
TABLE
  2
VPORT
 70
     1
  0
VPORT
  2
*ACTIVE
 70
     0
 10
0.0
 20
0.0
 11
1.0
 21
1.0
 12
196.3686969824622963
 22
9.9969741151707723
 13
0.0
 23
0.0
 14
1.0
 24
1.0
 15
0.0
 25
0.0
 16
0.0
 26
0.0
 36
60.4960186965801583
 17
3911.3653564453120453
 27
132.5796051025390057
 37
0.0
 40
88.9998304707944357
 41
1.788248337028824
 42
50.0
 43
0.0
 44
0.0
 50
0.0
 51
0.0
 71
     0
 72
   100
 73
     1
 74
     1
 75
     0
 76
     0
 77
     0
 78
     0
  0
ENDTAB
  0
TABLE
  2
LTYPE
 70
     2
  0
LTYPE
  2
CONTINUOUS
 70
     0
  3
Solid line
 72
    65
 73
     0
 40
0.0
  0
LTYPE
  2
PHANTOM2
 70
     0
  3
___ _ _ ___ _ _ ___ _ _ ___ _ _
 72
    65
 73
     6
 40
1.25
 49
0.625
 49
-0.125
 49
0.125
 49
-0.125
 49
0.125
 49
-0.125
  0
ENDTAB
  0
TABLE
  2
LAYER
 70
     2
  0
LAYER
  2
0
 70
     0
 62
   255
  6
CONTINUOUS
  0
LAYER
  2
DEFPOINTS
 70
     0
 62
     7
  6
CONTINUOUS
  0
ENDTAB
  0
TABLE
  2
STYLE
 70
     1
  0
STYLE
  2
STANDARD
 70
     0
 40
0.0
 41
0.8
 50
0.0
 71
     0
 42
0.2
  3
txt
  4

  0
ENDTAB
  0
TABLE
  2
VIEW
 70
     0
  0
ENDTAB
  0
TABLE
  2
UCS
 70
     0
  0
ENDTAB
  0
TABLE
  2
APPID
 70
    10
  0
APPID
  2
ACAD
 70
     0
  0
APPID
  2
ACAD_MLEADERVER
 70
     0
  0
APPID
  2
ACAD_EXEMPT_FROM_CAD_STANDARDS
 70
     0
  0
APPID
  2
ACAD_NAV_VCDISPLAY
 70
     0
  0
APPID
  2
ACAECLAYERSTANDARD
 70
     0
  0
APPID
  2
ACCMTRANSPARENCY
 70
     0
  0
APPID
  2
ACAD_DSTYLE_DIMJAG
 70
     0
  0
APPID
  2
ACAD_DSTYLE_DIMTALN
 70
     0
  0
APPID
  2
ACDBATTR
 70
     0
  0
APPID
  2
ACADANNOTATIVE
 70
     0
  0
ENDTAB
  0
TABLE
  2
DIMSTYLE
 70
     1
  0
DIMSTYLE
  2
STANDARD
 70
     0
  3

  4

  5

  6

  7

 40
1.0
 41
0.1875
 42
0.0625
 43
0.38
 44
0.125
 45
0.0
 46
0.0
 47
0.01
 48
0.01
140
0.15625
141
0.09
142
0.0
143
25.3999999999999986
144
1.0
145
0.0
146
1.0
147
0.09
 71
     1
 72
     0
 73
     1
 74
     1
 75
     0
 76
     0
 77
     0
 78
     4
170
     0
171
     2
172
     0
173
     0
174
     0
175
     0
176
     0
177
     0
178
     0
  0
ENDTAB
  0
ENDSEC
  0
SECTION
  2
BLOCKS
  0
BLOCK
  8
0
  2
$MODEL_SPACE
 70
     0
 10
0.0
 20
0.0
 30
0.0
  3
$MODEL_SPACE
  1

  0
ENDBLK
  5
21
  8
0
  0
BLOCK
 67
     1
  8
0
  2
$PAPER_SPACE
 70
     0
 10
0.0
 20
0.0
 30
0.0
  3
$PAPER_SPACE
  1

  0
ENDBLK
  5
1D
 67
     1
  8
0
  0
ENDSEC
  0
SECTION
  2
ENTITIES
  0
LINE
  5
16C08
  8
0
  6
CONTINUOUS
 62
     7
 10
4105.4557333485090567
 20
172.298846800224311
 30
0.0
 11
4105.5215763104233702
 21
172.3228116784464135
 31
0.0
  0
LINE
  5
16C09
  8
0
  6
CONTINUOUS
 62
     7
 10
4104.7538046236104492
 20
173.3257275848243069
 30
0.0
 11
4104.6947494931100664
 21
173.2666724521243111
 31
0.0
  0
LINE
  5
16C0A
  8
0
  6
CONTINUOUS
 62
     7
 10
4104.3010487057099454
 20
171.2268189874243092
 30
0.0
 11
4104.2813636663104262
 21
171.2071339480243068
 31
0.0
  0
LINE
  5
16C0B
  8
0
  6
CONTINUOUS
 62
     7
 10
4104.7847063829103718
 20
127.0225779785242963
 30
0.0
 11
4105.3922058243088031
 21
127.0225779785242963
 31
0.0
  0
LINE
  5
16C0C
  8
0
  6
CONTINUOUS
 62
     7
 10
4105.541206186009731
 20
128.4399008132243125
 30
0.0
 11
4104.6356943750088249
 21
128.4399008132243125
 31
0.0
  0
LINE
  5
16C0D
  8
0
  6
CONTINUOUS
 62
     7
 10
4105.5018361073098276
 20
128.8591921518242884
 30
0.0
 11
4104.6750644537096377
 21
128.8591921518242884
 31
0.0
  0
LINE
  5
16C0E
  8
0
  6
CONTINUOUS
 62
     7
 10
4105.4919935876096133
 20
128.8690346715243038
 30
0.0
 11
4104.6849069734089426
 21
128.8690346715243038
 31
0.0
  0
LINE
  5
16C0F
  8
0
  6
CONTINUOUS
 62
     7
 10
4105.4919935876096133
 20
128.8690346715243038
 30
0.0
 11
4105.5018361073098276
 21
128.8591921518242884
 31
0.0
  0
LINE
  5
16C10
  8
0
  6
CONTINUOUS
 62
     7
 10
4101.8957557791100044
 20
170.6990759780242968
 30
0.0
 11
4101.8945209996099948
 21
170.6902900654243069
 31
0.0
  0
LINE
  5
16C11
  8
0
  6
CONTINUOUS
 62
     7
 10
4102.0051949890303149
 20
170.6902900653423103
 30
0.0
 11
4102.0114354150100553
 21
170.7346930032242938
 31
0.0
  0
LINE
  5
16C12
  8
0
  6
CONTINUOUS
 62
     7
 10
4102.3296747078102271
 20
170.6902900654243069
 30
0.0
 11
4102.335915133709932
 21
170.7346930032242938
 31
0.0
  0
LINE
  5
16C13
  8
0
  6
CONTINUOUS
 62
     7
 10
4102.6326664904099744
 20
170.6902900654243069
 30
0.0
 11
4102.6389069163087697
 21
170.7346930032242938
 31
0.0
  0
LINE
  5
16C14
  8
0
  6
CONTINUOUS
 62
     7
 10
4102.845847399309605
 20
170.6902900654243069
 30
0.0
 11
4102.8520878253102637
 21
170.7346930032242938
 31
0.0
  0
LINE
  5
16C15
  8
0
  6
CONTINUOUS
 62
     7
 10
4102.8922502653285846
 20
170.6902900653423103
 30
0.0
 11
4102.898490691310144
 21
170.7346930032242938
 31
0.0
  0
LINE
  5
16C16
  8
0
 10
4105.5385777162100567
 20
154.7724647162243059
 30
0.0
 11
4105.5385733191087638
 21
154.7724581471242971
 31
0.0
  0
LINE
  5
16C17
  8
0
  6
CONTINUOUS
 62
     7
 10
4104.3994739025101808
 20
131.6249401833242985
 30
0.0
 11
4104.4388439813101286
 21
131.5855701045242938
 31
0.0
  0
LINE
  5
16C18
  8
0
  6
CONTINUOUS
 62
     7
 10
4103.1953587931238872
 20
170.7018539292240007
 30
0.0
 11
4103.1937335980101125
 21
170.6902900654243069
 31
0.0
  0
LINE
  5
16C19
  8
0
  6
CONTINUOUS
 62
     7
 10
4103.3051884186097595
 20
170.6902900654243069
 30
0.0
 11
4103.3114288445103739
 21
170.7346930032242938
 31
0.0
  0
LINE
  5
16C1A
  8
0
  6
CONTINUOUS
 62
     7
 10
4103.5185367477088221
 20
170.6902900654243069
 30
0.0
 11
4103.5247771736103459
 21
170.7346930032242938
 31
0.0
  0
LINE
  5
16C1B
  8
0
  6
CONTINUOUS
 62
     7
 10
4103.8433398973102157
 20
170.6902900654243069
 30
0.0
 11
4103.8495803232099206
 21
170.7346930032242938
 31
0.0
  0
LINE
  5
16C1C
  8
0
  6
CONTINUOUS
 62
     7
 10
4104.0174013805089999
 20
170.6902900654243069
 30
0.0
 11
4104.0236418065087491
 21
170.7346930032242938
 31
0.0
  0
LINE
  5
16C1D
  8
0
  6
CONTINUOUS
 62
     7
 10
4104.1681430469088809
 20
170.6902900654243069
 30
0.0
 11
4104.1743834728104048
 21
170.7346930032242938
 31
0.0
  0
LINE
  5
16C1E
  8
0
  6
CONTINUOUS
 62
     7
 10
4104.301900085410125
 20
170.6902900654243069
 30
0.0
 11
4104.3081405114098743
 21
170.7346930032242938
 31
0.0
  0
LINE
  5
16C1F
  8
0
  6
CONTINUOUS
 62
     7
 10
4104.4700305675096388
 20
170.6902900654243069
 30
0.0
 11
4104.4762709934102531
 21
170.7346930032242938
 31
0.0
  0
LINE
  5
16C20
  8
0
  6
CONTINUOUS
 62
     7
 10
4104.4929461965102746
 20
170.6902900654243069
 30
0.0
 11
4104.4991866224099795
 21
170.7346930032242938
 31
0.0
  0
LINE
  5
16C21
  8
0
  6
CONTINUOUS
 62
     7
 10
4104.5799769381110309
 20
170.6902900654243069
 30
0.0
 11
4104.5862173640089168
 21
170.7346930032242938
 31
0.0
  0
LINE
  5
16C22
  8
0
  6
CONTINUOUS
 62
     7
 10
4105.1425524957103335
 20
170.6902900654243069
 30
0.0
 11
4105.1487929216091288
 21
170.7346930032242938
 31
0.0
  0
LINE
  5
16C23
  8
0
  6
CONTINUOUS
 62
     7
 10
4103.2380565797102463
 20
148.317853003024311
 30
0.0
 11
4103.2380565797102463
 21
146.7824210644243124
 31
0.0
  0
LINE
  5
16C24
  8
0
  6
CONTINUOUS
 62
     7
 10
4103.8207262471096328
 20
148.5037201901243122
 30
0.0
 11
4103.7761396906998925
 21
148.3248932801309081
 31
0.0
  0
LINE
  5
16C25
  8
0
  6
CONTINUOUS
 62
     7
 10
4104.3681033560505966
 20
148.3308215013146878
 30
0.0
 11
4104.4088360918103717
 21
148.4941915811243121
 31
0.0
  0
LINE
  5
16C26
  8
0
  6
CONTINUOUS
 62
     7
 10
4104.7060624899086179
 20
127.0971971946243002
 30
0.0
 11
4104.6356943750088249
 21
128.4399008132243125
 31
0.0
  0
LINE
  5
16C27
  8
0
 10
4105.2793095517099573
 20
154.1659899635243107
 30
0.0
 11
4105.2765632513001037
 21
154.2417836668174118
 31
0.0
  0
LINE
  5
16C28
  8
0
  6
CONTINUOUS
 62
     7
 10
4104.3994739025101808
 20
131.7115543565242888
 30
0.0
 11
4104.3994739025101808
 21
131.6249401833242985
 31
0.0
  0
LINE
  5
16C29
  8
0
  6
CONTINUOUS
 62
     7
 10
4104.3994739025101808
 20
130.1404356235761952
 30
0.0
 11
4104.3994739025101808
 21
130.9359638053242918
 31
0.0
  0
LINE
  5
16C2A
  8
0
  6
CONTINUOUS
 62
     7
 10
4104.4388439813101286
 20
130.9950189234243112
 30
0.0
 11
4104.4388439813101286
 21
131.5855701045242938
 31
0.0
  0
LINE
  5
16C2B
  8
0
  6
CONTINUOUS
 62
     7
 10
4104.4978990994086416
 20
130.9359638053242918
 30
0.0
 11
4104.4978990994086416
 21
130.9950189234243112
 31
0.0
  0
LINE
  5
16C2C
  8
0
  6
CONTINUOUS
 62
     7
 10
4104.5057731151100597
 20
148.3769086872243008
 30
0.0
 11
4104.5057731151100597
 21
148.3375386085243122
 31
0.0
  0
LINE
  5
16C2D
  8
0
  6
CONTINUOUS
 62
     7
 10
4104.5057731151100597
 20
146.7627354589243112
 30
0.0
 11
4104.5057730292119231
 21
146.7233653800599882
 31
0.0
  0
LINE
  5
16C2E
  8
0
  6
CONTINUOUS
 62
     7
 10
4104.561420342510246
 20
172.0260315858243132
 30
0.0
 11
4104.561420342510246
 21
172.0339056016242978
 31
0.0
  0
LINE
  5
16C2F
  8
0
  6
CONTINUOUS
 62
     7
 10
4104.5963242962088771
 20
131.7312393959242911
 30
0.0
 11
4104.5963242962088771
 21
146.7151095105745924
 31
0.0
  0
LINE
  5
16C30
  8
0
  6
CONTINUOUS
 62
     7
 10
4104.5963242962088771
 20
148.3854242660522118
 30
0.0
 11
4104.5963242962088771
 21
153.0624480819242876
 31
0.0
  0
LINE
  5
16C31
  8
0
  6
CONTINUOUS
 62
     7
 10
4104.5963242962088771
 20
153.8488495986242981
 30
0.0
 11
4104.5963242962088771
 21
170.7346930032242938
 31
0.0
  0
LINE
  5
16C32
  8
0
  6
CONTINUOUS
 62
     7
 10
4104.5963242962088771
 20
172.0339056016242978
 30
0.0
 11
4104.5963242962088771
 21
174.1131291597243091
 31
0.0
  0
LINE
  5
16C33
  8
0
  6
CONTINUOUS
 62
     7
 10
4104.6160093356102152
 20
172.8233456951242886
 30
0.0
 11
4104.6160093356102152
 21
173.1383063250243026
 31
0.0
  0
LINE
  5
16C34
  8
0
  6
CONTINUOUS
 62
     7
 10
4104.6750644537096377
 20
128.8591921518242884
 30
0.0
 11
4104.6750644537096377
 21
128.4399008132243125
 31
0.0
  0
LINE
  5
16C35
  8
0
  6
CONTINUOUS
 62
     7
 10
4104.6947494931100664
 20
173.1383063250243026
 30
0.0
 11
4104.6947494931100664
 21
173.2666724521243111
 31
0.0
  0
LINE
  5
16C36
  8
0
  6
CONTINUOUS
 62
     7
 10
4104.7341195718090603
 20
172.1528023664243108
 30
0.0
 11
4104.7341195718090603
 21
172.189487773824311
 31
0.0
  0
LINE
  5
16C37
  8
0
  6
CONTINUOUS
 62
     7
 10
4104.7341195718090603
 20
172.2367311754273089
 30
0.0
 11
4104.7341195718090603
 21
172.280348913924314
 31
0.0
  0
LINE
  5
16C38
  8
0
  6
CONTINUOUS
 62
     7
 10
4104.7931746899103018
 20
173.3454126242243092
 30
0.0
 11
4104.7931746899103018
 21
173.7194283722992907
 31
0.0
  0
LINE
  5
16C39
  8
0
  6
CONTINUOUS
 62
     7
 10
4104.7971116978087593
 20
113.4399008132242983
 30
0.0
 11
4104.7971116978087593
 21
127.0225779785242963
 31
0.0
  0
LINE
  5
16C3A
  8
0
  6
CONTINUOUS
 62
     7
 10
4104.8325447687111591
 20
129.1308964155242904
 30
0.0
 11
4104.8325447687111591
 21
128.8690346715243038
 31
0.0
  0
LINE
  5
16C3B
  8
0
  6
CONTINUOUS
 62
     7
 10
4104.9309699655095756
 20
130.5648683573861888
 30
0.0
 11
4104.9309699655095756
 21
131.3493496321243015
 31
0.0
  0
LINE
  5
16C3C
  8
0
  6
CONTINUOUS
 62
     7
 10
4105.2459305954098454
 20
130.564868357407704
 30
0.0
 11
4105.2459305954098454
 21
131.3493496321243015
 31
0.0
  0
LINE
  5
16C3D
  8
0
  6
CONTINUOUS
 62
     7
 10
4105.3443557923101253
 20
129.1309020588242902
 30
0.0
 11
4105.3443557923101253
 21
128.8690346715243038
 31
0.0
  0
LINE
  5
16C3E
  8
0
  6
CONTINUOUS
 62
     7
 10
4105.3799899809810086
 20
113.3993188817694033
 30
0.0
 11
4105.3797888632088871
 21
127.0225779785242963
 31
0.0
  0
LINE
  5
16C3F
  8
0
  6
CONTINUOUS
 62
     7
 10
4105.3837258710100286
 20
173.3454126242243092
 30
0.0
 11
4105.3837258710100286
 21
173.7194283722242858
 31
0.0
  0
LINE
  5
16C40
  8
0
  6
CONTINUOUS
 62
     7
 10
4105.4427809891103607
 20
172.1528023664243108
 30
0.0
 11
4105.4427809891103607
 21
172.189487773824311
 31
0.0
  0
LINE
  5
16C41
  8
0
  6
CONTINUOUS
 62
     7
 10
4105.4427809891103607
 20
172.2367311754242962
 30
0.0
 11
4105.4427809891103607
 21
172.280348913924314
 31
0.0
  0
LINE
  5
16C42
  8
0
  6
CONTINUOUS
 62
     7
 10
4105.4821510679103085
 20
173.1383063250243026
 30
0.0
 11
4105.4821510679103085
 21
173.2666724521243111
 31
0.0
  0
LINE
  5
16C43
  8
0
  6
CONTINUOUS
 62
     7
 10
4105.5018361073098276
 20
128.8591921518242884
 30
0.0
 11
4105.5018361073098276
 21
128.4399008132243125
 31
0.0
  0
LINE
  5
16C44
  8
0
  6
CONTINUOUS
 62
     7
 10
4105.5608912254101597
 20
172.8233456951242886
 30
0.0
 11
4105.5608912254101597
 21
173.1383063250243026
 31
0.0
  0
LINE
  5
16C45
  8
0
  6
CONTINUOUS
 62
     7
 10
4105.5805762647087249
 20
131.7312393959242911
 30
0.0
 11
4105.5805762647087249
 21
146.715016880101814
 31
0.0
  0
LINE
  5
16C46
  8
0
  6
CONTINUOUS
 62
     7
 10
4105.5805762647087249
 20
148.3854205449509038
 30
0.0
 11
4105.5805762647087249
 21
153.0627352923243052
 31
0.0
  0
LINE
  5
16C47
  8
0
  6
CONTINUOUS
 62
     7
 10
4105.5805762647087249
 20
155.7908696377224089
 30
0.0
 11
4105.5805762647087249
 21
170.7346930032242938
 31
0.0
  0
LINE
  5
16C48
  8
0
  6
CONTINUOUS
 62
     7
 10
4105.5805762647087249
 20
172.0339056016242978
 30
0.0
 11
4105.5805762647087249
 21
174.1131291597243091
 31
0.0
  0
LINE
  5
16C49
  8
0
  6
CONTINUOUS
 62
     7
 10
4105.6160093356102152
 20
172.0260315858243132
 30
0.0
 11
4105.6160093356102152
 21
172.0339056016242978
 31
0.0
  0
LINE
  5
16C4A
  8
0
  6
CONTINUOUS
 62
     7
 10
4105.6711275508159815
 20
146.7233653800518027
 30
0.0
 11
4105.6711274458102707
 21
146.7627354589243112
 31
0.0
  0
LINE
  5
16C4B
  8
0
  6
CONTINUOUS
 62
     7
 10
4105.6711274458102707
 20
148.3375386085243122
 30
0.0
 11
4105.6711274458102707
 21
148.3769086872243008
 31
0.0
  0
LINE
  5
16C4C
  8
0
  6
CONTINUOUS
 62
     7
 10
4105.6790014616090048
 20
130.9359638053242918
 30
0.0
 11
4105.6790014616090048
 21
130.9950189234243112
 31
0.0
  0
LINE
  5
16C4D
  8
0
  6
CONTINUOUS
 62
     7
 10
4105.7380565797102463
 20
131.5855701045242938
 30
0.0
 11
4105.7380565797102463
 21
130.9950189234243112
 31
0.0
  0
LINE
  5
16C4E
  8
0
  6
CONTINUOUS
 62
     7
 10
4105.7774266584101497
 20
131.7115543565242888
 30
0.0
 11
4105.7774266584101497
 21
131.6249401833242985
 31
0.0
  0
LINE
  5
16C4F
  8
0
  6
CONTINUOUS
 62
     7
 10
4105.7774266584101497
 20
130.1404612377243097
 30
0.0
 11
4105.7774266584101497
 21
130.9359638053242918
 31
0.0
  0
LINE
  5
16C50
  8
0
  6
CONTINUOUS
 62
     7
 10
4104.6554346335806258
 20
172.3227715022891005
 30
0.0
 11
4104.65544761261026
 21
172.8233456951242886
 31
0.0
  0
LINE
  5
16C51
  8
0
  6
CONTINUOUS
 62
     7
 10
4105.5215892884098139
 20
172.8233456951242886
 30
0.0
 11
4105.5215763104233702
 21
172.3228116784464135
 31
0.0
  0
LINE
  5
16C52
  8
0
 10
4105.5584759395087531
 20
154.8256676424242926
 30
0.0
 11
4105.5584702829100934
 21
154.8256306885243134
 31
0.0
  0
LINE
  5
16C53
  8
0
 10
4105.5448837895100951
 20
154.7888065947242922
 30
0.0
 11
4105.5547624768087189
 21
154.8531675530242921
 31
0.0
  0
LINE
  5
16C54
  8
0
 10
4105.4060033779087462
 20
154.1299230767243102
 30
0.0
 11
4105.4151517149548454
 21
154.1890163353434957
 31
0.0
  0
LINE
  5
16C55
  8
0
  6
CONTINUOUS
 62
     7
 10
4101.7800761433099979
 20
170.7346930032242938
 30
0.0
 11
4101.7863165692087932
 21
170.6902900654243069
 31
0.0
  0
LINE
  5
16C56
  8
0
 10
4105.4180605572100831
 20
154.821930869824314
 30
0.0
 11
4105.414617445661861
 21
154.9039867488095865
 31
0.0
  0
LINE
  5
16C57
  8
0
  6
CONTINUOUS
 62
     7
 10
4105.9152219340112424
 20
146.7627354589243112
 30
0.0
 11
4105.9152219340112424
 21
148.3375386085243122
 31
0.0
  0
LINE
  5
16C58
  8
0
  6
CONTINUOUS
 62
     7
 10
4105.9584502805091688
 20
148.3375386085243122
 30
0.0
 11
4105.9584502805091688
 21
146.7627354589243112
 31
0.0
  0
LINE
  5
16C59
  8
0
  6
CONTINUOUS
 62
     7
 10
4106.506954473508813
 20
148.2941737536243068
 30
0.0
 11
4106.5099135696100348
 21
150.5142649548006091
 31
0.0
  0
LINE
  5
16C5A
  8
0
  6
CONTINUOUS
 62
     7
 10
4106.7629563109103401
 20
146.7627354589243112
 30
0.0
 11
4106.7630512150099094
 21
146.6499793898242956
 31
0.0
  0
LINE
  5
16C5B
  8
0
  6
CONTINUOUS
 62
     7
 10
4107.5538523604100192
 20
146.7969557492266119
 30
0.0
 11
4107.5538523604100192
 21
148.026732662824287
 31
0.0
  0
LINE
  5
16C5C
  8
0
  6
CONTINUOUS
 62
     7
 10
4105.4708380711090285
 20
127.0971971946243002
 30
0.0
 11
4105.541206186009731
 21
128.4399008132243125
 31
0.0
  0
LINE
  5
16C5D
  8
0
 10
4105.4193523972098774
 20
154.1778814986242878
 30
0.0
 11
4105.4193532332101313
 21
154.1778775421242926
 31
0.0
  0
LINE
  5
16C5E
  8
0
 10
4105.280081554010394
 20
154.1598548975242977
 30
0.0
 11
4105.2800835213101891
 21
154.1598455557243028
 31
0.0
  0
LINE
  5
16C5F
  8
0
  6
CONTINUOUS
 62
     7
 10
4101.896990558610014
 20
170.6902900654243069
 30
0.0
 11
4101.8907501327103091
 21
170.7346930032242938
 31
0.0
  0
LINE
  5
16C60
  8
0
  6
CONTINUOUS
 62
     7
 10
4102.2214702774099351
 20
170.6902900654243069
 30
0.0
 11
4102.2152298515102302
 21
170.7346930032242938
 31
0.0
  0
LINE
  5
16C61
  8
0
  6
CONTINUOUS
 62
     7
 10
4102.4296824425100567
 20
170.7346930032242938
 30
0.0
 11
4102.4359228684088521
 21
170.6902900654243069
 31
0.0
  0
LINE
  5
16C62
  8
0
  6
CONTINUOUS
 62
     7
 10
4102.5244620600087728
 20
170.6902900654243069
 30
0.0
 11
4102.5182216340090235
 21
170.7346930032242938
 31
0.0
  0
LINE
  5
16C63
  8
0
  6
CONTINUOUS
 62
     7
 10
4102.7376429689102224
 20
170.6902900654243069
 30
0.0
 11
4102.7314025430086986
 21
170.7346930032242938
 31
0.0
  0
LINE
  5
16C64
  8
0
  6
CONTINUOUS
 62
     7
 10
4103.0792887417092061
 20
170.7346930032242938
 30
0.0
 11
4103.0855291676098204
 21
170.6902900654243069
 31
0.0
  0
LINE
  5
16C65
  8
0
  6
CONTINUOUS
 62
     7
 10
4103.196983988210377
 20
170.6902900654243069
 30
0.0
 11
4103.1907435622088087
 21
170.7346930032242938
 31
0.0
  0
LINE
  5
16C66
  8
0
  6
CONTINUOUS
 62
     7
 10
4103.3466213925103148
 20
170.6902900654243069
 30
0.0
 11
4103.3403809666087909
 21
170.7346930032242938
 31
0.0
  0
LINE
  5
16C67
  8
0
  6
CONTINUOUS
 62
     7
 10
4103.4103323172103046
 20
170.6902900654243069
 30
0.0
 11
4103.4040918913087808
 21
170.7346930032242938
 31
0.0
  0
LINE
  5
16C68
  8
0
  6
CONTINUOUS
 62
     7
 10
4103.7351354669099237
 20
170.6902900654243069
 30
0.0
 11
4103.7288950409101744
 21
170.7346930032242938
 31
0.0
  0
LINE
  5
16C69
  8
0
  6
CONTINUOUS
 62
     7
 10
4103.9091969501087078
 20
170.6902900654243069
 30
0.0
 11
4103.9029565242099125
 21
170.7346930032242938
 31
0.0
  0
LINE
  5
16C6A
  8
0
  6
CONTINUOUS
 62
     7
 10
4104.0599386165113174
 20
170.6902900654243069
 30
0.0
 11
4104.0536981905097491
 21
170.7346930032242938
 31
0.0
  0
LINE
  5
16C6B
  8
0
  6
CONTINUOUS
 62
     7
 10
4104.1936956550089235
 20
170.6902900654243069
 30
0.0
 11
4104.1874552291101281
 21
170.7346930032242938
 31
0.0
  0
LINE
  5
16C6C
  8
0
  6
CONTINUOUS
 62
     7
 10
4104.3618261371102562
 20
170.6902900654243069
 30
0.0
 11
4104.355585711108688
 21
170.7346930032242938
 31
0.0
  0
LINE
  5
16C6D
  8
0
  6
CONTINUOUS
 62
     7
 10
4105.0343480653100414
 20
170.6902900654243069
 30
0.0
 11
4105.0281076393102921
 21
170.7346930032242938
 31
0.0
  0
LINE
  5
16C6E
  8
0
  6
CONTINUOUS
 62
     7
 10
4105.6514421144092921
 20
146.7036803408242918
 30
0.0
 11
4105.6041965595095462
 21
146.7036803408242918
 31
0.0
  0
LINE
  5
16C6F
  8
0
  6
CONTINUOUS
 62
     7
 10
4104.5727040023102745
 20
146.7036803408242918
 30
0.0
 11
4104.5254584466101733
 21
146.7036803408242918
 31
0.0
  0
LINE
  5
16C70
  8
0
  6
CONTINUOUS
 62
     7
 10
4106.8251355511101792
 20
146.7627354589243112
 30
0.0
 11
4105.9584502805091688
 21
146.7627354589243112
 31
0.0
  0
LINE
  5
16C71
  8
0
  6
CONTINUOUS
 62
     7
 10
4105.9152219340112424
 20
146.7627354589243112
 30
0.0
 11
4105.6711274458102707
 21
146.7627354589243112
 31
0.0
  0
LINE
  5
16C72
  8
0
  6
CONTINUOUS
 62
     7
 10
4104.5057731151100597
 20
146.7627354589243112
 30
0.0
 11
4103.257741619108856
 21
146.7627354589243112
 31
0.0
  0
LINE
  5
16C73
  8
0
  6
CONTINUOUS
 62
     7
 10
4105.9152219340112424
 20
146.8690346715243038
 30
0.0
 11
4105.9584502805091688
 21
146.8690346715243038
 31
0.0
  0
LINE
  5
16C74
  8
0
  6
CONTINUOUS
 62
     7
 10
4104.5846468616091443
 20
148.3926596556242998
 30
0.0
 11
4104.5831100429086291
 21
148.3936167288242984
 31
0.0
  0
LINE
  5
16C75
  8
0
  6
CONTINUOUS
 62
     7
 10
4105.7380565797102463
 20
131.5855701045242938
 30
0.0
 11
4105.7774266584101497
 21
131.6249401833242985
 31
0.0
  0
LINE
  5
16C76
  8
0
  6
CONTINUOUS
 62
     7
 10
4105.9152219340112424
 20
148.2312393959242911
 30
0.0
 11
4105.9584502805091688
 21
148.2312393959242911
 31
0.0
  0
LINE
  5
16C77
  8
0
  6
CONTINUOUS
 62
     7
 10
4106.507012273285909
 20
148.3375386085243122
 30
0.0
 11
4105.9584502805091688
 21
148.3375386085243122
 31
0.0
  0
LINE
  5
16C78
  8
0
  6
CONTINUOUS
 62
     7
 10
4105.9152219340112424
 20
148.3375386085243122
 30
0.0
 11
4105.6711274458102707
 21
148.3375386085243122
 31
0.0
  0
LINE
  5
16C79
  8
0
  6
CONTINUOUS
 62
     7
 10
4104.5057731151100597
 20
148.3375386085243122
 30
0.0
 11
4104.3837258710091191
 21
148.3375386085243122
 31
0.0
  0
LINE
  5
16C7A
  8
0
  6
CONTINUOUS
 62
     7
 10
4103.745900779909789
 20
148.3375386085243122
 30
0.0
 11
4103.257741619108856
 21
148.3375386085243122
 31
0.0
  0
LINE
  5
16C7B
  8
0
  6
CONTINUOUS
 62
     7
 10
4105.6514421143101572
 20
148.3965937266243031
 30
0.0
 11
4105.6041965586100559
 21
148.3965937266243031
 31
0.0
  0
LINE
  5
16C7C
  8
0
  6
CONTINUOUS
 62
     7
 10
4104.5727040014098748
 20
148.3965937266243031
 30
0.0
 11
4104.5254584466101733
 21
148.3965937266243031
 31
0.0
  0
LINE
  5
16C7D
  8
0
  6
CONTINUOUS
 62
     7
 10
4104.3897356065099302
 20
148.5186409707243058
 30
0.0
 11
4103.8398267551101526
 21
148.5186409707243058
 31
0.0
  0
LINE
  5
16C7E
  8
0
  6
CONTINUOUS
 62
     7
 10
4104.6849069734089426
 20
128.8690346715243038
 30
0.0
 11
4104.6750644537096377
 21
128.8591921518242884
 31
0.0
  0
LINE
  5
16C7F
  8
0
 10
4107.093749459621904
 20
152.8862781036743002
 30
0.0
 11
4107.020158987310424
 21
152.8862781021742876
 31
0.0
  0
LINE
  5
16C80
  8
0
  6
CONTINUOUS
 62
     7
 10
4105.8758518553104295
 20
171.2268189874243092
 30
0.0
 11
4105.8955368947099487
 21
171.2071339480243068
 31
0.0
  0
LINE
  5
16C81
  8
0
  6
CONTINUOUS
 62
     7
 10
4105.4230959373098813
 20
173.3257275848243069
 30
0.0
 11
4105.4821510679103085
 21
173.2666724521243111
 31
0.0
  0
LINE
  5
16C82
  8
0
  6
CONTINUOUS
 62
     7
 10
4104.5720804095099083
 20
170.6835119008242998
 30
0.0
 11
4104.4851488101103314
 21
170.6835119008242998
 31
0.0
  0
LINE
  5
16C83
  8
0
  6
CONTINUOUS
 62
     7
 10
4101.7941139556096459
 20
170.6835119008242998
 30
0.0
 11
4101.886723613310096
 21
170.6835119008242998
 31
0.0
  0
LINE
  5
16C84
  8
0
  6
CONTINUOUS
 62
     7
 10
4101.9048076922099426
 20
170.6835119008242998
 30
0.0
 11
4101.9973974759086559
 21
170.6835119008242998
 31
0.0
  0
LINE
  5
16C85
  8
0
  6
CONTINUOUS
 62
     7
 10
4102.2292679978099841
 20
170.6835119008242998
 30
0.0
 11
4102.3217878755103811
 21
170.6835119008242998
 31
0.0
  0
LINE
  5
16C86
  8
0
  6
CONTINUOUS
 62
     7
 10
4102.4437202548097048
 20
170.6835119008242998
 30
0.0
 11
4102.5322594463086716
 21
170.6835119008242998
 31
0.0
  0
LINE
  5
16C87
  8
0
  6
CONTINUOUS
 62
     7
 10
4102.5322594463086716
 20
170.6835119008242998
 30
0.0
 11
4102.6248586515102943
 21
170.6835119008242998
 31
0.0
  0
LINE
  5
16C88
  8
0
  6
CONTINUOUS
 62
     7
 10
4102.7454403553101656
 20
170.6835119008242998
 30
0.0
 11
4102.8843537368102261
 21
170.6835119008242998
 31
0.0
  0
LINE
  5
16C89
  8
0
  6
CONTINUOUS
 62
     7
 10
4103.0933265540088541
 20
170.6835119008242998
 30
0.0
 11
4103.1859362117102137
 21
170.6835119008242998
 31
0.0
  0
LINE
  5
16C8A
  8
0
  6
CONTINUOUS
 62
     7
 10
4103.2047813745102758
 20
170.6835119008242998
 30
0.0
 11
4103.297391078610417
 21
170.6835119008242998
 31
0.0
  0
LINE
  5
16C8B
  8
0
  6
CONTINUOUS
 62
     7
 10
4103.3544191130104082
 20
170.6835119008242998
 30
0.0
 11
4103.5107393613088789
 21
170.6835119008242998
 31
0.0
  0
LINE
  5
16C8C
  8
0
  6
CONTINUOUS
 62
     7
 10
4103.7429328532098225
 20
170.6835119008242998
 30
0.0
 11
4103.8355425109102725
 21
170.6835119008242998
 31
0.0
  0
LINE
  5
16C8D
  8
0
  6
CONTINUOUS
 62
     7
 10
4103.916994336508651
 20
170.6835119008242998
 30
0.0
 11
4104.0096004274100778
 21
170.6835119008242998
 31
0.0
  0
LINE
  5
16C8E
  8
0
  6
CONTINUOUS
 62
     7
 10
4104.0677360028103067
 20
170.6835119008242998
 30
0.0
 11
4104.1603456605098472
 21
170.6835119008242998
 31
0.0
  0
LINE
  5
16C8F
  8
0
  6
CONTINUOUS
 62
     7
 10
4104.2014956783086745
 20
170.6835119008242998
 30
0.0
 11
4104.2941026990101818
 21
170.6835119008242998
 31
0.0
  0
LINE
  5
16C90
  8
0
  6
CONTINUOUS
 62
     7
 10
4104.3696235234092455
 20
170.6835119008242998
 30
0.0
 11
4104.4851488101103314
 21
170.6835119008242998
 31
0.0
  0
LINE
  5
16C91
  8
0
  6
CONTINUOUS
 62
     7
 10
4105.0421464065102555
 20
170.6835119008242998
 30
0.0
 11
4105.1347551093103903
 21
170.6835119008242998
 31
0.0
  0
LINE
  5
16C92
  8
0
  6
CONTINUOUS
 62
     7
 10
4101.1523669687103393
 20
170.7346930032242938
 30
0.0
 11
4109.0245335923100356
 21
170.7346930032242938
 31
0.0
  0
ARC
  5
16C93
  8
0
 10
4101.1523669687103393
 20
170.7943930032242861
 30
0.0
 40
0.0597
 50
180.0
 51
270.0
  0
LINE
  5
16C94
  8
0
  6
CONTINUOUS
 62
     7
 10
4109.0685335923089951
 20
171.2071339480243068
 30
0.0
 11
4101.1083669687086513
 21
171.2071339480243068
 31
0.0
  0
ARC
  5
16C95
  8
0
 10
4101.1083669687086513
 20
171.1914339480242973
 30
0.0
 40
0.0157
 50
90.0
 51
180.0
  0
LINE
  5
16C96
  8
0
  6
CONTINUOUS
 62
     7
 10
4104.7211672124103643
 20
172.298846800224311
 30
0.0
 11
4104.6554346335806258
 21
172.3227715022891005
 31
0.0
  0
LINE
  5
16C97
  8
0
  6
CONTINUOUS
 62
     7
 10
4105.8758518553104295
 20
171.2268189874243092
 30
0.0
 11
4104.3010487057099454
 21
171.2268189874243092
 31
0.0
  0
LINE
  5
16C98
  8
0
  6
CONTINUOUS
 62
     7
 10
4105.7425845354100602
 20
172.0260315858243132
 30
0.0
 11
4104.4343160256103147
 21
172.0260315858243132
 31
0.0
  0
LINE
  5
16C99
  8
0
  6
CONTINUOUS
 62
     7
 10
4105.6160093356102152
 20
172.0339056016242978
 30
0.0
 11
4104.561420342510246
 21
172.0339056016242978
 31
0.0
  0
LINE
  5
16C9A
  8
0
  6
CONTINUOUS
 62
     7
 10
4104.7287112837930181
 20
172.1392471620279991
 30
0.0
 11
4105.4481906183100364
 21
172.1392482734243004
 31
0.0
  0
LINE
  5
16C9B
  8
0
  6
CONTINUOUS
 62
     7
 10
4104.7211672124103643
 20
172.298846800224311
 30
0.0
 11
4105.4557333485090567
 21
172.298846800224311
 31
0.0
  0
LINE
  5
16C9C
  8
0
  6
CONTINUOUS
 62
     7
 10
4104.6160093356102152
 20
172.8233456951242886
 30
0.0
 11
4104.65544761261026
 21
172.8233456951242886
 31
0.0
  0
LINE
  5
16C9D
  8
0
  6
CONTINUOUS
 62
     7
 10
4105.5215892884098139
 20
172.8233456951242886
 30
0.0
 11
4105.5608912254101597
 21
172.8233456951242886
 31
0.0
  0
LINE
  5
16C9E
  8
0
  6
CONTINUOUS
 62
     7
 10
4105.5608912254101597
 20
173.1383063250243026
 30
0.0
 11
4104.6160093356102152
 21
173.1383063250243026
 31
0.0
  0
LINE
  5
16C9F
  8
0
  6
CONTINUOUS
 62
     7
 10
4105.4821510679103085
 20
173.2666724521243111
 30
0.0
 11
4104.6947494931100664
 21
173.2666724521243111
 31
0.0
  0
LINE
  5
16CA0
  8
0
  6
CONTINUOUS
 62
     7
 10
4105.4230959373098813
 20
173.3257275848243069
 30
0.0
 11
4104.7538046236104492
 21
173.3257275848243069
 31
0.0
  0
ARC
  5
16CA1
  8
0
  6
CONTINUOUS
 62
     7
 10
4093.622687441510152
 20
147.6885523716242972
 30
0.0
 40
13.9447123930999997
 50
359.4293345797996722
 51
2.1388529741684388
  0
ARC
  5
16CA2
  8
0
  6
CONTINUOUS
 62
     7
 10
4105.0635927388466371
 20
133.3067747839230037
 30
0.0
 40
14.9402863370426804
 50
80.4082905716384175
 51
81.0709305893065846
  0
ARC
  5
16CA3
  8
0
  6
CONTINUOUS
 62
     7
 10
4105.0884502805101874
 20
129.8336016006242915
 30
0.0
 40
0.9448818898
 50
136.816578205675512
 51
254.2861389533086083
  0
ARC
  5
16CA4
  8
0
  6
CONTINUOUS
 62
     7
 10
4105.0884502805101874
 20
129.8336016006242915
 30
0.0
 40
0.9448818898
 50
285.7138610466914201
 51
43.183421803191159
  0
ARC
  5
16CA5
  8
0
  6
CONTINUOUS
 62
     7
 10
4105.0884502805101874
 20
129.8336016006242915
 30
0.0
 40
0.8858267717
 50
141.0575587321542912
 51
253.2085528870516953
  0
ARC
  5
16CA6
  8
0
  6
CONTINUOUS
 62
     7
 10
4105.0884502805101874
 20
129.8336016006242915
 30
0.0
 40
0.8858267717
 50
286.7914471129481058
 51
38.9424412781335789
  0
CIRCLE
  5
16CA7
  8
0
  6
CONTINUOUS
 62
     7
 10
4105.0884502805101874
 20
129.8336016006242915
 30
0.0
 40
0.7480314961
  0
CIRCLE
  5
16CA8
  8
0
  6
CONTINUOUS
 62
     7
 10
4105.0884502805101874
 20
129.8336016006242915
 30
0.0
 40
0.2992125984
  0
ARC
  5
16CA9
  8
0
  6
CONTINUOUS
 62
     7
 10
4104.7846947382431608
 20
127.101318136730896
 30
0.0
 40
0.0787401590676861
 50
183.0000004551079087
 51
270.0084733164734985
  0
ARC
  5
16CAA
  8
0
  6
CONTINUOUS
 62
     7
 10
4105.3922058243088031
 20
127.1013181360243038
 30
0.0
 40
0.0787401575
 50
270.0
 51
356.9999999999996021
  0
ARC
  5
16CAB
  8
0
  6
CONTINUOUS
 62
     7
 10
4104.9506550049491125
 20
131.3493496321079874
 30
0.0
 40
0.0196850394392582
 50
90.0
 51
179.9999999526750116
  0
ARC
  5
16CAC
  8
0
  6
CONTINUOUS
 62
     7
 10
4105.2262455561412935
 20
131.3493496322786882
 30
0.0
 40
0.0196850392685732
 50
359.9999995504933281
 51
90.0
  0
ARC
  5
16CAD
  8
0
  6
CONTINUOUS
 62
     7
 10
4105.7577416191097655
 20
131.7115543565242888
 30
0.0
 40
0.0196850394
 50
0.0
 51
90.0
  0
ARC
  5
16CAE
  8
0
  6
CONTINUOUS
 62
     7
 10
4104.4191589419096999
 20
131.7115543565242888
 30
0.0
 40
0.0196850394
 50
90.0
 51
180.0
  0
ARC
  5
16CAF
  8
0
 10
4107.0569575551089656
 20
144.6496587871243094
 30
0.0
 40
8.5750097901999993
 50
89.7394793606059551
 51
89.9710897395075051
  0
ARC
  5
16CB0
  8
0
 10
4107.0569496208099736
 20
144.6496964924243116
 30
0.0
 40
8.5749720837000005
 50
90.0289467739114144
 51
90.2605580414916346
  0
ARC
  5
16CB1
  8
0
  6
CONTINUOUS
 62
     7
 10
4107.4428312248210204
 20
148.0245704109885878
 30
0.0
 40
0.111042189642074
 50
1.115753708610087
 51
7.049506554091427
  0
ARC
  5
16CB2
  8
0
  6
CONTINUOUS
 62
     7
 10
4105.9545920128093712
 20
148.1918693171242865
 30
0.0
 40
0.0393700787
 50
84.3731095002988241
 51
90.0
  0
ARC
  5
16CB3
  8
0
  6
CONTINUOUS
 62
     7
 10
4105.6516126387123222
 20
148.3770789220540109
 30
0.0
 40
0.0195155495948701
 50
359.5002005493961974
 51
90.5006496380373164
  0
ARC
  5
16CB4
  8
0
  6
CONTINUOUS
 62
     7
 10
4104.5254659330894356
 20
146.7233732448476076
 30
0.0
 40
0.019692905446315
 50
180.0228823088845047
 51
269.9782183683443009
  0
ARC
  5
16CB5
  8
0
  6
CONTINUOUS
 62
     7
 10
4104.525465799812082
 20
148.3769010418112089
 30
0.0
 40
0.019692686185875
 50
90.0213941071104244
 51
179.9777557055031139
  0
ARC
  5
16CB6
  8
0
  6
CONTINUOUS
 62
     7
 10
4105.6514357636997374
 20
146.7233721280711052
 30
0.0
 40
0.0196917882708542
 50
270.0184782015119254
 51
359.9803657734727267
  0
ARC
  5
16CB7
  8
0
  6
CONTINUOUS
 62
     7
 10
4103.2577416191161319
 20
146.7824204982381957
 30
0.0
 40
0.0196850394138788
 50
179.9983520442083034
 51
269.9999999832725734
  0
ARC
  5
16CB8
  8
0
  6
CONTINUOUS
 62
     7
 10
4103.2577416191161319
 20
148.3178535691104116
 30
0.0
 40
0.0196850394138792
 50
90.0000000167273555
 51
180.0016476647438992
  0
ARC
  5
16CB9
  8
0
  6
CONTINUOUS
 62
     7
 10
4093.6766833697101902
 20
171.0283901454243107
 30
0.0
 40
12.1614173228000002
 50
0.9348942962876101
 51
4.4479820192001842
  0
ARC
  5
16CBA
  8
0
  6
CONTINUOUS
 62
     7
 10
4102.3218763704526282
 20
170.6913864328516865
 30
0.0
 40
0.0078750292701245
 50
269.3561302057750027
 51
351.9972428651162772
  0
ARC
  5
16CBB
  8
0
  6
CONTINUOUS
 62
     7
 10
4102.2292676638226112
 20
170.6913859165316012
 30
0.0
 40
0.0078740157144303
 50
188.000000039243389
 51
270.0024302739020072
  0
ARC
  5
16CBC
  8
0
  6
CONTINUOUS
 62
     7
 10
4101.9973976027067692
 20
170.6913859165252916
 30
0.0
 40
0.0078740157020767
 50
269.9990773457781188
 51
351.9999999943220246
  0
ARC
  5
16CBD
  8
0
  6
CONTINUOUS
 62
     7
 10
4101.9047879921408821
 20
170.6913859421144082
 30
0.0
 40
0.0078740659338264
 50
188.0001366650164982
 51
270.1433480485085283
  0
ARC
  5
16CBE
  8
0
  6
CONTINUOUS
 62
     7
 10
4101.886723613310096
 20
170.6913859165242968
 30
0.0
 40
0.0078740157
 50
270.0
 51
351.9999999999989768
  0
ARC
  5
16CBF
  8
0
  6
CONTINUOUS
 62
     7
 10
4101.7941139556096459
 20
170.6913859165242968
 30
0.0
 40
0.0078740157
 50
188.0000000000009095
 51
270.0
  0
ARC
  5
16CC0
  8
0
  6
CONTINUOUS
 62
     7
 10
4105.0884502805101874
 20
153.4556488447242941
 30
0.0
 40
0.8267716534999999
 50
306.529607227468091
 51
0.0
  0
ARC
  5
16CC1
  8
0
  6
CONTINUOUS
 62
     7
 10
4105.0884502805101874
 20
153.4556488447242941
 30
0.0
 40
0.8267716534999999
 50
126.5296072360929003
 51
233.4703927639071139
  0
ARC
  5
16CC2
  8
0
  6
CONTINUOUS
 62
     7
 10
4105.0884502805101874
 20
153.4556488447242941
 30
0.0
 40
0.6692914835
 50
317.3320610401011095
 51
358.4554591287637777
  0
ARC
  5
16CC3
  8
0
  6
CONTINUOUS
 62
     7
 10
4105.0884502805101874
 20
153.4556488447242941
 30
0.0
 40
0.6692914835
 50
137.3320610527231054
 51
222.6679389472768946
  0
ARC
  5
16CC4
  8
0
  6
CONTINUOUS
 62
     7
 10
4105.0884502805101874
 20
153.4556488447242941
 30
0.0
 40
0.6299215431000001
 50
141.3863105302968108
 51
144.000725844196495
  0
ARC
  5
16CC5
  8
0
  6
CONTINUOUS
 62
     7
 10
4105.0884502805101874
 20
153.4556488447242941
 30
0.0
 40
0.6299215431000001
 50
178.0239407795002933
 51
214.7491801809044034
  0
ARC
  5
16CC6
  8
0
  6
CONTINUOUS
 62
     7
 10
4105.0884502805101874
 20
153.4556488447242941
 30
0.0
 40
0.6299215431000001
 50
215.9992745440935948
 51
218.6136894697031039
  0
ARC
  5
16CC7
  8
0
  6
CONTINUOUS
 62
     7
 10
4105.0884502805101874
 20
153.4556488447242941
 30
0.0
 40
0.6299215431000001
 50
321.3863105302967824
 51
324.000585880899223
  0
ARC
  5
16CC8
  8
0
  6
CONTINUOUS
 62
     7
 10
4105.0884502805101874
 20
153.4556488447240099
 30
0.0
 40
0.6299212597998586
 50
92.0111576151806645
 51
0.3808305028458254
  0
ARC
  5
16CC9
  8
0
 10
4105.36755198901119
 20
153.2265148287243051
 30
0.0
 40
1.728396723099999
 50
359.9360746208997739
 51
0.2654972836998013
  0
ARC
  5
16CCA
  8
0
 10
4107.0569550745112792
 20
156.8337819742243084
 30
0.0
 40
3.8353933038000001
 50
269.4380855796943024
 51
270.5619152580957234
  0
ARC
  5
16CCB
  8
0
 10
4107.0605114406143912
 20
156.006230581800196
 30
0.0
 40
2.888319782125635
 50
274.6410257304709717
 51
279.113629819642199
  0
ARC
  5
16CCC
  8
0
 10
4108.9061108809100915
 20
153.2248683762242933
 30
0.0
 40
1.8881566852
 50
179.7069828568000105
 51
180.0087549211995963
  0
ARC
  5
16CCD
  8
0
  6
CONTINUOUS
 62
     7
 10
4103.4181297036102478
 20
170.6913859165242968
 30
0.0
 40
0.0078740157
 50
188.0000000000009095
 51
270.0
  0
ARC
  5
16CCE
  8
0
  6
CONTINUOUS
 62
     7
 10
4102.8380500128578205
 20
170.6913859166616021
 30
0.0
 40
0.0078740158372526
 50
270.0000003733175049
 51
351.9999997341849962
  0
ARC
  5
16CCF
  8
0
  6
CONTINUOUS
 62
     7
 10
4102.7454403553101656
 20
170.6913859165242968
 30
0.0
 40
0.0078740157
 50
188.0000000000009095
 51
270.0
  0
ARC
  5
16CD0
  8
0
  6
CONTINUOUS
 62
     7
 10
4103.0933265540088541
 20
170.6913859165242968
 30
0.0
 40
0.0078740157
 50
188.0000000000009095
 51
270.0
  0
ARC
  5
16CD1
  8
0
  6
CONTINUOUS
 62
     7
 10
4103.1859362117329511
 20
170.6913859164596943
 30
0.0
 40
0.0078740156353874
 50
269.9999998241540879
 51
352.000001011075824
  0
ARC
  5
16CD2
  8
0
  6
CONTINUOUS
 62
     7
 10
4102.4437202548097048
 20
170.6913859165242968
 30
0.0
 40
0.0078740157
 50
188.0000000000009095
 51
270.0
  0
ARC
  5
16CD3
  8
0
  6
CONTINUOUS
 62
     7
 10
4103.2047813745102758
 20
170.6913859165242968
 30
0.0
 40
0.0078740157
 50
188.0000000000009095
 51
270.0
  0
ARC
  5
16CD4
  8
0
  6
CONTINUOUS
 62
     7
 10
4103.2973910322089068
 20
170.6913859165244105
 30
0.0
 40
0.0078740157002616
 50
270.0003376344131993
 51
351.9999999993157189
  0
ARC
  5
16CD5
  8
0
  6
CONTINUOUS
 62
     7
 10
4102.8844517133893532
 20
170.6913865494045126
 30
0.0
 40
0.0078752580701428
 50
269.2871612228743174
 51
351.9966205834732023
  0
ARC
  5
16CD6
  8
0
  6
CONTINUOUS
 62
     7
 10
4102.5322594463086716
 20
170.6913859165242968
 30
0.0
 40
0.0078740156999904
 50
187.9999999999751878
 51
270.0000000000521254
  0
ARC
  5
16CD7
  8
0
  6
CONTINUOUS
 62
     7
 10
4102.6248690907741548
 20
170.6913859237101008
 30
0.0
 40
0.0078740298059396
 50
269.9240381310806924
 51
351.9999616235155031
  0
ARC
  5
16CD8
  8
0
  6
CONTINUOUS
 62
     7
 10
4103.3544187789229909
 20
170.6913859165316012
 30
0.0
 40
0.0078740157144348
 50
188.0000000392938091
 51
270.0024310015429023
  0
ARC
  5
16CD9
  8
0
  6
CONTINUOUS
 62
     7
 10
4104.2941026990101818
 20
170.6913859165242968
 30
0.0
 40
0.0078740157
 50
270.0
 51
351.9999999999989768
  0
ARC
  5
16CDA
  8
0
  6
CONTINUOUS
 62
     7
 10
4104.2014930422528778
 20
170.6913859169825116
 30
0.0
 40
0.0078740165994274
 50
188.0000024469983941
 51
270.0191814294569781
  0
ARC
  5
16CDB
  8
0
  6
CONTINUOUS
 62
     7
 10
4103.5107393613088789
 20
170.6913859165242968
 30
0.0
 40
0.0078740157
 50
270.0
 51
351.9999999999989768
  0
ARC
  5
16CDC
  8
0
  6
CONTINUOUS
 62
     7
 10
4104.3696235234092455
 20
170.6913859165242968
 30
0.0
 40
0.0078740157
 50
188.0000000000009095
 51
270.0
  0
ARC
  5
16CDD
  8
0
  6
CONTINUOUS
 62
     7
 10
4104.4622331811087861
 20
170.6913859165242968
 30
0.0
 40
0.0078740157
 50
270.0
 51
351.9999999999989768
  0
ARC
  5
16CDE
  8
0
  6
CONTINUOUS
 62
     7
 10
4103.7429328532098225
 20
170.6913859165242968
 30
0.0
 40
0.0078740157
 50
188.0000000000009095
 51
270.0
  0
ARC
  5
16CDF
  8
0
  6
CONTINUOUS
 62
     7
 10
4103.8355425109102725
 20
170.6913859165242968
 30
0.0
 40
0.0078740157
 50
270.0
 51
351.9999999999989768
  0
ARC
  5
16CE0
  8
0
  6
CONTINUOUS
 62
     7
 10
4104.0677360028103067
 20
170.6913859165242968
 30
0.0
 40
0.0078740157
 50
188.0000000000009095
 51
270.0
  0
ARC
  5
16CE1
  8
0
  6
CONTINUOUS
 62
     7
 10
4104.1603456605098472
 20
170.6913859165242968
 30
0.0
 40
0.0078740157
 50
270.0
 51
351.9999999999989768
  0
ARC
  5
16CE2
  8
0
  6
CONTINUOUS
 62
     7
 10
4104.5721783860408323
 20
170.6913865495401126
 30
0.0
 40
0.0078752582051618
 50
269.2871615936410876
 51
351.996620327344715
  0
ARC
  5
16CE3
  8
0
  6
CONTINUOUS
 62
     7
 10
4104.4851488101194263
 20
170.6913859164847054
 30
0.0
 40
0.0078740156858378
 50
270.0046056637531819
 51
352.0000002764742248
  0
ARC
  5
16CE4
  8
0
  6
CONTINUOUS
 62
     7
 10
4103.916994336508651
 20
170.6913859165242968
 30
0.0
 40
0.0078740157
 50
188.0000000000009095
 51
270.0
  0
ARC
  5
16CE5
  8
0
  6
CONTINUOUS
 62
     7
 10
4104.0096039926665981
 20
170.6913859173623962
 30
0.0
 40
0.0078740173452765
 50
269.9740571885703275
 51
351.9999955239176188
  0
ARC
  5
16CE6
  8
0
  6
CONTINUOUS
 62
     7
 10
4104.4343054309656509
 20
171.9669764668126106
 30
0.0
 40
0.0590551199619921
 50
89.9897209866592505
 51
175.5520171864779115
  0
ARC
  5
16CE7
  8
0
  6
CONTINUOUS
 62
     7
 10
4105.0884502805101874
 20
171.7976851291242895
 30
0.0
 40
0.4960629921
 50
28.4368901582225391
 51
43.515274240302702
  0
ARC
  5
16CE8
  8
0
  6
CONTINUOUS
 62
     7
 10
4105.0883086934090898
 20
171.797787574924314
 30
0.0
 40
0.4958880383999516
 50
136.4820455525012051
 51
151.5656240045121876
  0
ARC
  5
16CE9
  8
0
  6
CONTINUOUS
 62
     7
 10
4105.7425951300829183
 20
171.9669764668882124
 30
0.0
 40
0.0590551198864842
 50
4.4479827711374806
 51
90.0102790420795031
  0
CIRCLE
  5
16CEA
  8
0
  6
CONTINUOUS
 62
     7
 10
4105.0885780681101096
 20
172.2131094746243036
 30
0.0
 40
0.0236220472
  0
ARC
  5
16CEB
  8
0
  6
CONTINUOUS
 62
     7
 10
4105.4624660285098798
 20
172.1528023664243108
 30
0.0
 40
0.0196850394
 50
180.0
 51
223.5152742400015029
  0
ARC
  5
16CEC
  8
0
  6
CONTINUOUS
 62
     7
 10
4104.7144223286459237
 20
172.1528047118202949
 30
0.0
 40
0.0196972433038526
 50
316.5042211906779244
 51
359.9931776597828161
  0
ARC
  5
16CED
  8
0
  6
CONTINUOUS
 62
     7
 10
4105.4620751143556845
 20
172.2806226349979113
 30
0.0
 40
0.0192960667558456
 50
109.1872133199076984
 51
180.8127867973124978
  0
ARC
  5
16CEE
  8
0
  6
CONTINUOUS
 62
     7
 10
4104.7144345323167727
 20
172.280348913896205
 30
0.0
 40
0.0196850394929911
 50
0.0000000817120629
 51
69.9999998010683697
  0
ARC
  5
16CEF
  8
0
  6
CONTINUOUS
 62
     7
 10
4105.1347551092576396
 20
170.6913859166614884
 30
0.0
 40
0.0078740158372241
 50
270.0000003732394021
 51
351.9999997343651899
  0
ARC
  5
16CF0
  8
0
  6
CONTINUOUS
 62
     7
 10
4105.0421454517208986
 20
170.6913859165844087
 30
0.0
 40
0.0078740158179833
 50
188.000000321012692
 51
270.0069475854604093
  0
CIRCLE
  5
16CF1
  8
0
  6
CONTINUOUS
 62
     7
 10
4105.0884502805101874
 20
174.1131291597243091
 30
0.0
 40
0.4921259843
  0
CIRCLE
  5
16CF2
  8
0
  6
CONTINUOUS
 62
     7
 10
4105.0884502805101874
 20
174.1131291597243091
 30
0.0
 40
0.4665354331
  0
ARC
  5
16CF3
  8
0
  6
CONTINUOUS
 62
     7
 10
4105.4034109104113668
 20
173.3454126242243092
 30
0.0
 40
0.019685039400013
 50
180.0000000000202931
 51
269.9999940668619729
  0
ARC
  5
16CF4
  8
0
  6
CONTINUOUS
 62
     7
 10
4104.7734896506635778
 20
173.3454126240696098
 30
0.0
 40
0.0196850392453598
 50
269.9999998409335831
 51
0.0000004501068061
  0
ARC
  5
16CF5
  8
0
  6
CONTINUOUS
 62
     7
 10
4107.1480324142676182
 20
158.5808787055408118
 30
0.0
 40
11.81683398161152
 50
270.7341849047056144
 51
271.8726830466180786
  0
ARC
  5
16CF6
  8
0
  6
CONTINUOUS
 62
     7
 10
4116.5002171912101403
 20
171.0283901454243107
 30
0.0
 40
12.1614173228000002
 50
175.5520179807998034
 51
179.0651057037123906
  0
LINE
  5
16CF7
  8
0
 10
4107.0959677010087034
 20
153.0001358892243104
 30
0.0
 11
4107.0959589006097303
 21
153.2245883550243093
 31
0.0
  0
LINE
  5
16CF8
  8
0
 10
4107.017937786236871
 20
153.000469583997301
 30
0.0
 11
4107.0179541921097552
 21
153.2245797520243116
 31
0.0
  0
LINE
  5
16CF9
  8
0
 10
4107.0961502524723983
 20
152.8886488070880887
 30
0.0
 11
4107.0959677105101946
 21
153.0001363456242984
 31
0.0
  0
LINE
  5
16CFA
  8
0
 10
4107.0526174035103395
 20
153.224667481824298
 30
0.0
 11
4107.0612843268090728
 21
153.2246674857242965
 31
0.0
  0
LINE
  5
16CFB
  8
0
 10
4107.0179407360092227
 20
153.0001363634243035
 30
0.0
 11
4107.0177395014970898
 21
152.8885186206883873
 31
0.0
  0
ARC
  5
16CFC
  8
0
 10
4107.2018925881329778
 20
113.4286394132248006
 30
0.0
 40
1.8221385247865109
 50
180.9220019162706876
 51
198.0722721709963139
  0
ARC
  5
16CFD
  8
0
 10
4107.3072454335524526
 20
113.5068376094834974
 30
0.0
 40
1.94699796514412
 50
199.2982725609577983
 51
234.4908998800821109
  0
ARC
  5
16CFE
  8
0
 10
4108.3979760319007255
 20
115.0175713442698964
 30
0.0
 40
3.8103160854297449
 50
234.3345565581664971
 51
256.955442417539075
  0
ARC
  5
16CFF
  8
0
 10
4108.9103835531823279
 20
116.8738053315054941
 30
0.0
 40
5.7348655349459561
 50
256.1539904740824909
 51
278.2518575149007916
  0
ARC
  5
16D00
  8
0
 10
4109.0642669339704298
 20
115.7664103441679941
 30
0.0
 40
4.6168544220094336
 50
278.3343645150725933
 51
301.6585608583691851
  0
ARC
  5
16D01
  8
0
 10
4109.0966819800578378
 20
115.6966105616424016
 30
0.0
 40
4.5404372493478187
 50
301.7726802692131969
 51
323.5680889411265753
  0
ARC
  5
16D02
  8
0
 10
4108.1651411930042741
 20
116.1843786424597056
 30
0.0
 40
5.5819058237783468
 50
325.2185617963585855
 51
354.7655530923933043
  0
ARC
  5
16D03
  8
0
 10
4103.075405154731925
 20
116.8070837646774009
 30
0.0
 40
10.7083594313582804
 50
353.9320926847818214
 51
5.8680831546360102
  0
ARC
  5
16D04
  8
0
 10
4085.7414521128412161
 20
114.6228908078698936
 30
0.0
 40
28.1776367815857398
 50
6.6825834767409509
 51
17.8650010120360783
  0
ARC
  5
16D05
  8
0
 10
4986.6156451147508051
 20
401.3247219515068878
 30
0.0
 40
917.2178494656784551
 50
196.9070015096623933
 51
197.6470971635282865
  0
ARC
  5
16D06
  8
0
 10
4198.3062043450408964
 20
160.5747462857162873
 30
0.0
 40
92.9723590154130903
 50
192.4058561056687893
 51
196.2359700014999078
  0
ARC
  5
16D07
  8
0
 10
4139.7949812540437051
 20
147.7404492836186023
 30
0.0
 40
33.0701150282435918
 50
183.5190439141991021
 51
192.4676165771491867
  0
ARC
  5
16D08
  8
0
 10
4107.1394913359072234
 20
113.419094869985301
 30
0.0
 40
2.3424720395872298
 50
179.4910895878502117
 51
218.2152516771251953
  0
ARC
  5
16D09
  8
0
 10
4107.9319953367967173
 20
114.1615823369469069
 30
0.0
 40
3.4257176563317739
 50
219.7727218485019876
 51
250.1393395847674128
  0
ARC
  5
16D0A
  8
0
 10
4108.8716939938931318
 20
116.5092686421898946
 30
0.0
 40
5.9536391426850317
 50
249.3095747035285967
 51
270.5262549984930729
  0
ARC
  5
16D0B
  8
0
 10
4108.9739687005094311
 20
116.0507690192289942
 30
0.0
 40
5.4950944874748027
 50
269.503765616427188
 51
295.6097510455335851
  0
ARC
  5
16D0C
  8
0
 10
4109.1315086630747828
 20
115.6519233106780007
 30
0.0
 40
5.0674276277390566
 50
295.9527263309901741
 51
322.3012841881986787
  0
ARC
  5
16D0D
  8
0
 10
4108.6569644792189138
 20
115.9548150893687932
 30
0.0
 40
5.62835261709309
 50
322.8156679719199929
 51
347.0141522342955795
  0
ARC
  5
16D0E
  8
0
 10
4103.7245846049672764
 20
116.8707534728399935
 30
0.0
 40
10.6425996745936899
 50
348.1762506280369962
 51
7.3586046381252741
  0
ARC
  5
16D0F
  8
0
 10
4084.9247419447578977
 20
114.3747552070330045
 30
0.0
 40
29.6073683260495386
 50
7.4893735842014477
 51
17.1288303872905985
  0
ARC
  5
16D10
  8
0
 10
3518.4080456276778932
 20
-59.8766192373148769
 30
0.0
 40
622.3169966938670541
 50
17.0985628908360603
 51
17.8053082130814317
  0
ARC
  5
16D11
  8
0
 10
4287.2552779062543777
 20
186.4202129457976866
 30
0.0
 40
185.0177618729736935
 50
196.2567497106871883
 51
197.6190890960093896
  0
ARC
  5
16D12
  8
0
 10
4204.5116302956739673
 20
162.2868845457724092
 30
0.0
 40
98.8265284829221571
 50
193.5760249945936096
 51
196.2538675106312098
  0
ARC
  5
16D13
  8
0
 10
4157.2487400542768228
 20
151.0606584772305041
 30
0.0
 40
50.2493321498312824
 50
189.7091538232274104
 51
193.7832223519712045
  0
ARC
  5
16D14
  8
0
 10
4134.221468219135204
 20
147.1237734817742933
 30
0.0
 40
26.8879474515706782
 50
182.9536711845611876
 51
189.7155079046804929
  0
ARC
  5
16D15
  8
0
 10
4144.7013727069688684
 20
147.1100302395063011
 30
0.0
 40
37.3573256850128672
 50
180.5281192097803
 51
182.104359076339307
  0
ARC
  5
16D16
  8
0
 10
4107.0553115246493689
 20
147.6703260487720115
 30
0.0
 40
0.9280222497388592
 50
257.7558796742392246
 51
275.1258452331632043
  0
ARC
  5
16D17
  8
0
 10
4107.0971285851019275
 20
147.3735648241689091
 30
0.0
 40
0.6288939002889896
 50
273.7467265480461833
 51
285.3291343680205046
  0
ARC
  5
16D18
  8
0
 10
4106.8090762465899388
 20
148.373791306114299
 30
0.0
 40
1.6111358862699141
 50
270.5711160778004114
 51
274.0858309261728891
  0
ARC
  5
16D19
  8
0
 10
4107.0934196043990596
 20
144.4104975706366929
 30
0.0
 40
2.3623448819629438
 50
86.9605913047396513
 51
94.1157338421761125
  0
ARC
  5
16D1A
  8
0
 10
4106.2388939915290393
 20
128.6612229333514108
 30
0.0
 40
18.1347835717810213
 50
86.7075860680755142
 51
86.9029229214659722
  0
ARC
  5
16D1B
  8
0
 10
4107.6149483059971317
 20
152.6097943817702003
 30
0.0
 40
5.8532886330390124
 50
266.7235179045271138
 51
266.910186374127079
  0
ARC
  5
16D1C
  8
0
 10
4104.0648133254599088
 20
149.0577332713156125
 30
0.0
 40
0.7876455827479462
 50
246.1155490068632901
 51
293.8844509931362836
  0
ARC
  5
16D1D
  8
0
 10
4103.839924210654317
 20
148.498830277965908
 30
0.0
 40
0.0198109324654052
 50
90.2818551769928348
 51
165.7100537213322866
  0
ARC
  5
16D1E
  8
0
 10
4104.3896487178753887
 20
148.4988875037352045
 30
0.0
 40
0.0197536580846036
 50
346.2477402285201151
 51
89.7479774046658889
  0
ARC
  5
16D1F
  8
0
 10
4105.6044603112677578
 20
146.724277843531496
 30
0.0
 40
0.0205991913133042
 50
238.8037209814038135
 51
269.2663655898563775
  0
ARC
  5
16D20
  8
0
 10
4104.5724402457663018
 20
146.7242778563922911
 30
0.0
 40
0.0205992042343559
 50
270.7336472616526066
 51
301.1962650128911037
  0
ARC
  5
16D21
  8
0
 10
4105.3044994477486398
 20
145.5933819958320043
 30
0.0
 40
1.326568755318531
 50
108.2166994898307024
 51
122.9427657170030983
  0
ARC
  5
16D22
  8
0
 10
4104.8025693601339299
 20
145.4705671095350112
 30
0.0
 40
1.4676341420909
 50
57.3766989269738588
 51
67.1705387683783641
  0
ARC
  5
16D23
  8
0
 10
4105.0914395738818712
 20
146.2090040294916093
 30
0.0
 40
0.6752690961265977
 50
65.4508533771877978
 51
107.3740509861253969
  0
ARC
  5
16D24
  8
0
 10
4105.5670072712919136
 20
145.2537810990415892
 30
0.0
 40
1.8447658915039069
 50
115.5191617869161007
 51
125.1183786874039043
  0
ARC
  5
16D25
  8
0
 10
4104.5764899030837114
 20
145.2029155880194935
 30
0.0
 40
1.905588984963335
 50
54.9399058828359088
 51
63.2204543824696117
  0
ARC
  5
16D26
  8
0
 10
4105.0902721669472157
 20
146.2970720805047904
 30
0.0
 40
0.6981385291704829
 50
60.4039743271013734
 51
117.0981970409052053
  0
ARC
  5
16D27
  8
0
 10
4105.6672202719119014
 20
150.0070844192925108
 30
0.0
 40
2.0338000669428711
 50
235.1749561781371938
 51
242.683303487813987
  0
ARC
  5
16D28
  8
0
 10
4104.5803740980309158
 20
149.8907075000140878
 30
0.0
 40
1.8979137154207419
 50
296.8023904373010282
 51
305.0794496637740281
  0
ARC
  5
16D29
  8
0
 10
4105.1578866635645682
 20
149.0190930714026933
 30
0.0
 40
0.9222489051167313
 50
242.6296832467702131
 51
257.4595015863170033
  0
ARC
  5
16D2A
  8
0
 10
4104.9928350354957729
 20
149.0798472664712904
 30
0.0
 40
0.9881851047418559
 50
286.4115463618031185
 51
296.6562693098417185
  0
ARC
  5
16D2B
  8
0
 10
4105.0891246529054115
 20
148.7435009605848961
 30
0.0
 40
0.6383429267478848
 50
258.1131558279648175
 51
286.6505730029543884
  0
ARC
  5
16D2C
  8
0
 10
4104.5724402495397953
 20
148.375996223761291
 30
0.0
 40
0.0205991914705302
 50
58.8037205589319498
 51
89.2663652856640937
  0
ARC
  5
16D2D
  8
0
 10
4105.6044588459208171
 20
148.376001347683399
 30
0.0
 40
0.0205940492637517
 50
90.7297429506284203
 51
121.200170633011993
  0
ARC
  5
16D2E
  8
0
 10
4105.5242032602382096
 20
149.8959998170790868
 30
0.0
 40
1.7727938027998831
 50
237.9954719486887029
 51
243.6489972728763007
  0
ARC
  5
16D2F
  8
0
 10
4104.6200560733359453
 20
149.9487644959851025
 30
0.0
 40
1.834841504673234
 50
298.2235835426903918
 51
302.0521759363397791
  0
ARC
  5
16D30
  8
0
 10
4105.161491295468295
 20
149.154977340038414
 30
0.0
 40
0.947781122984039
 50
243.4136087229670977
 51
256.4232709796444283
  0
ARC
  5
16D31
  8
0
 10
4104.9690996247090879
 20
149.2774533541021071
 30
0.0
 40
1.078321594820411
 50
285.7932177040823944
 51
298.7510394338128208
  0
ARC
  5
16D32
  8
0
 10
4105.0889050674550163
 20
148.8614370788845065
 30
0.0
 40
0.6454061127108643
 50
256.5697599588290814
 51
285.6105913023054086
  0
ARC
  5
16D33
  8
0
 10
4104.3192940072485726
 20
130.1407385193031985
 30
0.0
 40
0.0801804673840931
 50
338.4113169366091256
 51
359.8021330377052891
  0
ARC
  5
16D34
  8
0
 10
4105.857606612262316
 20
130.1407385391748051
 30
0.0
 40
0.0801805282729676
 50
180.1981558429988013
 51
201.5886761224290922
  0
ARC
  5
16D35
  8
0
 10
4105.0462455289953141
 20
129.8973066106348142
 30
0.0
 40
0.7705516711168253
 50
18.3945721961950284
 51
74.9805429799810241
  0
ARC
  5
16D36
  8
0
 10
4105.1306554909997431
 20
129.8973059920963919
 30
0.0
 40
0.7705524241417977
 50
105.0193907676381002
 51
161.6053678169081138
  0
ARC
  5
16D37
  8
0
 10
4104.38439018097597
 20
172.2131094746243036
 30
0.0
 40
0.3505262209336106
 50
356.1359517049194778
 51
3.8640482955793929
  0
ARC
  5
16D38
  8
0
 10
4105.8001778507814379
 20
172.2131094746243036
 30
0.0
 40
0.3581766344718598
 50
176.2186065503599934
 51
183.7813934496415982
  0
ARC
  5
16D39
  8
0
 10
4158.3617940049725803
 20
147.5076101636788906
 30
0.0
 40
51.6058697053833768
 50
180.9522344296983078
 51
181.9955511865516939
  0
ARC
  5
16D3A
  8
0
 10
4107.5322112325184207
 20
146.788416781464889
 30
0.0
 40
0.0181689623922502
 50
276.2549306105875075
 51
311.0706378388453004
  0
ARC
  5
16D3B
  8
0
 10
4107.5225738523713517
 20
146.7973470430322891
 30
0.0
 40
0.0312644365470193
 50
313.6344817938077085
 51
358.1540964868668766
  0
ARC
  5
16D3C
  8
0
 10
4095.8232944145747751
 20
147.3737710029691073
 30
0.0
 40
11.7447309699934692
 50
357.1819103816627035
 51
0.8581198759936544
  0
ARC
  5
16D3D
  8
0
 10
4107.0757699499263254
 20
148.4792938400873084
 30
0.0
 40
0.5146760841419525
 50
274.8069333889242216
 51
306.5814307141204154
  0
ARC
  5
16D3E
  8
0
 10
4107.1010587492428385
 20
148.423580122885113
 30
0.0
 40
0.4575000833533738
 50
240.1264427694823951
 51
272.2348195719133059
  0
ARC
  5
16D3F
  8
0
 10
4107.1964498118450138
 20
148.6114434227492893
 30
0.0
 40
0.6680026976726924
 50
226.0713947376613078
 51
241.0576429313966003
  0
LINE
  5
16D40
  8
0
  6
CONTINUOUS
 62
     7
 10
4107.6069531330103928
 20
148.2940041993242914
 30
0.0
 11
4107.6044499800091216
 21
150.2714536069242968
 31
0.0
  0
ARC
  5
16D41
  8
0
 10
4106.5912585228652461
 20
148.2949719563090127
 30
0.0
 40
0.0843078280190001
 50
180.5424683493548912
 51
203.6427352775247925
  0
ARC
  5
16D42
  8
0
 10
4106.6479558044793521
 20
148.324320329019514
 30
0.0
 40
0.1480739050784245
 50
205.2477946469738015
 51
236.5467526802706004
  0
ARC
  5
16D43
  8
0
 10
4106.832052654137442
 20
148.6031475155675139
 30
0.0
 40
0.4821940130030381
 50
236.5594246819474904
 51
255.3258353337720052
  0
ARC
  5
16D44
  8
0
 10
4107.5207990525441346
 20
148.2950376559898018
 30
0.0
 40
0.086160278629939
 50
330.9290884326561013
 51
359.3127445024805979
  0
ARC
  5
16D45
  8
0
 10
4107.4751682162859652
 20
148.3195311610232068
 30
0.0
 40
0.1379458033191886
 50
313.9821727033644265
 51
331.2463575902851858
  0
ARC
  5
16D46
  8
0
 10
4107.3638069041326162
 20
148.4505866994414873
 30
0.0
 40
0.3097718128640543
 50
291.5222539668308173
 51
311.9696025189293778
  0
ARC
  5
16D47
  8
0
 10
4107.0316924075596035
 20
149.3251953722948997
 30
0.0
 40
1.231305656731239
 50
254.850384548980486
 51
268.0811679081601255
  0
ARC
  5
16D48
  8
0
 10
4107.0574490739963949
 20
149.5720511422175889
 30
0.0
 40
1.4789886940835799
 50
267.4041121264788217
 51
279.4302592428080061
  0
ARC
  5
16D49
  8
0
 10
4107.1720048803917962
 20
148.9173652040522029
 30
0.0
 40
0.8144009356994549
 50
279.0264727652427723
 51
292.0277552161396102
  0
ARC
  5
16D4A
  8
0
 10
4188.5089513056718715
 20
150.6429014758136873
 30
0.0
 40
80.9053540148812829
 50
179.4907724520500096
 51
180.263053913098787
  0
ARC
  5
16D4B
  8
0
 10
4117.0552300140861917
 20
151.2866365848246062
 30
0.0
 40
9.4487375311655786
 50
174.0257998127761994
 51
179.5432793573264121
  0
ARC
  5
16D4C
  8
0
 10
4109.6733657127360857
 20
152.0992969763318001
 30
0.0
 40
2.0227772459504321
 50
158.4526173489061875
 51
175.1571194112513012
  0
ARC
  5
16D4D
  8
0
 10
4108.7725305375852258
 20
152.4145892224408101
 30
0.0
 40
1.06976086189765
 50
128.0150656681636008
 51
156.4387731689120926
  0
ARC
  5
16D4E
  8
0
 10
4110.4054153403576493
 20
150.5511086996210111
 30
0.0
 40
3.5462620275335799
 50
126.1721253275514982
 51
130.2582998188667887
  0
ARC
  5
16D4F
  8
0
 10
4069.2684958154432024
 20
150.7441312170676895
 30
0.0
 40
37.2421271524447874
 50
359.6463561210842954
 51
1.4118584809988659
  0
ARC
  5
16D50
  8
0
 10
4101.5496003224916421
 20
151.6148430364359001
 30
0.0
 40
4.949938561385208
 50
0.5428794240066487
 51
11.6222757299667201
  0
ARC
  5
16D51
  8
0
 10
4105.31881309401615
 20
152.3884383056393972
 30
0.0
 40
1.1021595962526971
 50
11.7057973834909692
 51
46.2803335355376504
  0
ARC
  5
16D52
  8
0
 10
4104.1063125646669505
 20
151.0622528557780129
 30
0.0
 40
2.8989092168526489
 50
47.0760183407559012
 51
54.2123951645241178
  0
ARC
  5
16D53
  8
0
 10
4106.8064716861272245
 20
152.8852936976464889
 30
0.0
 40
0.242448233672017
 50
61.2418344121138034
 51
86.8734450565307839
  0
ARC
  5
16D54
  8
0
 10
4106.8401163143953454
 20
152.9597723543051018
 30
0.0
 40
0.1610937393808385
 50
22.1913504188206012
 51
58.9870814257337912
  0
ARC
  5
16D55
  8
0
 10
4106.6430130109856691
 20
152.8824966539455943
 30
0.0
 40
0.3727954773497029
 50
7.9851476016348739
 51
21.746497254856731
  0
ARC
  5
16D56
  8
0
 10
4106.0695846209591764
 20
152.796349295605296
 30
0.0
 40
0.9526480260671554
 50
5.5666821074215536
 51
8.3251707000499593
  0
ARC
  5
16D57
  8
0
 10
4107.0201979620778729
 20
152.8887468237089138
 30
0.0
 40
0.0024690291711011
 50
185.3032009033613008
 51
269.095522037782473
  0
ARC
  5
16D58
  8
0
 10
4107.0213709417257633
 20
153.0000637378321926
 30
0.0
 40
0.0034303865001075
 50
180.2209433849077982
 51
194.6085068840158101
  0
ARC
  5
16D59
  8
0
 10
4107.0186442999247447
 20
152.9993008144957969
 30
0.0
 40
0.0006016018364716
 50
189.7871029378626133
 51
255.5499378635475125
  0
ARC
  5
16D5A
  8
0
 10
4107.0198164935227396
 20
153.0038908024644115
 30
0.0
 40
0.0053389022787034
 50
255.6599689105021866
 51
264.8902497643268816
  0
ARC
  5
16D5B
  8
0
 10
4107.0926157300482373
 20
153.0000488576420139
 30
0.0
 40
0.0033526424465186
 50
345.307979779333607
 51
359.08154254023151
  0
ARC
  5
16D5C
  8
0
 10
4107.0952659051781666
 20
152.9993008144957969
 30
0.0
 40
0.0006016018364716
 50
284.4500621364522885
 51
350.2128970621373014
  0
ARC
  5
16D5D
  8
0
 10
4107.0940937114655753
 20
153.0038908033382938
 30
0.0
 40
0.0053389031592934
 50
275.1097506165228879
 51
284.3399980571641095
  0
ARC
  5
16D5E
  8
0
 10
4107.3074368365942064
 20
152.8852936976464889
 30
0.0
 40
0.2424482336720187
 50
93.1266324800373724
 51
118.7581655878861966
  0
ARC
  5
16D5F
  8
0
 10
4107.2737922083242665
 20
152.9597723543051018
 30
0.0
 40
0.1610937393808385
 50
121.0129185742666067
 51
157.8086495811793952
  0
ARC
  5
16D60
  8
0
 10
4107.4708955117339428
 20
152.8824966539455943
 30
0.0
 40
0.3727954773497029
 50
158.2535027451432939
 51
172.0148523983650932
  0
ARC
  5
16D61
  8
0
 10
4108.2325664849176974
 20
152.7704210074342939
 30
0.0
 40
1.1426622622304401
 50
171.755094678453105
 51
174.0073633433449061
  0
ARC
  5
16D62
  8
0
 10
4107.0937219930146966
 20
152.8887069026937979
 30
0.0
 40
0.0024289543206103
 50
270.6479142978162145
 51
358.6294717702006096
  0
ARC
  5
16D63
  8
0
 10
4105.3938985161776145
 20
154.1715883990449925
 30
0.0
 40
0.0261931951150582
 50
305.6324596524009962
 51
11.9475529274676902
  0
ARC
  5
16D64
  8
0
 10
4105.3553811826413948
 20
154.1604479904434868
 30
0.0
 40
0.0662470139955345
 50
14.4784694627028294
 51
49.2933417391564888
  0
ARC
  5
16D65
  8
0
 10
4105.2981523283733623
 20
154.1019482357968968
 30
0.0
 40
0.1480095733830878
 50
47.2683142620324901
 51
83.5101604765758481
  0
ARC
  5
16D66
  8
0
 10
4105.3061967507501322
 20
154.1796781106268099
 30
0.0
 40
0.0698730578521705
 50
82.8601315727051571
 51
107.6943611657921025
  0
ARC
  5
16D67
  8
0
 10
4105.2904278884134328
 20
154.2258244303332049
 30
0.0
 40
0.0211406100062616
 50
104.9907791431568995
 51
182.4060758228611121
  0
ARC
  5
16D68
  8
0
 10
4105.3235241141073857
 20
154.2300493962320047
 30
0.0
 40
0.0544587040876716
 50
185.3867541997076103
 51
213.4308972099387063
  0
ARC
  5
16D69
  8
0
 10
4105.318622182389845
 20
154.1678209067524108
 30
0.0
 40
0.0393552446843543
 50
182.6665619971414003
 51
200.7838328603685909
  0
ARC
  5
16D6A
  8
0
 10
4105.3759170688308586
 20
154.1347009561233108
 30
0.0
 40
0.0304633242685985
 50
304.0466706821873117
 51
350.9764520297114814
  0
ARC
  5
16D6B
  8
0
 10
4105.3682316580488987
 20
154.1460931236385932
 30
0.0
 40
0.0442054838165565
 50
275.0341338539470257
 51
304.0335555880084826
  0
ARC
  5
16D6C
  8
0
 10
4105.3469139965227441
 20
154.1805612926758897
 30
0.0
 40
0.0703517464843254
 50
202.3087342450876918
 51
233.0307375193652035
  0
ARC
  5
16D6D
  8
0
 10
4105.3714333853176868
 20
154.2076435111453918
 30
0.0
 40
0.1067860351059393
 50
231.2581913922061005
 51
254.5278498277355084
  0
ARC
  5
16D6E
  8
0
 10
4105.3645665123613071
 20
154.1802933671735047
 30
0.0
 40
0.0785981043789381
 50
254.0334716270577928
 51
275.5079440990082276
  0
ARC
  5
16D6F
  8
0
 10
4105.3517418809005903
 20
154.1611299172379859
 30
0.0
 40
0.0375594645059162
 50
208.5604351319921932
 51
250.5059481743687115
  0
ARC
  5
16D70
  8
0
 10
4105.3540319121048014
 20
154.1598916980142064
 30
0.0
 40
0.0372453378745397
 50
246.5462586131228022
 51
273.3410524567195239
  0
ARC
  5
16D71
  8
0
 10
4105.3561352435563094
 20
154.1367603319432931
 30
0.0
 40
0.0140508276717838
 50
270.2744405717243126
 51
315.5247193587265997
  0
ARC
  5
16D72
  8
0
 10
4105.3591025652312965
 20
154.1332175077525903
 30
0.0
 40
0.0094620422264962
 50
318.2450811889561919
 51
10.2822552732913
  0
ARC
  5
16D73
  8
0
 10
4105.3467127210324179
 20
154.1302894724709915
 30
0.0
 40
0.0221856597994293
 50
12.01142742902484
 51
50.5233512491136523
  0
ARC
  5
16D74
  8
0
 10
4105.3291416286210733
 20
154.112427257794792
 30
0.0
 40
0.0471958920224028
 50
47.8434500313535906
 51
71.0650608333243667
  0
ARC
  5
16D75
  8
0
 10
4105.3310006129349858
 20
154.1189577209964057
 30
0.0
 40
0.0404171873215659
 50
70.5537115149377598
 51
88.0767708734605463
  0
ARC
  5
16D76
  8
0
 10
4105.3313305700412457
 20
154.139690165260987
 30
0.0
 40
0.0196887507849869
 50
87.0115706769524166
 51
118.8320892552301018
  0
ARC
  5
16D77
  8
0
 10
4105.3264129720746496
 20
154.1491330450523094
 30
0.0
 40
0.0090482959144663
 50
120.3886088762620972
 51
174.8221499879520877
  0
ARC
  5
16D78
  8
0
 10
4105.3284724568693491
 20
154.1486344150117134
 30
0.0
 40
0.0111487079776205
 50
173.2250208073562874
 51
209.3303526967374921
  0
ARC
  5
16D79
  8
0
 10
4105.4789862648376584
 20
154.8258477857376931
 30
0.0
 40
0.0610514871261498
 50
183.6784852969038866
 51
213.2386723402856887
  0
ARC
  5
16D7A
  8
0
 10
4105.5010672255320969
 20
154.8396089207639932
 30
0.0
 40
0.0870647664353623
 50
212.8481290771769068
 51
249.8585438446243074
  0
ARC
  5
16D7B
  8
0
 10
4105.4968916396082932
 20
154.823472460069496
 30
0.0
 40
0.0704962979589726
 50
248.5286173743072879
 51
282.1157762642824878
  0
ARC
  5
16D7C
  8
0
 10
4105.5032058867727756
 20
154.7959773648653083
 30
0.0
 40
0.0422902769072442
 50
281.5701600855247193
 51
350.23772015354308
  0
ARC
  5
16D7D
  8
0
 10
4105.4833452249458787
 20
154.8827799899316062
 30
0.0
 40
0.0756579118002353
 50
183.5166685925393892
 51
208.7846805559738925
  0
ARC
  5
16D7E
  8
0
 10
4105.4437187952908062
 20
154.8825296135144924
 30
0.0
 40
0.0361565651762599
 50
124.2377690241151953
 51
186.9744893446057858
  0
ARC
  5
16D7F
  8
0
 10
4105.4526305163408324
 20
154.8682781337109873
 30
0.0
 40
0.05295639223506
 50
82.1400612748836636
 51
123.5335360364172033
  0
ARC
  5
16D80
  8
0
 10
4105.4488568990200292
 20
154.8068316139294893
 30
0.0
 40
0.1144368053055488
 50
57.6410213619447092
 51
84.4762455589220735
  0
ARC
  5
16D81
  8
0
 10
4105.4477620113802914
 20
154.8012761984097097
 30
0.0
 40
0.1197330612703009
 50
34.0175870866211127
 51
58.621344844629121
  0
ARC
  5
16D82
  8
0
 10
4105.4863823321838936
 20
154.8275603320659002
 30
0.0
 40
0.0730176276260277
 50
8.4184390709970955
 51
33.8763551177100695
  0
ARC
  5
16D83
  8
0
 10
4105.5154232574514026
 20
154.8324293790253137
 30
0.0
 40
0.043580437289387
 50
316.3624590067361169
 51
7.6756678050291622
  0
ARC
  5
16D84
  8
0
 10
4105.4722037404417279
 20
154.8047312759375131
 30
0.0
 40
0.0170462324148883
 50
90.9646321508931095
 51
143.2963261479868891
  0
ARC
  5
16D85
  8
0
 10
4105.4734065083193855
 20
154.7876891866754931
 30
0.0
 40
0.0341184454071166
 50
49.9563067652865911
 51
92.5025535224570064
  0
ARC
  5
16D86
  8
0
 10
4105.4768506254904423
 20
154.7885130367561999
 30
0.0
 40
0.0313427717375912
 50
17.9648020847744689
 51
53.8101864468855027
  0
ARC
  5
16D87
  8
0
 10
4105.4921755138757362
 20
154.7931008584043866
 30
0.0
 40
0.0153542770692389
 50
312.4075957483946127
 51
19.31780875755355
  0
ARC
  5
16D88
  8
0
 10
4105.4894363488347153
 20
154.7994225094400065
 30
0.0
 40
0.0219837645962753
 50
254.9933452497413953
 51
306.5572451651758001
  0
ARC
  5
16D89
  8
0
 10
4105.4916334001873111
 20
154.8152208436123942
 30
0.0
 40
0.0378634021902169
 50
222.7179664614245951
 51
257.9735589516441792
  0
ARC
  5
16D8A
  8
0
 10
4105.4825192553844317
 20
154.8082406855436943
 30
0.0
 40
0.0264529832050458
 50
184.9737879406706895
 51
225.0028022461372927
  0
ARC
  5
16D8B
  8
0
 10
4105.4709669043113536
 20
154.8068349046245089
 30
0.0
 40
0.0148276183493161
 50
146.9594219101132921
 51
183.4322072497245983
  0
ARC
  5
16D8C
  8
0
 10
4105.6321411085518776
 20
154.3933170489553959
 30
0.0
 40
0.031427413502651
 50
212.5074893271309122
 51
248.0695835068567021
  0
ARC
  5
16D8D
  8
0
 10
4105.6349231720041644
 20
154.3969092374182139
 30
0.0
 40
0.0358201496163567
 50
246.0871389514119016
 51
277.86740353118239
  0
ARC
  5
16D8E
  8
0
 10
4105.6375359451603799
 20
154.3800280906930027
 30
0.0
 40
0.0187423117496096
 50
277.0191325985053936
 51
321.3847174144856922
  0
ARC
  5
16D8F
  8
0
 10
4105.6422258233669709
 20
154.3752159378379929
 30
0.0
 40
0.0121033554354966
 50
325.3316215371112889
 51
5.240402507908243
  0
ARC
  5
16D90
  8
0
 10
4105.6339907867159127
 20
154.3734549734496113
 30
0.0
 40
0.0204892978207288
 50
8.0419730756970544
 51
49.9766750260945827
  0
ARC
  5
16D91
  8
0
 10
4105.6212936106330744
 20
154.3591249330974904
 30
0.0
 40
0.0396317925654246
 50
49.2427624717121404
 51
76.5434299369809423
  0
ARC
  5
16D92
  8
0
 10
4105.622557531854909
 20
154.3638640821463071
 30
0.0
 40
0.0347288543856358
 50
76.7519378529971732
 51
97.2287659058935958
  0
ARC
  5
16D93
  8
0
 10
4105.6206458725027915
 20
154.3775522071954072
 30
0.0
 40
0.02090970527268
 50
96.7517820816817817
 51
126.2367242401858931
  0
ARC
  5
16D94
  8
0
 10
4105.616183833807554
 20
154.3840260422099107
 30
0.0
 40
0.0130524050164772
 50
127.2368873971574033
 51
154.7307602289814952
  0
ARC
  5
16D95
  8
0
 10
4105.6171770003456913
 20
154.3841743429472899
 30
0.0
 40
0.0138984403452995
 50
157.0319823009604079
 51
213.8747147012921062
  0
ARC
  5
16D96
  8
0
 10
4105.9708640250792087
 20
154.8954784521405088
 30
0.0
 40
0.0322474426000278
 50
210.1925328769638952
 51
244.4060515913247116
  0
ARC
  5
16D97
  8
0
 10
4105.9705245858649505
 20
154.8954732847271885
 30
0.0
 40
0.0320975864090979
 50
244.9485371932348983
 51
280.9198229985788089
  0
ARC
  5
16D98
  8
0
 10
4105.9731458817086605
 20
154.88418201945899
 30
0.0
 40
0.0205188126276766
 50
279.7054214712291014
 51
320.4138224102728145
  0
ARC
  5
16D99
  8
0
 10
4105.9748678078667581
 20
154.8811254947380007
 30
0.0
 40
0.0172898941603676
 50
324.5872578399163899
 51
352.9036956191648073
  0
ARC
  5
16D9A
  8
0
 10
4105.9725704783431866
 20
154.8805489850373931
 30
0.0
 40
0.0195171815819172
 50
355.417131356150378
 51
38.0055254654060306
  0
ARC
  5
16D9B
  8
0
 10
4105.9625205074771657
 20
154.8728019097260926
 30
0.0
 40
0.0322063435751008
 50
37.8563989270984607
 51
80.1182407304492443
  0
ARC
  5
16D9C
  8
0
 10
4105.962396180038013
 20
154.87535468619771
 30
0.0
 40
0.0297180642136842
 50
79.0373928170987909
 51
104.7407951414733986
  0
ARC
  5
16D9D
  8
0
 10
4105.9597006158646764
 20
154.8847897954472899
 30
0.0
 40
0.0199086841946234
 50
104.1476051290233045
 51
140.9224018880983067
  0
ARC
  5
16D9E
  8
0
 10
4105.9595119365922073
 20
154.8862484855488049
 30
0.0
 40
0.0188699293937541
 50
144.0010229504254937
 51
162.7895207111415914
  0
ARC
  5
16D9F
  8
0
 10
4105.9586759611238449
 20
154.8875133622501892
 30
0.0
 40
0.0177231973626868
 50
165.8974226476171907
 51
207.7507544151202126
  0
ARC
  5
16DA0
  8
0
 10
4106.1254163199710092
 20
155.3092348590897132
 30
0.0
 40
0.0311192487250961
 50
205.6901250094198872
 51
242.016888803061704
  0
ARC
  5
16DA1
  8
0
 10
4106.1246450403386916
 20
155.3065319949648142
 30
0.0
 40
0.0283765685716494
 50
240.8313607218784966
 51
283.8587169172902804
  0
ARC
  5
16DA2
  8
0
 10
4106.1263095085387249
 20
155.2989452049434078
 30
0.0
 40
0.0206129298469039
 50
284.418088962431284
 51
325.9331647900058897
  0
ARC
  5
16DA3
  8
0
 10
4106.1266196499009311
 20
155.2983070442089968
 30
0.0
 40
0.0200016907066476
 50
326.949885741370224
 51
351.1988495479271251
  0
ARC
  5
16DA4
  8
0
 10
4106.1221192593748128
 20
155.2986159139070139
 30
0.0
 40
0.0244993487733766
 50
352.0954192643737883
 51
25.8355774708841501
  0
ARC
  5
16DA5
  8
0
 10
4106.1154748096078038
 20
155.2954234792352963
 30
0.0
 40
0.0318709138481843
 50
25.7955962559035186
 51
64.882507662133122
  0
ARC
  5
16DA6
  8
0
 10
4106.1166882213374265
 20
155.2992979569970942
 30
0.0
 40
0.0278530967551763
 50
63.7593746363807981
 51
103.4543723571808016
  0
ARC
  5
16DA7
  8
0
 10
4106.1151785959400513
 20
155.3065225434311003
 30
0.0
 40
0.0204766447252287
 50
104.0496987358198027
 51
144.0066318632804041
  0
ARC
  5
16DA8
  8
0
 10
4106.1151675948740376
 20
155.3068630577739953
 30
0.0
 40
0.020269412094232
 50
144.7671521429645907
 51
174.7312459634362085
  0
ARC
  5
16DA9
  8
0
 10
4106.1197451790376363
 20
155.3065726226462004
 30
0.0
 40
0.0248546715361103
 50
175.0335563156658054
 51
205.8270143754753008
  0
ARC
  5
16DAA
  8
0
 10
4106.6488102669536602
 20
155.1868840043545106
 30
0.0
 40
0.0242144557235793
 50
188.9772882778987082
 51
254.8170328875966106
  0
ARC
  5
16DAB
  8
0
 10
4106.651721241642008
 20
155.1908725018695066
 30
0.0
 40
0.0288800933217787
 50
251.3136912521931947
 51
300.3754721173116877
  0
ARC
  5
16DAC
  8
0
 10
4106.6558013252906676
 20
155.1835579262123019
 30
0.0
 40
0.0205072131696491
 50
300.8747812275121873
 51
343.925883494694915
  0
ARC
  5
16DAD
  8
0
 10
4106.6574592467350158
 20
155.1827102799495037
 30
0.0
 40
0.0186827942918682
 50
345.0160644603009814
 51
11.3239093485011608
  0
ARC
  5
16DAE
  8
0
 10
4106.6535823624972181
 20
155.1815889214807953
 30
0.0
 40
0.0227069111472607
 50
12.1775190695197697
 51
51.5594166213687899
  0
ARC
  5
16DAF
  8
0
 10
4106.649181593306821
 20
155.1765693532952923
 30
0.0
 40
0.0293762862266054
 50
50.9231064432437108
 51
82.348041988596421
  0
ARC
  5
16DB0
  8
0
 10
4106.6489981992599496
 20
155.1766018041143127
 30
0.0
 40
0.0293691337591335
 50
81.9850152097160674
 51
103.8424298699057999
  0
ARC
  5
16DB1
  8
0
 10
4106.6478965797641649
 20
155.1807644259471033
 30
0.0
 40
0.0250639485110599
 50
103.6739351317524012
 51
128.5644730591052962
  0
ARC
  5
16DB2
  8
0
 10
4106.6457189393986482
 20
155.1837165159118967
 30
0.0
 40
0.0213986007904191
 50
128.9329200621164944
 51
142.5905252559383882
  0
ARC
  5
16DB3
  8
0
 10
4106.6453154103310226
 20
155.1847037395941129
 30
0.0
 40
0.0204854190856556
 50
144.0982842767189993
 51
184.4746455628828983
  0
ARC
  5
16DB4
  8
0
 10
4106.3963817431476855
 20
154.5609416923568915
 30
0.0
 40
0.0194363704276034
 50
197.0710279015856941
 51
238.5992032567052092
  0
ARC
  5
16DB5
  8
0
 10
4106.4045216095601063
 20
154.5726938106357977
 30
0.0
 40
0.0337184457096357
 50
237.1978279697648873
 51
288.8975026952634835
  0
ARC
  5
16DB6
  8
0
 10
4106.4082564656973773
 20
154.5615750544017999
 30
0.0
 40
0.0219894690847553
 50
289.0735240200302201
 51
324.7091272024651971
  0
ARC
  5
16DB7
  8
0
 10
4106.413627125705716
 20
154.5565671799944027
 30
0.0
 40
0.0147455121272858
 50
328.5385458088366022
 51
6.1507532294758009
  0
ARC
  5
16DB8
  8
0
 10
4106.4106308979280584
 20
154.5551118508226978
 30
0.0
 40
0.0179158371537754
 50
9.7538820999237714
 51
51.3714771494878519
  0
ARC
  5
16DB9
  8
0
 10
4106.4019955286503318
 20
154.5447806166073974
 30
0.0
 40
0.0313788897201931
 50
50.8299514385069102
 51
83.2327737524906155
  0
ARC
  5
16DBA
  8
0
 10
4106.4011103213797469
 20
154.5421214636411946
 30
0.0
 40
0.0341285144784599
 50
82.283025652927563
 51
102.5109807354808993
  0
ARC
  5
16DBB
  8
0
 10
4106.399279684929752
 20
154.5497487538868029
 30
0.0
 40
0.0262861193388095
 50
102.216955208773399
 51
123.2844236909483016
  0
ARC
  5
16DBC
  8
0
 10
4106.395153445852884
 20
154.5560719585481024
 30
0.0
 40
0.0187357445336574
 50
123.3480016501143979
 51
142.2101858560463086
  0
ARC
  5
16DBD
  8
0
 10
4106.3911951619302272
 20
154.5588892397267955
 30
0.0
 40
0.0138827475645012
 50
141.3884136638901055
 51
195.2569885819042952
  0
ARC
  5
16DBE
  8
0
 10
4106.8048967269587592
 20
154.7385411022052892
 30
0.0
 40
0.0173624343250703
 50
181.1879882036515141
 51
234.3953269180456118
  0
ARC
  5
16DBF
  8
0
 10
4106.8137533188128145
 20
154.7507871085095985
 30
0.0
 40
0.0324753812611616
 50
234.2693792058558131
 51
295.7997029620224225
  0
ARC
  5
16DC0
  8
0
 10
4106.8195653437596775
 20
154.7393854868502103
 30
0.0
 40
0.0196825721383908
 50
295.0125430031187079
 51
338.9030586190676786
  0
ARC
  5
16DC1
  8
0
 10
4106.8242940513073336
 20
154.7369493616749878
 30
0.0
 40
0.0144052523350703
 50
341.1737841560429274
 51
16.3547201588311388
  0
ARC
  5
16DC2
  8
0
 10
4106.8197190539367512
 20
154.7350758401279052
 30
0.0
 40
0.0193293982506127
 50
17.8650557752972112
 51
56.3204946514395886
  0
ARC
  5
16DC3
  8
0
 10
4106.8133440512965535
 20
154.7262367368562082
 30
0.0
 40
0.0302228084788016
 50
55.5559455158366902
 51
81.702983296399168
  0
ARC
  5
16DC4
  8
0
 10
4106.8124783229050081
 20
154.722428213051387
 30
0.0
 40
0.0341177802513241
 50
81.1872819833807853
 51
96.7031583238808565
  0
ARC
  5
16DC5
  8
0
 10
4106.8121071796267643
 20
154.7251870598462062
 30
0.0
 40
0.0313345050758513
 50
96.617988563766005
 51
109.9563905096648
  0
ARC
  5
16DC6
  8
0
 10
4106.8098803488474005
 20
154.7308835618150056
 30
0.0
 40
0.0252204741552454
 50
109.6181817454018983
 51
129.8514166111905013
  0
ARC
  5
16DC7
  8
0
 10
4106.8039098720810216
 20
154.7374087977626971
 30
0.0
 40
0.0163900544601638
 50
128.4451965295610876
 51
177.29910785397621
  0
ARC
  5
16DC8
  8
0
 10
4106.7395849333961451
 20
154.4911978927167127
 30
0.0
 40
0.020984671724632
 50
205.8026863324155897
 51
240.9574838550998095
  0
ARC
  5
16DC9
  8
0
 10
4106.7457860838230772
 20
154.5029977817497127
 30
0.0
 40
0.0343126133835843
 50
241.4700248927188113
 51
289.0461152418570236
  0
ARC
  5
16DCA
  8
0
 10
4106.7512463526391002
 20
154.4899141241226914
 30
0.0
 40
0.0201830709523342
 50
286.5137153394073266
 51
338.0103423493479795
  0
ARC
  5
16DCB
  8
0
 10
4106.7571788350669522
 20
154.4864192924216866
 30
0.0
 40
0.0134123488667869
 50
342.3685753090337016
 51
29.4125483852300604
  0
ARC
  5
16DCC
  8
0
 10
4106.7520609443217836
 20
154.4836422229375898
 30
0.0
 40
0.0192346101942492
 50
29.1318098944678283
 51
53.2070720350932902
  0
ARC
  5
16DCD
  8
0
 10
4106.7458299172685656
 20
154.4751230666967103
 30
0.0
 40
0.0297889244735729
 50
53.4234428014157103
 51
79.7127738391813523
  0
ARC
  5
16DCE
  8
0
 10
4106.7443851175330565
 20
154.4694947983327893
 30
0.0
 40
0.035587171121972
 50
79.0422493882634427
 51
97.4725942584472591
  0
ARC
  5
16DCF
  8
0
 10
4106.7437917873721744
 20
154.4734597066496917
 30
0.0
 40
0.0315788558710268
 50
97.3407853763043391
 51
113.2825559768932067
  0
ARC
  5
16DD0
  8
0
 10
4106.7390249752606906
 20
154.4832215824723107
 30
0.0
 40
0.0207342872073902
 50
111.8451976184462069
 51
145.7144940780860907
  0
ARC
  5
16DD1
  8
0
 10
4106.7329882215999532
 20
154.4873885804491067
 30
0.0
 40
0.0133992007617439
 50
145.8955322791443905
 51
203.4153342786705139
  0
ARC
  5
16DD2
  8
0
 10
4106.61979241868994
 20
153.9118051763736048
 30
0.0
 40
0.0299693681012882
 50
232.968318436947186
 51
257.2996905349953067
  0
ARC
  5
16DD3
  8
0
 10
4106.6219451412544004
 20
153.9177545651062076
 30
0.0
 40
0.0362551277611691
 50
256.0478421178912072
 51
294.1147058537060843
  0
ARC
  5
16DD4
  8
0
 10
4106.6293279748306304
 20
153.9013583722640135
 30
0.0
 40
0.018273518920174
 50
293.9904710016111835
 51
330.0929404921625974
  0
ARC
  5
16DD5
  8
0
 10
4106.6351638724254371
 20
153.8975995369019927
 30
0.0
 40
0.0113459767758587
 50
331.8533242794006242
 51
23.7787222170861092
  0
ARC
  5
16DD6
  8
0
 10
4106.6274119833224177
 20
153.8931381598501105
 30
0.0
 40
0.0202612712622782
 50
26.4861043888142902
 51
67.5046914167547527
  0
ARC
  5
16DD7
  8
0
 10
4106.6203828226707628
 20
153.8794207814092942
 30
0.0
 40
0.0356460992339249
 50
65.5016175567220955
 51
85.5910372361145306
  0
ARC
  5
16DD8
  8
0
 10
4106.6199238246490495
 20
153.877764366698699
 30
0.0
 40
0.0373343588006211
 50
85.0841259921379844
 51
103.7927693343378053
  0
ARC
  5
16DD9
  8
0
 10
4106.6176429890347208
 20
153.886718869002209
 30
0.0
 40
0.028094403614378
 50
103.6291777882393035
 51
121.1108733421778965
  0
ARC
  5
16DDA
  8
0
 10
4106.6101576929622752
 20
153.8977854084727142
 30
0.0
 40
0.014768112057062
 50
118.4304067416777002
 51
171.6791907159262109
  0
ARC
  5
16DDB
  8
0
 10
4106.6098412063729484
 20
153.8996648049663065
 30
0.0
 40
0.0142984897771478
 50
178.9669908670130951
 51
235.5034926148427985
  0
ARC
  5
16DDC
  8
0
 10
4106.2685481453881948
 20
153.9383241263900004
 30
0.0
 40
0.0286131430178031
 50
224.9322441356526951
 51
253.3784823594602926
  0
ARC
  5
16DDD
  8
0
 10
4106.2721407323160747
 20
153.9487610922234921
 30
0.0
 40
0.0396442897571217
 50
252.7179962582121959
 51
280.8981985944039934
  0
ARC
  5
16DDE
  8
0
 10
4106.2755802303572636
 20
153.9326156569784985
 30
0.0
 40
0.0231420370628997
 50
280.0936860623555731
 51
314.9903944218671086
  0
ARC
  5
16DDF
  8
0
 10
4106.2832788796931709
 20
153.9244784038938008
 30
0.0
 40
0.0119482884400406
 50
316.4687730768429788
 51
355.6618827909492211
  0
ARC
  5
16DE0
  8
0
 10
4106.2828250206939629
 20
153.9241041652502986
 30
0.0
 40
0.0123792477187508
 50
357.5482732527609073
 51
32.7589394710930009
  0
ARC
  5
16DE1
  8
0
 10
4106.2685595857910812
 20
153.908687814260702
 30
0.0
 40
0.0338209441155743
 50
58.5367362089284313
 51
83.0375447733699872
  0
ARC
  5
16DE2
  8
0
 10
4106.2673000529757701
 20
153.9060584760960069
 30
0.0
 40
0.0365954298270208
 50
81.5789504673655728
 51
106.1913583199863069
  0
ARC
  5
16DE3
  8
0
 10
4106.2636775335531638
 20
153.9185963600631055
 30
0.0
 40
0.02354473192339
 50
106.2334751669903028
 51
127.3961758648634941
  0
ARC
  5
16DE4
  8
0
 10
4106.2584613699391412
 20
153.9255410524187084
 30
0.0
 40
0.0148597726677684
 50
127.6802004628896015
 51
149.4276585664372874
  0
ARC
  5
16DE5
  8
0
 10
4106.2552641928514277
 20
153.927467001218389
 30
0.0
 40
0.0111275014746245
 50
149.5926914178940024
 51
201.5523558097667944
  0
ARC
  5
16DE6
  8
0
 10
4106.5861880148249838
 20
153.6864795376066013
 30
0.0
 40
0.0272051557640691
 50
231.2939296643409079
 51
255.448677225426195
  0
ARC
  5
16DE7
  8
0
 10
4106.590566063055121
 20
153.6987209344144105
 30
0.0
 40
0.0401706667822056
 50
253.7910783011207059
 51
282.1055085025765266
  0
ARC
  5
16DE8
  8
0
 10
4106.5944399170793986
 20
153.683387252235093
 30
0.0
 40
0.0243722768170513
 50
280.760586658381726
 51
313.3416700537488282
  0
ARC
  5
16DE9
  8
0
 10
4106.6039935614062415
 20
153.6734765194291867
 30
0.0
 40
0.0106083445703982
 50
312.5535907371252051
 51
26.123692890615601
  0
ARC
  5
16DEA
  8
0
 10
4106.5971083683107281
 20
153.6694793151062015
 30
0.0
 40
0.0185585637238815
 50
27.8443457081885803
 51
61.0865077153692511
  0
ARC
  5
16DEB
  8
0
 10
4106.5889242451021346
 20
153.6560522166722933
 30
0.0
 40
0.0342755041265957
 50
59.9628867610436274
 51
81.9317965886675239
  0
ARC
  5
16DEC
  8
0
 10
4106.587510688284965
 20
153.6499738865651068
 30
0.0
 40
0.0404957515348477
 50
81.1586085731257754
 51
98.3760911780625236
  0
ARC
  5
16DED
  8
0
 10
4106.5858924346930507
 20
153.6594328841972867
 30
0.0
 40
0.0309027250771198
 50
97.9624487342568671
 51
117.3063658519524068
  0
ARC
  5
16DEE
  8
0
 10
4106.5778234314302608
 20
153.6735198575470918
 30
0.0
 40
0.0147009074096627
 50
114.5479872912069936
 51
164.386891641339588
  0
ARC
  5
16DEF
  8
0
 10
4106.5764079028658671
 20
153.6758646440486018
 30
0.0
 40
0.0128444630460863
 50
172.791096879479511
 51
235.7336244369494977
  0
ARC
  5
16DF0
  8
0
 10
4106.2775852888407826
 20
153.4343145217366953
 30
0.0
 40
0.0353347534138922
 50
234.0698426081088996
 51
255.9757894471912039
  0
ARC
  5
16DF1
  8
0
 10
4106.2817295577478944
 20
153.4458224140259119
 30
0.0
 40
0.0475198966223965
 50
254.4901576136493873
 51
278.1244350378747185
  0
ARC
  5
16DF2
  8
0
 10
4106.2861842319243806
 20
153.4199372137636033
 30
0.0
 40
0.0212782285703757
 50
276.0997013321256759
 51
313.3816644288555722
  0
ARC
  5
16DF3
  8
0
 10
4106.2954328943305882
 20
153.4092475748599043
 30
0.0
 40
0.007183404866023
 50
318.3358636946355773
 51
23.6562587810391598
  0
ARC
  5
16DF4
  8
0
 10
4106.283704506923641
 20
153.402477724058798
 30
0.0
 40
0.0206967031404634
 50
27.7984860032524104
 51
70.2651859385811264
  0
ARC
  5
16DF5
  8
0
 10
4106.2725376609978412
 20
153.3795412821581863
 30
0.0
 40
0.046139652050104
 50
66.8282308602199606
 51
83.108414940787128
  0
ARC
  5
16DF6
  8
0
 10
4106.2721935381723597
 20
153.3801259968693955
 30
0.0
 40
0.0456023129089182
 50
82.591016757979645
 51
97.7902498180456234
  0
ARC
  5
16DF7
  8
0
 10
4106.2699948590316126
 20
153.3958480659121903
 30
0.0
 40
0.0297273574233742
 50
97.6990685328944579
 51
112.2146848226494029
  0
ARC
  5
16DF8
  8
0
 10
4106.2648569615612359
 20
153.4082684681735032
 30
0.0
 40
0.0162864620337065
 50
112.001322303805793
 51
131.5158342951748978
  0
ARC
  5
16DF9
  8
0
 10
4106.2587800503306426
 20
153.4146087269394059
 30
0.0
 40
0.0075191541459097
 50
128.8651965929390997
 51
204.5140158398943981
  0
ARC
  5
16DFA
  8
0
 10
4107.0547299986583312
 20
153.2818154616340962
 30
0.0
 40
0.0384839534138728
 50
248.1892981692525098
 51
260.9523709463312002
  0
ARC
  5
16DFB
  8
0
 10
4107.0569255265618267
 20
153.294203255515697
 30
0.0
 40
0.0510633512187583
 50
260.7053358512050067
 51
281.8039633976241021
  0
ARC
  5
16DFC
  8
0
 10
4107.0709684635421581
 20
153.2590179691482035
 30
0.0
 40
0.0126446393322771
 50
303.9141725427797951
 51
326.4725704026059816
  0
ARC
  5
16DFD
  8
0
 10
4107.0759714271998746
 20
153.2557678251174025
 30
0.0
 40
0.0066791070172061
 50
326.0099543467208036
 51
32.6226732151923571
  0
ARC
  5
16DFE
  8
0
 10
4107.0686778043409504
 20
153.2505951387499863
 30
0.0
 40
0.0156164718989756
 50
34.1807552775783208
 51
69.1679412411318424
  0
ARC
  5
16DFF
  8
0
 10
4107.0579581004785723
 20
153.2266013057264047
 30
0.0
 40
0.041880371455109
 50
67.1345490836075101
 51
88.2380471759021674
  0
ARC
  5
16E00
  8
0
 10
4107.0567140978537282
 20
153.2228330821257032
 30
0.0
 40
0.0456989752641736
 50
86.8242174073897957
 51
110.726888396789505
  0
ARC
  5
16E01
  8
0
 10
4107.0471316599423517
 20
153.2479776571643129
 30
0.0
 40
0.0187905556455382
 50
110.5340832554473991
 51
138.9514114817264101
  0
ARC
  5
16E02
  8
0
 10
4107.0382633900399014
 20
153.2557420791345066
 30
0.0
 40
0.0070037091640802
 50
139.211393046967288
 51
226.2481462929399072
  0
ARC
  5
16E03
  8
0
 10
4107.0472506832038562
 20
153.2641336642311103
 30
0.0
 40
0.0192926409312142
 50
224.2020692464880085
 51
249.3012775099097951
  0
ARC
  5
16E04
  8
0
 10
4107.0531533823887003
 20
153.5922040685721868
 30
0.0
 40
0.0265658200235238
 50
225.709082198413995
 51
260.0360791476251165
  0
ARC
  5
16E05
  8
0
 10
4107.0568742929553991
 20
153.6075399606116036
 30
0.0
 40
0.0423263030508053
 50
258.6670532753745988
 51
285.1471064584110877
  0
ARC
  5
16E06
  8
0
 10
4107.0623123168834354
 20
153.5894892620428038
 30
0.0
 40
0.0234878103140555
 50
283.8480677521304756
 51
319.7006693778973272
  0
ARC
  5
16E07
  8
0
 10
4107.0720357766886082
 20
153.5808503706795136
 30
0.0
 40
0.0104887756760943
 50
321.3381714790792216
 51
7.6211467021668851
  0
ARC
  5
16E08
  8
0
 10
4107.0695621894974465
 20
153.5796834826319923
 30
0.0
 40
0.0131214521076657
 50
11.2413827475163508
 51
53.4907641104393079
  0
ARC
  5
16E09
  8
0
 10
4107.0579188538968083
 20
153.5630076567969979
 30
0.0
 40
0.0334567949971198
 50
54.4547299867362469
 51
91.6521230063261214
  0
ARC
  5
16E0A
  8
0
 10
4107.0568411762205869
 20
153.5567283696219079
 30
0.0
 40
0.0397223351731888
 50
89.8368849680668973
 51
105.6540973637571028
  0
ARC
  5
16E0B
  8
0
 10
4107.0541659658274511
 20
153.5661631745718125
 30
0.0
 40
0.0299156494794157
 50
105.5962623239907003
 51
119.8611799871762997
  0
ARC
  5
16E0C
  8
0
 10
4107.0492006090644281
 20
153.5747547583312098
 30
0.0
 40
0.0199925010652927
 50
119.7798588278647003
 51
136.2415250484357898
  0
ARC
  5
16E0D
  8
0
 10
4107.0422894165712933
 20
153.5808067981035947
 30
0.0
 40
0.0108228224378428
 50
134.0770339139689042
 51
224.7440991423428045
  0
ARC
  5
16E0E
  8
0
 10
4107.0559824673018738
 20
153.959887814004901
 30
0.0
 40
0.0345289619883265
 50
236.0230583875471098
 51
271.5170560322638948
  0
ARC
  5
16E0F
  8
0
 10
4107.0576151507848408
 20
153.9604186043945049
 30
0.0
 40
0.0350550145912547
 50
268.825488818990209
 51
304.2070271213515866
  0
ARC
  5
16E10
  8
0
 10
4107.0668748965772465
 20
153.9463681660189991
 30
0.0
 40
0.0182310435150218
 50
304.9645345813789845
 51
333.1633667137202224
  0
ARC
  5
16E11
  8
0
 10
4107.0718147620809759
 20
153.9437343590703051
 30
0.0
 40
0.0126347576294267
 50
333.7077559095782817
 51
13.8604939938946892
  0
ARC
  5
16E12
  8
0
 10
4107.0672711521583551
 20
153.9417353335429937
 30
0.0
 40
0.0175456657916709
 50
16.6449800543900217
 51
58.3418157298380677
  0
ARC
  5
16E13
  8
0
 10
4107.0575006295503044
 20
153.926377712099395
 30
0.0
 40
0.0357469690801533
 50
57.9312389718384324
 51
90.9681853703167604
  0
ARC
  5
16E14
  8
0
 10
4107.0567820833748556
 20
153.9227181903121107
 30
0.0
 40
0.0394015537686278
 50
89.8334678115411975
 51
107.5542085847719989
  0
ARC
  5
16E15
  8
0
 10
4107.0522817554483481
 20
153.934928291820512
 30
0.0
 40
0.0264097188309688
 50
106.2348376724144998
 51
128.4666960288703876
  0
ARC
  5
16E16
  8
0
 10
4107.043497170889168
 20
153.9437182803796134
 30
0.0
 40
0.0141334132685524
 50
122.7404546282354971
 51
180.940222652976189
  0
ARC
  5
16E17
  8
0
 10
4107.0451381576522181
 20
153.944618698292004
 30
0.0
 40
0.0158130911200756
 50
184.106324196100104
 51
237.6881827590206058
  0
ARC
  5
16E18
  8
0
 10
4107.0512502072642746
 20
154.5523189892473965
 30
0.0
 40
0.0202477090186213
 50
193.4073805457792048
 51
255.5394774606301951
  0
ARC
  5
16E19
  8
0
 10
4107.0569074596505743
 20
154.5653860112136044
 30
0.0
 40
0.034384874195334
 50
251.8460042632445095
 51
293.4931985315437259
  0
ARC
  5
16E1A
  8
0
 10
4107.0612395205644134
 20
154.5552096863308122
 30
0.0
 40
0.0233253079403681
 50
293.6988643854473935
 51
318.266028242893924
  0
ARC
  5
16E1B
  8
0
 10
4107.0679839618287588
 20
154.5494497732458115
 30
0.0
 40
0.0144593588506991
 50
317.5079977302210068
 51
5.9780977786147149
  0
ARC
  5
16E1C
  8
0
 10
4107.0659904922285932
 20
154.5483157203852898
 30
0.0
 40
0.0165856478363821
 50
9.158837785628636
 51
53.4505719014935394
  0
ARC
  5
16E1D
  8
0
 10
4107.0576950893537287
 20
154.537206827192108
 30
0.0
 40
0.0304499882041528
 50
53.3592500197913111
 51
88.8801351605945058
  0
ARC
  5
16E1E
  8
0
 10
4107.0569265778740373
 20
154.5330115741215877
 30
0.0
 40
0.0346662553766763
 50
87.7456368963278237
 51
104.4926874757505999
  0
ARC
  5
16E1F
  8
0
 10
4107.0555305291127297
 20
154.538133978209089
 30
0.0
 40
0.0293575608729839
 50
104.3566350539580014
 51
119.9516262418987935
  0
ARC
  5
16E20
  8
0
 10
4107.051515057351935
 20
154.5448707888953095
 30
0.0
 40
0.021515981870362
 50
119.6434799004089058
 51
141.7539813167460068
  0
ARC
  5
16E21
  8
0
 10
4107.0456803578790641
 20
154.5492560484514968
 30
0.0
 40
0.0142199855229621
 50
141.0774495519135883
 51
186.5900863795681914
  0
ARC
  5
16E22
  8
0
 10
4105.7465057574618186
 20
153.8477336227464889
 30
0.0
 40
0.031729923886477
 50
219.0624900652294968
 51
252.9495000491824044
  0
ARC
  5
16E23
  8
0
 10
4105.7512761431189574
 20
153.8560965677093861
 30
0.0
 40
0.0411780574120249
 50
250.0143129024135931
 51
277.9133308144487842
  0
ARC
  5
16E24
  8
0
 10
4105.7555037237789293
 20
153.8315112893695868
 30
0.0
 40
0.0162646732486187
 50
275.0850460035695164
 51
326.0468414910016008
  0
ARC
  5
16E25
  8
0
 10
4105.7606682327568706
 20
153.8267666287594864
 30
0.0
 40
0.0093898064882337
 50
332.4747341216042855
 51
17.6419952231491912
  0
ARC
  5
16E26
  8
0
 10
4105.7496658963318623
 20
153.8221278237369063
 30
0.0
 40
0.0213082667246678
 50
20.5638773120084295
 51
61.5784580274345288
  0
ARC
  5
16E27
  8
0
 10
4105.7374755413411549
 20
153.8042049645389966
 30
0.0
 40
0.0429288641042635
 50
58.6534975311674813
 51
81.8040695893439107
  0
ARC
  5
16E28
  8
0
 10
4105.7377000208189202
 20
153.8082468500628011
 30
0.0
 40
0.0388978705005006
 50
81.2825996156776966
 51
95.3951005034881945
  0
ARC
  5
16E29
  8
0
 10
4105.736074179494608
 20
153.8226428643696124
 30
0.0
 40
0.0244142027533523
 50
94.7729932364331944
 51
116.5781959566100028
  0
ARC
  5
16E2A
  8
0
 10
4105.7296102478521789
 20
153.8346699196459895
 30
0.0
 40
0.0107734452289398
 50
114.4518875986089057
 51
168.0512782438295858
  0
ARC
  5
16E2B
  8
0
 10
4105.7310300391281999
 20
153.835545172608505
 30
0.0
 40
0.0120363517255772
 50
173.5350384145185103
 51
220.4357721282611919
  0
ARC
  5
16E2C
  8
0
 10
4105.7560537100753209
 20
153.5670307858173942
 30
0.0
 40
0.0440450032324722
 50
229.4528014754955052
 51
250.0099101604195084
  0
ARC
  5
16E2D
  8
0
 10
4105.7610780769336998
 20
153.5765499185498015
 30
0.0
 40
0.054727920869971
 50
248.4734019540036911
 51
269.6099439469036838
  0
ARC
  5
16E2E
  8
0
 10
4105.7609271088676905
 20
153.5438986843134899
 30
0.0
 40
0.0220765306933112
 50
269.4248565444439123
 51
294.0226448067060119
  0
ARC
  5
16E2F
  8
0
 10
4105.7677977223202106
 20
153.529604078838787
 30
0.0
 40
0.0062397470687544
 50
289.8297861890941931
 51
17.7783387829885307
  0
ARC
  5
16E30
  8
0
 10
4105.7575880630065512
 20
153.5251631427852033
 30
0.0
 40
0.0173534497137356
 50
21.450649339303471
 51
54.7234752225218415
  0
ARC
  5
16E31
  8
0
 10
4105.7373266477043217
 20
153.498276208431804
 30
0.0
 40
0.0510147485440687
 50
53.5855990088554108
 51
76.5111667151387707
  0
ARC
  5
16E32
  8
0
 10
4105.7363007861849837
 20
153.4982750218630088
 30
0.0
 40
0.051264891908661
 50
75.3964871520495308
 51
89.4946936015827248
  0
ARC
  5
16E33
  8
0
 10
4105.7362369131387823
 20
153.5234590847103107
 30
0.0
 40
0.0260839394442861
 50
88.8665160558445422
 51
108.5404995761013964
  0
ARC
  5
16E34
  8
0
 10
4105.7300529663752968
 20
153.5404320887141125
 30
0.0
 40
0.0080390272698714
 50
105.2173223283604955
 51
146.0434450731218874
  0
ARC
  5
16E35
  8
0
 10
4105.7372473568439091
 20
153.5454280275833128
 30
0.0
 40
0.0154061545651829
 50
199.9439269881661971
 51
230.3714409275314097
  0
ARC
  5
16E36
  8
0
 10
4105.9219486156007406
 20
154.138886036247186
 30
0.0
 40
0.0589427170255943
 50
237.0494949632424095
 51
269.6671268451034962
  0
ARC
  5
16E37
  8
0
 10
4105.9220902688948627
 20
154.1266302312992877
 30
0.0
 40
0.0466884270793685
 50
269.4059133594270179
 51
298.090006128127186
  0
ARC
  5
16E38
  8
0
 10
4105.9338355393556412
 20
154.1036660712154003
 30
0.0
 40
0.0209037508772247
 50
299.3264691414141794
 51
342.1687085418333822
  0
ARC
  5
16E39
  8
0
 10
4105.9363953812799082
 20
154.1020130459376105
 30
0.0
 40
0.0179780512133399
 50
344.6864564439953824
 51
20.3218623006777399
  0
ARC
  5
16E3A
  8
0
 10
4105.9243537337933958
 20
154.0968524473107095
 30
0.0
 40
0.0310693823391733
 50
21.5342777284071509
 51
55.6762845788955119
  0
ARC
  5
16E3B
  8
0
 10
4105.9120764604313081
 20
154.08174535574841
 30
0.0
 40
0.0504945855000743
 50
53.8366726134730627
 51
66.6235332939566689
  0
ARC
  5
16E3C
  8
0
 10
4105.9073256262636278
 20
154.0704999961548083
 30
0.0
 40
0.0627019738246603
 50
66.715785652487881
 51
79.0882270514736661
  0
ARC
  5
16E3D
  8
0
 10
4105.9078396653012533
 20
154.0723269293916928
 30
0.0
 40
0.0608109733180906
 50
79.2379530532329994
 51
86.023483777272574
  0
ARC
  5
16E3E
  8
0
 10
4105.9081096725385578
 20
154.0788049800376029
 30
0.0
 40
0.0543300916343615
 50
85.8337843783241823
 51
99.5043021955429055
  0
ARC
  5
16E3F
  8
0
 10
4105.9078981889761053
 20
154.1182413795669959
 30
0.0
 40
0.0339813529598531
 50
209.1313762504236138
 51
237.9960449424895899
  0
ARC
  5
16E40
  8
0
 10
4106.0125111561601443
 20
154.5644395658214023
 30
0.0
 40
0.0510341017897213
 50
222.7036993132323062
 51
268.5983593261133251
  0
ARC
  5
16E41
  8
0
 10
4106.013726724031585
 20
154.5570475095680081
 30
0.0
 40
0.0436962969652801
 50
266.7675484408372881
 51
297.7899993687540814
  0
ARC
  5
16E42
  8
0
 10
4106.0223497688830321
 20
154.5406255600508985
 30
0.0
 40
0.025148090308989
 50
297.8536992674290786
 51
336.2233266128258151
  0
ARC
  5
16E43
  8
0
 10
4106.0262445525213479
 20
154.5382921089874912
 30
0.0
 40
0.0206508308758877
 50
337.7914662038350002
 51
1.057851923176532
  0
ARC
  5
16E44
  8
0
 10
4106.0208195936720585
 20
154.5374665639635907
 30
0.0
 40
0.0261001845227727
 50
2.650141668511087
 51
39.23227183431203
  0
ARC
  5
16E45
  8
0
 10
4106.0064164999066634
 20
154.5259378195702027
 30
0.0
 40
0.0445485501530819
 50
39.0014970815984228
 51
67.3556324567136357
  0
ARC
  5
16E46
  8
0
 10
4106.0014237868253986
 20
154.5160657945409923
 30
0.0
 40
0.0555876672985279
 50
66.5237980927352908
 51
85.5749089100432485
  0
ARC
  5
16E47
  8
0
 10
4106.0015979550471457
 20
154.5239603603183127
 30
0.0
 40
0.0477051842133497
 50
85.0518956668258568
 51
107.7870340774334039
  0
ARC
  5
16E48
  8
0
 10
4105.9961640901283317
 20
154.5401655063058115
 30
0.0
 40
0.0306155494171632
 50
107.3682481008157055
 51
139.113434238021199
  0
ARC
  5
16E49
  8
0
 10
4105.9909262615292391
 20
154.5461241021197054
 30
0.0
 40
0.0227808718287555
 50
141.8212954459424111
 51
225.6716410184899928
  0
ARC
  5
16E4A
  8
0
 10
4106.4258361452320969
 20
154.8851013198755027
 30
0.0
 40
0.0321680382643214
 50
187.6977116042044997
 51
238.5433320671074
  0
ARC
  5
16E4B
  8
0
 10
4106.436150393205935
 20
154.8988980329932019
 30
0.0
 40
0.0493455450773672
 50
236.6869077630576896
 51
289.0376880675556777
  0
ARC
  5
16E4C
  8
0
 10
4106.4406636517378502
 20
154.8849935984945034
 30
0.0
 40
0.0347304869907979
 50
289.481609873572495
 51
315.44986358380919
  0
ARC
  5
16E4D
  8
0
 10
4106.4481313580172355
 20
154.8779285128647132
 30
0.0
 40
0.0244531837111498
 50
314.9718627043570791
 51
13.6978638093136507
  0
ARC
  5
16E4E
  8
0
 10
4106.4426832339540852
 20
154.876296619312086
 30
0.0
 40
0.0301342349323569
 50
14.2594425435593806
 51
40.815490647765003
  0
ARC
  5
16E4F
  8
0
 10
4106.4334663462495882
 20
154.8682094283593074
 30
0.0
 40
0.0423958460081035
 50
40.9454246211363468
 51
66.9943481577063977
  0
ARC
  5
16E50
  8
0
 10
4106.4299043447708755
 20
154.8609352489253865
 30
0.0
 40
0.0504854722992124
 50
66.4997615398681177
 51
84.4381210228899874
  0
ARC
  5
16E51
  8
0
 10
4106.429932074575845
 20
154.8625502975322945
 30
0.0
 40
0.0488755096391874
 50
84.2869759674389627
 51
99.74214628637408
  0
ARC
  5
16E52
  8
0
 10
4106.4278898136553835
 20
154.872068862919491
 30
0.0
 40
0.039150694282068
 50
99.1536293033773291
 51
125.3882135007248024
  0
ARC
  5
16E53
  8
0
 10
4106.4195772274488263
 20
154.8826857149184946
 30
0.0
 40
0.0256890956411414
 50
123.9864111468271943
 51
184.22632580077169
  0
ARC
  5
16E54
  8
0
 10
4107.0535870457515557
 20
155.0092072459831058
 30
0.0
 40
0.0378837020465273
 50
206.3742065824175995
 51
262.9201434062437102
  0
ARC
  5
16E55
  8
0
 10
4107.0569845964901106
 20
155.017665215174901
 30
0.0
 40
0.046753992243448
 50
260.064614388145003
 51
304.1609592566255174
  0
ARC
  5
16E56
  8
0
 10
4107.0661446591975619
 20
155.0041350948349077
 30
0.0
 40
0.0304147628399463
 50
304.1945145963363188
 51
348.048416649774083
  0
ARC
  5
16E57
  8
0
 10
4107.0707759128081307
 20
155.0024549067061059
 30
0.0
 40
0.0255451372556272
 50
349.58433724413851
 51
12.1488644217133697
  0
ARC
  5
16E58
  8
0
 10
4107.0663794462843725
 20
155.0008230961392997
 30
0.0
 40
0.0301939943281104
 50
13.4203870315384606
 51
39.8326179036729826
  0
ARC
  5
16E59
  8
0
 10
4107.0606061073549427
 20
154.9950861436074092
 30
0.0
 40
0.0383087707667754
 50
40.89071727261679
 51
69.4846284842190869
  0
ARC
  5
16E5A
  8
0
 10
4107.0571241065690629
 20
154.9868002711762074
 30
0.0
 40
0.0472907854629484
 50
69.0517203702730313
 51
84.4124549943739737
  0
ARC
  5
16E5B
  8
0
 10
4107.0569508660955762
 20
154.9861934657214135
 30
0.0
 40
0.0479117096102141
 50
84.2769221419849544
 51
97.5538534671887021
  0
ARC
  5
16E5C
  8
0
 10
4107.0557469595405564
 20
154.990770099016089
 30
0.0
 40
0.0432205825075025
 50
96.769272295812172
 51
128.5755781925383019
  0
ARC
  5
16E5D
  8
0
 10
4107.0450021844244475
 20
155.0025600781183925
 30
0.0
 40
0.0273235973849222
 50
126.3763632397121057
 51
201.8787871016550071
  0
ARC
  5
16E5E
  8
0
 10
4106.7261255500579864
 20
153.4828544547713136
 30
0.0
 40
0.0404927424634952
 50
220.9899049092553867
 51
262.4880192961203988
  0
ARC
  5
16E5F
  8
0
 10
4106.7342217670975515
 20
153.5012090069494946
 30
0.0
 40
0.0600126173201539
 50
257.1076872458335743
 51
289.7968510112053195
  0
ARC
  5
16E60
  8
0
 10
4106.7460222331283148
 20
153.4729984709055941
 30
0.0
 40
0.0295133390734015
 50
286.7892247942551194
 51
314.3448621184433023
  0
ARC
  5
16E61
  8
0
 10
4106.7556897313552327
 20
153.4632052407162917
 30
0.0
 40
0.0157525577300597
 50
314.0959219335949228
 51
345.1299117953522
  0
ARC
  5
16E62
  8
0
 10
4106.758154394752637
 20
153.462267965374906
 30
0.0
 40
0.013132749936974
 50
346.3227217920946828
 51
25.6940717838372485
  0
ARC
  5
16E63
  8
0
 10
4106.7414131729710789
 20
153.4500838949520016
 30
0.0
 40
0.0337072315877057
 50
32.0318168800096927
 51
68.5449947870766323
  0
ARC
  5
16E64
  8
0
 10
4106.7306144676722397
 20
153.4249313411498861
 30
0.0
 40
0.0610726091526427
 50
67.7472068477637492
 51
92.2235078514552384
  0
ARC
  5
16E65
  8
0
 10
4106.7293933130704318
 20
153.4222905042034881
 30
0.0
 40
0.0636778184159945
 50
91.0332939591654338
 51
102.5945046949273944
  0
ARC
  5
16E66
  8
0
 10
4106.7226140437924187
 20
153.4470418109953869
 30
0.0
 40
0.0380633970258891
 50
100.7590668627588997
 51
129.370548455579808
  0
ARC
  5
16E67
  8
0
 10
4106.7067194803648817
 20
153.4649814273487891
 30
0.0
 40
0.0141417164627898
 50
125.6902198579932985
 51
217.9008720924732074
  0
ARC
  5
16E68
  8
0
 10
4106.8903125100032412
 20
153.7870348576016966
 30
0.0
 40
0.0243212027554442
 50
240.6639529908489123
 51
255.2774873986685975
  0
ARC
  5
16E69
  8
0
 10
4106.8948238614384536
 20
153.8003598515516899
 30
0.0
 40
0.0383676532572503
 50
253.8185686309161042
 51
286.9830796216267004
  0
ARC
  5
16E6A
  8
0
 10
4106.9001804946019547
 20
153.7850023264917922
 30
0.0
 40
0.0221244182929534
 50
285.3325143822613086
 51
323.6004366152101284
  0
ARC
  5
16E6B
  8
0
 10
4106.9093506906110633
 20
153.7780550369691923
 30
0.0
 40
0.010621794056916
 50
324.4104006238699185
 51
9.7731458339009976
  0
ARC
  5
16E6C
  8
0
 10
4106.9042052819950186
 20
153.7762619113314031
 30
0.0
 40
0.0160218528351579
 50
12.9707037887188008
 51
62.5026001746818096
  0
ARC
  5
16E6D
  8
0
 10
4106.8951897278366232
 20
153.7619058829043013
 30
0.0
 40
0.0329471084029915
 50
60.1215666594865823
 51
83.1492533380835255
  0
ARC
  5
16E6E
  8
0
 10
4106.8940549452127016
 20
153.7561566736004863
 30
0.0
 40
0.0387931360318651
 50
82.4980559370934259
 51
102.3946503309837937
  0
ARC
  5
16E6F
  8
0
 10
4106.890549003635897
 20
153.7688222140095888
 30
0.0
 40
0.0256799669022968
 50
100.8200605702900958
 51
135.0778855224874064
  0
ARC
  5
16E70
  8
0
 10
4106.8804631689627058
 20
153.7787842731970045
 30
0.0
 40
0.0115040617959837
 50
134.7379549463456954
 51
202.535087534888504
  0
ARC
  5
16E71
  8
0
 10
4106.8864104596832476
 20
153.7824210528658
 30
0.0
 40
0.0184227118851262
 50
205.8952564294349941
 51
244.2154612153150026
  0
ARC
  5
16E72
  8
0
 10
4106.8895303501776652
 20
153.9838106312083994
 30
0.0
 40
0.0251537296533852
 50
214.4764764660424134
 51
258.9442828695409275
  0
ARC
  5
16E73
  8
0
 10
4106.8945859788518646
 20
153.9977644319660044
 30
0.0
 40
0.0398836145317527
 50
255.6585123997861899
 51
289.4985830288877082
  0
ARC
  5
16E74
  8
0
 10
4106.9011768155460231
 20
153.9813129436847134
 30
0.0
 40
0.0221874482650849
 50
287.6347925999464223
 51
331.3787944649272958
  0
ARC
  5
16E75
  8
0
 10
4106.9092358344259992
 20
153.9760875783134964
 30
0.0
 40
0.0126310649946725
 50
334.6758664748670071
 51
11.5408011167428093
  0
ARC
  5
16E76
  8
0
 10
4106.9046313478393131
 20
153.9742665762886134
 30
0.0
 40
0.0175280376262823
 50
14.3628772354049108
 51
58.596903563360442
  0
ARC
  5
16E77
  8
0
 10
4106.895541306576888
 20
153.9610991224890029
 30
0.0
 40
0.0335151971809887
 50
57.0622683528760888
 51
81.6565063285679287
  0
ARC
  5
16E78
  8
0
 10
4106.8939791454131409
 20
153.9538097033131976
 30
0.0
 40
0.0409570514929538
 50
80.973984708163016
 51
96.422096744202662
  0
ARC
  5
16E79
  8
0
 10
4106.8933712161933727
 20
153.9580486058673898
 30
0.0
 40
0.0366769807863481
 50
96.2190390453586843
 51
111.2687262013330951
  0
ARC
  5
16E7A
  8
0
 10
4106.8889830926182185
 20
153.968537510272995
 30
0.0
 40
0.0253123214345775
 50
110.6247931694387034
 51
135.3953912032467883
  0
ARC
  5
16E7B
  8
0
 10
4106.8800646176223381
 20
153.9766234601339079
 30
0.0
 40
0.0132942226784752
 50
133.2154079289942956
 51
212.0339618847640111
  0
ARC
  5
16E7C
  8
0
 10
4106.7716336257044532
 20
154.0647084304634973
 30
0.0
 40
0.0158274138999746
 50
181.1632610726304904
 51
236.0578487701685901
  0
ARC
  5
16E7D
  8
0
 10
4106.7840395260118385
 20
154.0827888844850122
 30
0.0
 40
0.0377544057329446
 50
235.7594371126409101
 51
293.0245704972551835
  0
ARC
  5
16E7E
  8
0
 10
4106.7911932211281965
 20
154.0674232768390084
 30
0.0
 40
0.0208227811593375
 50
291.4451618228391112
 51
333.6783591142125829
  0
ARC
  5
16E7F
  8
0
 10
4106.7981932389657231
 20
154.0632905614604908
 30
0.0
 40
0.0127302099107794
 50
336.3814235080383241
 51
13.2987546971317308
  0
ARC
  5
16E80
  8
0
 10
4106.7926103080826579
 20
154.0609624119769876
 30
0.0
 40
0.0187247098098216
 50
16.3033761169432587
 51
61.2594216571621573
  0
ARC
  5
16E81
  8
0
 10
4106.7835264065106458
 20
154.0463744781621074
 30
0.0
 40
0.0358960211782208
 50
59.7424318103646712
 51
87.0807678897739521
  0
ARC
  5
16E82
  8
0
 10
4106.7827974382453249
 20
154.0423342197148031
 30
0.0
 40
0.0399715736834048
 50
86.3321332049008845
 51
101.6067806763542052
  0
ARC
  5
16E83
  8
0
 10
4106.781458496760024
 20
154.0485892034811002
 30
0.0
 40
0.0335751504862695
 50
101.5161695530816957
 51
115.3159297411559976
  0
ARC
  5
16E84
  8
0
 10
4106.7780873578449246
 20
154.0557473248497899
 30
0.0
 40
0.0256629421364729
 50
115.3460509937351048
 51
128.6324553046532913
  0
ARC
  5
16E85
  8
0
 10
4106.7711980122066961
 20
154.0633668274375054
 30
0.0
 40
0.0154223246816757
 50
126.3109680265206975
 51
176.2067477596390859
  0
ARC
  5
16E86
  8
0
 10
4106.7580712254939499
 20
154.1906657652388049
 30
0.0
 40
0.0312735501786447
 50
222.1416814819681065
 51
261.6414089382408861
  0
ARC
  5
16E87
  8
0
 10
4106.7599639152531381
 20
154.1964354139230977
 30
0.0
 40
0.0372713900094493
 50
260.0518905707747876
 51
290.154038693000814
  0
ARC
  5
16E88
  8
0
 10
4106.765449209738108
 20
154.1835454452674128
 30
0.0
 40
0.0232915164687171
 50
288.4115141299167249
 51
324.8629469122946034
  0
ARC
  5
16E89
  8
0
 10
4106.7724279373524041
 20
154.1779970411697036
 30
0.0
 40
0.0144005950690309
 50
326.9357673367671282
 51
0.5651988220870366
  0
ARC
  5
16E8A
  8
0
 10
4106.7699823966950134
 20
154.1766149338567118
 30
0.0
 40
0.0169142469242369
 50
5.1699967195058907
 51
56.5222384002969207
  0
ARC
  5
16E8B
  8
0
 10
4106.7600751317650065
 20
154.1633749409666905
 30
0.0
 40
0.0334364963616306
 50
54.876481807305197
 51
82.960755510936977
  0
ARC
  5
16E8C
  8
0
 10
4106.7586740026363259
 20
154.1567859831586134
 30
0.0
 40
0.0401517309148082
 50
82.1286578368171263
 51
96.3003124333463063
  0
ARC
  5
16E8D
  8
0
 10
4106.7579109332746157
 20
154.1619095411066951
 30
0.0
 40
0.0349759287202252
 50
95.9789013103756616
 51
114.0883413230917967
  0
ARC
  5
16E8E
  8
0
 10
4106.7533506899371787
 20
154.1718863004848004
 30
0.0
 40
0.0240069069340631
 50
113.8707671513003987
 51
140.1386867560399025
  0
ARC
  5
16E8F
  8
0
 10
4106.7454680835762701
 20
154.1784531900271134
 30
0.0
 40
0.0137473118541979
 50
140.0908458857684877
 51
219.643578370846086
  0
ARC
  5
16E90
  8
0
 10
4106.8300832994182201
 20
154.3031598356207041
 30
0.0
 40
0.0390316054602642
 50
257.059085977542793
 51
288.0921517795607087
  0
ARC
  5
16E91
  8
0
 10
4106.8327782644082617
 20
154.292937935979694
 30
0.0
 40
0.0284847721434559
 50
289.3245656674945963
 51
318.4980046307863972
  0
ARC
  5
16E92
  8
0
 10
4106.8426025155904426
 20
154.2831718443063949
 30
0.0
 40
0.0146776516645742
 50
321.6386344516329245
 51
355.1686803161513808
  0
ARC
  5
16E93
  8
0
 10
4106.8413340934966982
 20
154.2824501888235886
 30
0.0
 40
0.0159022499269389
 50
358.1458123294012807
 51
53.6894946302058429
  0
ARC
  5
16E94
  8
0
 10
4106.8323923107227529
 20
154.2725318304306086
 30
0.0
 40
0.0292200178731235
 50
51.0763568143238729
 51
71.9032519846184073
  0
ARC
  5
16E95
  8
0
 10
4106.8292694612891864
 20
154.2635245155944119
 30
0.0
 40
0.0387521734480245
 50
71.6511666824776228
 51
94.6059664167487284
  0
ARC
  5
16E96
  8
0
 10
4106.8287684625265683
 20
154.2663059758467909
 30
0.0
 40
0.0359405242322224
 50
94.1659325124655737
 51
111.6078264643815032
  0
ARC
  5
16E97
  8
0
 10
4106.8250585755540669
 20
154.2753349249562973
 30
0.0
 40
0.0261801969772783
 50
111.3358923877470943
 51
132.1178970631021912
  0
ARC
  5
16E98
  8
0
 10
4106.8173804230900714
 20
154.2831869088884957
 30
0.0
 40
0.0152125035443514
 50
130.500418803877011
 51
182.3289670910340021
  0
ARC
  5
16E99
  8
0
 10
4106.9684389282210759
 20
154.3529434732568006
 30
0.0
 40
0.0259529049780835
 50
211.0280316794539885
 51
260.6916386404622017
  0
ARC
  5
16E9A
  8
0
 10
4106.9723931352491491
 20
154.3648616783951866
 30
0.0
 40
0.0384045429083313
 50
257.7447380169007829
 51
290.2326494445417779
  0
ARC
  5
16E9B
  8
0
 10
4106.9776941172221996
 20
154.3516288647458055
 30
0.0
 40
0.0241582624891992
 50
289.2897484784534754
 51
324.3716788028020801
  0
ARC
  5
16E9C
  8
0
 10
4106.9847376653451647
 20
154.3460089340852903
 30
0.0
 40
0.015166553803911
 50
326.1282804833693945
 51
345.3763884686799202
  0
ARC
  5
16E9D
  8
0
 10
4106.9839209906012911
 20
154.3453378833295062
 30
0.0
 40
0.0158105157561305
 50
348.4781400299081042
 51
57.123007536763339
  0
ARC
  5
16E9E
  8
0
 10
4106.9731047744471653
 20
154.3313523513282064
 30
0.0
 40
0.0334608211150801
 50
54.5673711130016628
 51
86.9236849352249408
  0
ARC
  5
16E9F
  8
0
 10
4106.9721020374581713
 20
154.3260825099266071
 30
0.0
 40
0.0387835369163475
 50
85.8621970293015551
 51
103.7262700126109962
  0
ARC
  5
16EA0
  8
0
 10
4106.970132652076245
 20
154.3335053398274965
 30
0.0
 40
0.0311057675826278
 50
103.4466124153011037
 51
123.081093610325695
  0
ARC
  5
16EA1
  8
0
 10
4106.9649083867234367
 20
154.3415709695474902
 30
0.0
 40
0.0214960628322504
 50
123.1477830364758006
 51
142.640187143578288
  0
ARC
  5
16EA2
  8
0
 10
4106.9587823244482934
 20
154.3458210638339096
 30
0.0
 40
0.0140518810846594
 50
141.2567342474746113
 51
206.4329910715887877
  0
ARC
  5
16EA3
  8
0
 10
4106.5274763916668235
 20
154.3242403719370088
 30
0.0
 40
0.0215076703778682
 50
198.0889125986624038
 51
253.8620928530187939
  0
ARC
  5
16EA4
  8
0
 10
4106.533239513189983
 20
154.3364235211271875
 30
0.0
 40
0.0348789200469865
 50
250.3284987557518946
 51
294.0747928831023046
  0
ARC
  5
16EA5
  8
0
 10
4106.5399221082643635
 20
154.3216665865759012
 30
0.0
 40
0.0186797909017473
 50
293.8247424590038008
 51
332.0503127728954951
  0
ARC
  5
16EA6
  8
0
 10
4106.5454470272970866
 20
154.3184678987443021
 30
0.0
 40
0.0123023542604602
 50
333.1498929227702774
 51
9.5625168621512202
  0
ARC
  5
16EA7
  8
0
 10
4106.5408921362695764
 20
154.3170919353418924
 30
0.0
 40
0.0170331117241525
 50
11.5817764973983905
 51
55.342171632664261
  0
ARC
  5
16EA8
  8
0
 10
4106.5330145337411523
 20
154.3074452781056038
 30
0.0
 40
0.0294646548588757
 50
53.4088784475543576
 51
79.5861692064266748
  0
ARC
  5
16EA9
  8
0
 10
4106.5310274802131971
 20
154.3007519474377887
 30
0.0
 40
0.0364145157247294
 50
78.4147316058140689
 51
96.9258206733701684
  0
ARC
  5
16EAA
  8
0
 10
4106.530113867932414
 20
154.306659415548495
 30
0.0
 40
0.0304406086034371
 50
96.5595422423849925
 51
115.982739170284006
  0
ARC
  5
16EAB
  8
0
 10
4106.5259071893788132
 20
154.3151284277292064
 30
0.0
 40
0.0209847662436447
 50
115.7882948048439005
 51
137.9429521970733106
  0
ARC
  5
16EAC
  8
0
 10
4106.5199432186382182
 20
154.320180966213286
 30
0.0
 40
0.0131743567993484
 50
136.8830898941646126
 51
191.4645861706748065
  0
ARC
  5
16EAD
  8
0
 10
4106.1956919648491748
 20
154.2604177819040103
 30
0.0
 40
0.0215537163803255
 50
195.8336184480104976
 51
252.5974116178221891
  0
ARC
  5
16EAE
  8
0
 10
4106.2026051994371301
 20
154.2733349631494946
 30
0.0
 40
0.0360510527455809
 50
248.2489417951217092
 51
283.7178559959086783
  0
ARC
  5
16EAF
  8
0
 10
4106.2068116168629786
 20
154.2586850827428862
 30
0.0
 40
0.0208305449766855
 50
282.0333197723093122
 51
325.2984617277393227
  0
ARC
  5
16EB0
  8
0
 10
4106.2134305280487752
 20
154.2533511195890981
 30
0.0
 40
0.0123677164228107
 50
328.15823930040699
 51
6.8875151741642471
  0
ARC
  5
16EB1
  8
0
 10
4106.2080902028292257
 20
154.2516920943716912
 30
0.0
 40
0.0178967868778197
 50
10.1119253754339802
 51
56.2785296207893282
  0
ARC
  5
16EB2
  8
0
 10
4106.1991070241592752
 20
154.2403286095567125
 30
0.0
 40
0.0323563041262984
 50
54.2182905621885496
 51
80.4219557311772064
  0
ARC
  5
16EB3
  8
0
 10
4106.1977755124626128
 20
154.2359490882602131
 30
0.0
 40
0.03690095104846
 50
79.514777045134295
 51
94.0582305283454758
  0
ARC
  5
16EB4
  8
0
 10
4106.1972695333242882
 20
154.2415702875927934
 30
0.0
 40
0.0312582205821889
 50
93.8622904514850234
 51
110.0034583815459968
  0
ARC
  5
16EB5
  8
0
 10
4106.1933943488484147
 20
154.2513092288928931
 30
0.0
 40
0.0207835105310761
 50
109.148998817153398
 51
135.7086142948477061
  0
ARC
  5
16EB6
  8
0
 10
4106.1875493915977131
 20
154.2567674744987016
 30
0.0
 40
0.0127893601791684
 50
134.9264850475763922
 51
190.0439587833955102
  0
ARC
  5
16EB7
  8
0
 10
4106.1903413941172403
 20
153.7366388337015053
 30
0.0
 40
0.0602618695515668
 50
234.4495366057620913
 51
271.5701728161382107
  0
ARC
  5
16EB8
  8
0
 10
4106.1925574408296598
 20
153.7213154578219871
 30
0.0
 40
0.0449194171307596
 50
269.2795705617716067
 51
303.2866804697761154
  0
ARC
  5
16EB9
  8
0
 10
4106.2069153394659224
 20
153.6981248479384021
 30
0.0
 40
0.0176684486368098
 50
305.6396848756440932
 51
349.8781736591633944
  0
ARC
  5
16EBA
  8
0
 10
4106.209110567310745
 20
153.696865822255802
 30
0.0
 40
0.0153099399587562
 50
353.0744760833696887
 51
21.4495842392232205
  0
ARC
  5
16EBB
  8
0
 10
4106.1995919669579962
 20
153.6924546270446115
 30
0.0
 40
0.0257899472539004
 50
22.8379958525655695
 51
51.6012935977536102
  0
ARC
  5
16EBC
  8
0
 10
4106.1853006858818844
 20
153.6749148419245898
 30
0.0
 40
0.0484137178432382
 50
51.2395121098426571
 51
70.5414277714841944
  0
ARC
  5
16EBD
  8
0
 10
4106.1797348506779599
 20
153.6608346127395919
 30
0.0
 40
0.0635462860558511
 50
70.0388028309900648
 51
81.3575308354803042
  0
ARC
  5
16EBE
  8
0
 10
4106.1793276221742417
 20
153.6728753654539901
 30
0.0
 40
0.0517507398094324
 50
78.9078299781813683
 51
116.4503401683766981
  0
ARC
  5
16EBF
  8
0
 10
4106.1650374957462191
 20
153.7012156383387946
 30
0.0
 40
0.0200126982318498
 50
115.9611488723940056
 51
156.877378628200205
  0
ARC
  5
16EC0
  8
0
 10
4106.1704104034215561
 20
153.7083294662099036
 30
0.0
 40
0.0256421482103723
 50
202.6236753816276064
 51
233.9050025210570993
  0
ARC
  5
16EC1
  8
0
 10
4107.0561769935820848
 20
155.490305592636787
 30
0.0
 40
0.0252953882669641
 50
199.773538362654989
 51
240.0543505880015118
  0
ARC
  5
16EC2
  8
0
 10
4107.0569598096872141
 20
155.4916229928095959
 30
0.0
 40
0.026827687376876
 50
240.0101585898883911
 51
294.2930467126979011
  0
ARC
  5
16EC3
  8
0
 10
4107.0575212554849713
 20
155.4905118192120028
 30
0.0
 40
0.0255839819697068
 50
294.1707900283793151
 51
331.7627400459671776
  0
ARC
  5
16EC4
  8
0
 10
4107.0577920779824126
 20
155.4901814885083127
 30
0.0
 40
0.0251896277881792
 50
332.1332428822329916
 51
351.2808460532460231
  0
ARC
  5
16EC5
  8
0
 10
4107.0580771220847964
 20
155.490016923038695
 30
0.0
 40
0.0248832179000815
 50
351.5558990601244886
 51
26.6853454542591386
  0
ARC
  5
16EC6
  8
0
 10
4107.0571601805722821
 20
155.4895311473852928
 30
0.0
 40
0.0259206593310332
 50
26.7345146268608715
 51
71.9440747381982391
  0
ARC
  5
16EC7
  8
0
 10
4107.0569536615430479
 20
155.4891187492459039
 30
0.0
 40
0.0263768472842353
 50
71.7952178983941138
 51
113.1255070226798978
  0
ARC
  5
16EC8
  8
0
 10
4107.0568110799586066
 20
155.4894265215291114
 30
0.0
 40
0.026037809095091
 50
113.1029560609372027
 51
143.4523918570108094
  0
ARC
  5
16EC9
  8
0
 10
4107.0561448916023437
 20
155.4899228609627926
 30
0.0
 40
0.0252070531159873
 50
143.457009591348708
 51
172.3204855477958972
  0
ARC
  5
16ECA
  8
0
 10
4107.0556142751329389
 20
155.4900175872074044
 30
0.0
 40
0.0246685479734655
 50
172.373834812067912
 51
199.5862084408352928
  0
ARC
  5
16ECB
  8
0
 10
4105.728043671461819
 20
153.5418993390333071
 30
0.0
 40
0.0055536490145152
 50
147.0205677969003091
 51
198.1105088620604135
  0
ARC
  5
16ECC
  8
0
 10
4105.9023073252737959
 20
154.1022138619107125
 30
0.0
 40
0.0303413499797283
 50
95.9946704367432773
 51
134.9624914162320124
  0
ARC
  5
16ECD
  8
0
 10
4105.8929390713956309
 20
154.1113074879544058
 30
0.0
 40
0.0172881482044932
 50
134.2905711710284891
 51
168.982771638674194
  0
ARC
  5
16ECE
  8
0
 10
4105.8944503415423242
 20
154.1111739268937981
 30
0.0
 40
0.0187977509544567
 50
169.4634808610969117
 51
210.2687774155862996
  0
ARC
  5
16ECF
  8
0
 10
4106.2657702775159123
 20
153.4182533147553897
 30
0.0
 40
0.0153970909274458
 50
206.061139993202886
 51
234.5994113118470068
  0
ARC
  5
16ED0
  8
0
 10
4106.5750479633134091
 20
153.2285020232318118
 30
0.0
 40
0.0626911353957424
 50
246.5545510442757973
 51
257.8844800162390243
  0
ARC
  5
16ED1
  8
0
 10
4106.5747476206979627
 20
153.2284324673917126
 30
0.0
 40
0.0625607142494666
 50
258.140050727079597
 51
279.7895716459099731
  0
ARC
  5
16ED2
  8
0
 10
4106.5814888254562902
 20
153.1879112485055998
 30
0.0
 40
0.0214847398008582
 50
280.4477115299534944
 51
298.8488893509418176
  0
ARC
  5
16ED3
  8
0
 10
4106.5893011578600635
 20
153.174384726778186
 30
0.0
 40
0.0058759781698944
 50
295.7639684445732087
 51
347.9865708695741091
  0
ARC
  5
16ED4
  8
0
 10
4106.58995032394796
 20
153.1734007227076972
 30
0.0
 40
0.0051037217406178
 50
357.3156288790995063
 51
38.44026971127888
  0
ARC
  5
16ED5
  8
0
 10
4106.5825469895416973
 20
153.1673542704332078
 30
0.0
 40
0.0146621087246095
 50
38.9611120823358021
 51
61.3067360157117989
  0
ARC
  5
16ED6
  8
0
 10
4106.5640313079284169
 20
153.1287287230528023
 30
0.0
 40
0.0574804464527376
 50
63.6028598629371018
 51
93.7615058029429349
  0
ARC
  5
16ED7
  8
0
 10
4106.5620624413140831
 20
153.1435015737075105
 30
0.0
 40
0.0426218820701387
 50
92.4231870316205715
 51
105.0546562885648001
  0
ARC
  5
16ED8
  8
0
 10
4106.5551492016693373
 20
153.1682687716985072
 30
0.0
 40
0.016910829288605
 50
104.2315674357176931
 51
125.8840394919859023
  0
ARC
  5
16ED9
  8
0
 10
4106.5575783131507706
 20
153.187339767049906
 30
0.0
 40
0.0179799225706826
 50
223.2407887229433072
 51
245.438768726831313
  0
ARC
  5
16EDA
  8
0
 10
4106.5475416068256891
 20
153.1782039594882008
 30
0.0
 40
0.0044152529444778
 50
121.4645205217484971
 51
226.1039032619123077
  0
ARC
  5
16EDB
  8
0
 10
4107.0621257003849678
 20
153.2725320896412029
 30
0.0
 40
0.0287941911777782
 50
280.4963834982399931
 51
303.5125659595992147
  0
ARC
  5
16EDC
  8
0
 10
4106.1604719746237606
 20
153.7039115749639961
 30
0.0
 40
0.0147712068022436
 50
159.541118935680089
 51
201.6350630722295989
  0
ARC
  5
16EDD
  8
0
 10
4106.2753820935204203
 20
153.9192113414869993
 30
0.0
 40
0.0212861250537642
 50
32.9937433047895183
 51
59.4160262688818577
  0
ARC
  5
16EDE
  8
0
 10
4106.2598918385319848
 20
153.9292727567899988
 30
0.0
 40
0.0160949523322623
 50
201.4794844883867029
 51
223.8850227966464956
  0
ARC
  5
16EDF
  8
0
 10
4106.8179370626903619
 20
154.2840666358858925
 30
0.0
 40
0.0158276177047179
 50
185.4305673304268112
 51
227.9311570310478885
  0
ARC
  5
16EE0
  8
0
 10
4106.8266969176684142
 20
154.2927764958809007
 30
0.0
 40
0.0281704996279746
 50
226.5744510351906911
 51
259.0426582798245931
  0
ARC
  5
16EE1
  8
0
 10
4106.4860356659155514
 20
154.1145512524803109
 30
0.0
 40
0.0317397381031189
 50
232.1832979878442984
 51
255.1509696365644118
  0
ARC
  5
16EE2
  8
0
 10
4106.4871673178549827
 20
154.1178709759269054
 30
0.0
 40
0.0352394479318471
 50
254.755703568617605
 51
294.35868571227968
  0
ARC
  5
16EE3
  8
0
 10
4106.4942067366828269
 20
154.1023764307990973
 30
0.0
 40
0.0182208286457904
 50
294.2892228672675969
 51
331.2560349284291874
  0
ARC
  5
16EE4
  8
0
 10
4106.4995154788575746
 20
154.0990363254850877
 30
0.0
 40
0.0119658942454872
 50
333.0546742097349124
 51
23.0528735568418384
  0
ARC
  5
16EE5
  8
0
 10
4106.4921142421380864
 20
154.0950580302209119
 30
0.0
 40
0.0203482081272276
 50
25.2001852195403409
 51
65.5002049240264341
  0
ARC
  5
16EE6
  8
0
 10
4106.4852556371879473
 20
154.0829975898300859
 30
0.0
 40
0.0341894386054958
 50
63.4221673355223317
 51
85.5169023508437647
  0
ARC
  5
16EE7
  8
0
 10
4106.4846148027472736
 20
154.0811223629526978
 30
0.0
 40
0.0361123746671891
 50
84.7358018338351826
 51
104.4221061975706988
  0
ARC
  5
16EE8
  8
0
 10
4106.4822524628925748
 20
154.0900439752263935
 30
0.0
 40
0.026883615765738
 50
104.2817691747620046
 51
122.9041468472962038
  0
ARC
  5
16EE9
  8
0
 10
4106.4761397265201595
 20
154.099325021552886
 30
0.0
 40
0.0157710348872697
 50
122.5759299091755992
 51
172.3958834618076139
  0
ARC
  5
16EEA
  8
0
 10
4106.4755465681519127
 20
154.1015484007731118
 30
0.0
 40
0.0150398054581813
 50
180.5197746902244944
 51
233.3780954748013983
  0
ARC
  5
16EEB
  8
0
 10
4107.0653445167690734
 20
153.3067432537224022
 30
0.0
 40
0.0784188051510541
 50
284.4866699443924176
 51
296.6825810689712171
  0
ARC
  5
16EEC
  8
0
 10
4107.0572319587427046
 20
153.3396219860165957
 30
0.0
 40
0.1122821916877114
 50
269.8473624551987768
 51
284.2977906506864088
  0
ARC
  5
16EED
  8
0
 10
4107.0567302610243132
 20
153.3402061399247884
 30
0.0
 40
0.1128661289542686
 50
256.1554371193889779
 51
270.1028360802002908
  0
ARC
  5
16EEE
  8
0
 10
4107.0856565866888559
 20
153.2705003004234925
 30
0.0
 40
0.0369619036539559
 50
293.7760909948138988
 51
334.8160048694762168
  0
ARC
  5
16EEF
  8
0
 10
4107.092565811312852
 20
153.2658980844842063
 30
0.0
 40
0.0287771360330408
 50
337.255137324190116
 51
352.0102807893795216
  0
ARC
  5
16EF0
  8
0
 10
4107.0487151689148959
 20
153.3063433883673099
 30
0.0
 40
0.0780698802335527
 50
239.5202864564969047
 51
255.9200496237376115
  0
ARC
  5
16EF1
  8
0
 10
4107.0246548540453659
 20
153.2673212421036055
 30
0.0
 40
0.0322498213400248
 50
188.9413547070832067
 51
241.1942117856605137
  0
LINE
  5
16EF2
  8
0
 10
4106.9927969343980294
 20
153.2623088642068865
 30
0.0
 11
4106.9857723703353258
 21
153.322543657828902
 31
0.0
  0
ARC
  5
16EF3
  8
0
 10
4107.9178203888686767
 20
153.1701933853657067
 30
0.0
 40
0.8020169195523308
 50
173.2621752125371017
 51
173.4342834436477006
  0
LINE
  5
16EF4
  8
0
 10
4107.121342670597187
 20
153.2642911193723023
 30
0.0
 11
4107.1281266920059352
 21
153.3224632883859044
 31
0.0
  0
ARC
  5
16EF5
  8
0
 10
4107.0063485485188721
 20
153.3145380237727124
 30
0.0
 40
0.0278481596957769
 50
201.4299446726467124
 51
232.1768422531987994
  0
ARC
  5
16EF6
  8
0
 10
4106.9932810800637526
 20
153.3094607969451886
 30
0.0
 40
0.0138291621128545
 50
153.8232313738141102
 51
201.6294821399989985
  0
ARC
  5
16EF7
  8
0
 10
4107.0058226521332472
 20
153.3032547809594917
 30
0.0
 40
0.0278221956551929
 50
125.7180490086555977
 51
153.747249432595197
  0
ARC
  5
16EF8
  8
0
 10
4107.0382496942247599
 20
153.2590463374685044
 30
0.0
 40
0.0826474539309338
 50
103.0673997569496976
 51
126.0776760095388056
  0
ARC
  5
16EF9
  8
0
 10
4107.0569160066434051
 20
153.1905064607001066
 30
0.0
 40
0.1536563568999856
 50
74.764104705844673
 51
104.0691166390199953
  0
ARC
  5
16EFA
  8
0
 10
4107.0768393669814031
 20
153.2612965377379055
 30
0.0
 40
0.0801210708304828
 50
53.2957217412693893
 51
75.2074150808721669
  0
ARC
  5
16EFB
  8
0
 10
4107.1049743522498829
 20
153.3002290408878139
 30
0.0
 40
0.0320997289400151
 50
33.6113315468831715
 51
52.0235271604256511
  0
ARC
  5
16EFC
  8
0
 10
4107.1190192519215998
 20
153.3092951273000892
 30
0.0
 40
0.0153860171170335
 50
355.8962323013761875
 51
34.446623974538312
  0
ARC
  5
16EFD
  8
0
 10
4107.1143215355450593
 20
153.3108593081907998
 30
0.0
 40
0.0202207052908045
 50
325.6125045731726004
 51
352.425917072434288
  0
ARC
  5
16EFE
  8
0
 10
4107.1041715596084032
 20
153.3178311449429998
 30
0.0
 40
0.0325344475828195
 50
308.9793026445128135
 51
325.5757991683752834
  0
ARC
  5
16EFF
  8
0
 10
4107.0635526172527534
 20
153.6179871427152932
 30
0.0
 40
0.0710413595236083
 50
287.5252196283265107
 51
300.5185354345995279
  0
ARC
  5
16F00
  8
0
 10
4107.0570551808195887
 20
153.6394602297966117
 30
0.0
 40
0.0934746973392135
 50
269.9149759887367281
 51
287.3595739625417878
  0
ARC
  5
16F01
  8
0
 10
4107.0567688014189116
 20
153.6389484475693052
 30
0.0
 40
0.0929629294735566
 50
253.0755403993680943
 51
270.0910120176940268
  0
ARC
  5
16F02
  8
0
 10
4107.0766450275441457
 20
153.5973909509224029
 30
0.0
 40
0.0466571116746127
 50
299.512056094434115
 51
330.3197194561457195
  0
ARC
  5
16F03
  8
0
 10
4107.0844831570493625
 20
153.5910550060185926
 30
0.0
 40
0.036745909289382
 50
332.852060849292684
 51
346.5638236954338254
  0
ARC
  5
16F04
  8
0
 10
4107.0481138631648719
 20
153.6130557961932084
 30
0.0
 40
0.0656763567731855
 50
234.5459402194389043
 51
253.723274563062688
  0
ARC
  5
16F05
  8
0
 10
4107.0323571097887907
 20
153.5928165654813995
 30
0.0
 40
0.0400651385035411
 50
196.7738065541327046
 51
236.1126064827901985
  0
LINE
  5
16F06
  8
0
 10
4106.992492327565742
 20
153.590695068459695
 30
0.0
 11
4106.9855798723738189
 21
153.6499685415325871
 31
0.0
  0
LINE
  5
16F07
  8
0
 10
4107.1210060691446415
 20
153.587179039074698
 30
0.0
 11
4107.1283621250258875
 21
153.6502563349907007
 31
0.0
  0
ARC
  5
16F08
  8
0
 10
4107.0182194773142328
 20
153.6384687510368963
 30
0.0
 40
0.0393924744291291
 50
202.2719246250283049
 51
224.5426718194136981
  0
ARC
  5
16F09
  8
0
 10
4107.0082060710919905
 20
153.634106467671586
 30
0.0
 40
0.0284738216238683
 50
179.9369469638475039
 51
201.7855051750645998
  0
ARC
  5
16F0A
  8
0
 10
4107.0076755379477618
 20
153.6330010060084987
 30
0.0
 40
0.0279663854302214
 50
148.3420809607131901
 51
177.6703604172782036
  0
ARC
  5
16F0B
  8
0
 10
4107.0348391639581678
 20
153.6114106768391991
 30
0.0
 40
0.0625554692816647
 50
107.6326940630898008
 51
144.5649493560453891
  0
ARC
  5
16F0C
  8
0
 10
4107.0568269565319497
 20
153.554680126711105
 30
0.0
 40
0.123338747879302
 50
68.3720960314504254
 51
109.3844210398435024
  0
ARC
  5
16F0D
  8
0
 10
4107.0787247661955917
 20
153.6095317001941964
 30
0.0
 40
0.0642779990041248
 50
41.5027904785998913
 51
68.4960809711635221
  0
ARC
  5
16F0E
  8
0
 10
4107.1037584888599667
 20
153.6320771120778943
 30
0.0
 40
0.0305912251838495
 50
10.5355213913239396
 51
40.9483367753269292
  0
ARC
  5
16F0F
  8
0
 10
4107.1069766093905855
 20
153.6337317831747953
 30
0.0
 40
0.0271446754234688
 50
347.6244550646886751
 51
8.3432648684892143
  0
ARC
  5
16F10
  8
0
 10
4107.1037197903006017
 20
153.6345496642339867
 30
0.0
 40
0.0305012723761024
 50
329.6239078138444825
 51
347.4349540161475147
  0
ARC
  5
16F11
  8
0
 10
4107.0946828253481726
 20
153.6394234964824932
 30
0.0
 40
0.0407638890106961
 50
315.5206684490905218
 51
330.1369144067591037
  0
ARC
  5
16F12
  8
0
 10
4107.077951125378604
 20
153.5920105708729011
 30
0.0
 40
0.0433251876191584
 50
347.3419638144595751
 51
353.5971796003677241
  0
ARC
  5
16F13
  8
0
 10
4107.0507547726319899
 20
153.5951383097554128
 30
0.0
 40
0.0584316258388348
 50
184.3610793705323943
 51
193.7458958558285076
  0
ARC
  5
16F14
  8
0
 10
4107.0617130511536743
 20
154.5767811488279051
 30
0.0
 40
0.0670314494368018
 50
289.9515915377007786
 51
304.0747363556985192
  0
ARC
  5
16F15
  8
0
 10
4107.0570848308034329
 20
154.5898618937748097
 30
0.0
 40
0.0809064529767563
 50
269.7694173540980955
 51
289.8715317926100852
  0
ARC
  5
16F16
  8
0
 10
4107.0566458803950809
 20
154.5895339268724058
 30
0.0
 40
0.0805779106188853
 50
250.3495498354556901
 51
270.0805981973135204
  0
ARC
  5
16F17
  8
0
 10
4107.0703726131459916
 20
154.5644785132371055
 30
0.0
 40
0.0519901123813142
 50
303.7662319290596997
 51
329.8512875894631975
  0
ARC
  5
16F18
  8
0
 10
4107.077785411062905
 20
154.5590421587801018
 30
0.0
 40
0.042860852108156
 50
331.1586455980470873
 51
342.2133703976375045
  0
ARC
  5
16F19
  8
0
 10
4107.0512621989173567
 20
154.5748332248028021
 30
0.0
 40
0.0649230461402477
 50
231.1257125931298901
 51
250.4612583481425929
  0
ARC
  5
16F1A
  8
0
 10
4107.0398299327962377
 20
154.561166180689014
 30
0.0
 40
0.0471089700521103
 50
200.2547991426538943
 51
231.518170425024806
  0
LINE
  5
16F1B
  8
0
 10
4106.9935995534606263
 20
154.5538009908821948
 30
0.0
 11
4106.9887425852421075
 21
154.6201318400221112
 31
0.0
  0
LINE
  5
16F1C
  8
0
 10
4107.1205517724292804
 20
154.5568793475800931
 30
0.0
 11
4107.1251848762476584
 21
154.6203910079802029
 31
0.0
  0
ARC
  5
16F1D
  8
0
 10
4107.0276898375077508
 20
154.6025008253878923
 30
0.0
 40
0.0456451511950354
 50
199.1559311990037884
 51
218.824328723325408
  0
ARC
  5
16F1E
  8
0
 10
4107.0199846612067631
 20
154.5998991022775044
 30
0.0
 40
0.0375129546689027
 50
180.6686909448260963
 51
199.2639381946366086
  0
ARC
  5
16F1F
  8
0
 10
4107.0147508665513669
 20
154.6005506925214092
 30
0.0
 40
0.0322949843420562
 50
161.9569070738899086
 51
181.9330933008957913
  0
ARC
  5
16F20
  8
0
 10
4107.0364054674782892
 20
154.5908097232467071
 30
0.0
 40
0.0559601364827562
 50
113.1417144536945045
 51
159.3402014023409095
  0
ARC
  5
16F21
  8
0
 10
4107.0569606441022188
 20
154.549825912733013
 30
0.0
 40
0.1017629033102386
 50
65.4341877726594561
 51
114.7151956312704044
  0
ARC
  5
16F22
  8
0
 10
4107.075816581651452
 20
154.5884654078276128
 30
0.0
 40
0.0587917720131272
 50
28.6012226761717407
 51
66.4918988251303347
  0
ARC
  5
16F23
  8
0
 10
4107.0926467223862346
 20
154.5990943961218989
 30
0.0
 40
0.0389480387521927
 50
8.5847974826110853
 51
26.7249694957137898
  0
ARC
  5
16F24
  8
0
 10
4107.0904891613727159
 20
154.6001199903300005
 30
0.0
 40
0.0409501378397236
 50
351.9056689809868885
 51
6.714951799379917
  0
ARC
  5
16F25
  8
0
 10
4107.0902591324265813
 20
154.6008317517863873
 30
0.0
 40
0.0412835677337113
 50
335.4918789668018917
 51
350.9725952943591096
  0
ARC
  5
16F26
  8
0
 10
4107.0843229618940313
 20
154.6035883547880871
 30
0.0
 40
0.0478284261218371
 50
321.5705969777843052
 51
335.4370316794402811
  0
ARC
  5
16F27
  8
0
 10
4107.078669816241927
 20
154.5587278921555878
 30
0.0
 40
0.0419227309588966
 50
342.2531179877466911
 51
357.4727754794010934
  0
ARC
  5
16F28
  8
0
 10
4107.0329199256675565
 20
154.5580423091556099
 30
0.0
 40
0.0395484570006955
 50
186.1564445014741125
 51
199.4746465607153993
  0
ARC
  5
16F29
  8
0
 10
4107.0566681872178378
 20
155.5036751564701945
 30
0.0
 40
0.0667135839212521
 50
294.3088520086083122
 51
307.5914359816084129
  0
ARC
  5
16F2A
  8
0
 10
4107.0567427072555802
 20
155.5039887365171865
 30
0.0
 40
0.066968975058781
 50
270.0623209070137136
 51
294.1403070977829088
  0
ARC
  5
16F2B
  8
0
 10
4107.0570966109780784
 20
155.5037274757881107
 30
0.0
 40
0.0667082668129414
 50
246.3367160155391957
 51
269.7585955742595729
  0
ARC
  5
16F2C
  8
0
 10
4107.0566428347656256
 20
155.5021770317821961
 30
0.0
 40
0.0655486186953219
 50
308.4078559951936995
 51
327.7933583249180174
  0
ARC
  5
16F2D
  8
0
 10
4107.0580736846632135
 20
155.5005649258555138
 30
0.0
 40
0.0634815697820625
 50
328.3362071722668816
 51
336.328335612722924
  0
ARC
  5
16F2E
  8
0
 10
4107.0568012902285773
 20
155.5026950383451094
 30
0.0
 40
0.0656442642232215
 50
228.2806481592668035
 51
246.2111256232998926
  0
ARC
  5
16F2F
  8
0
 10
4107.053135950516662
 20
155.4986991380654899
 30
0.0
 40
0.0602224998530369
 50
203.9211216698365945
 51
228.3535799471403891
  0
LINE
  5
16F30
  8
0
 10
4106.9928761532100907
 20
155.493603406024306
 30
0.0
 11
4106.9851306369737358
 21
155.5710391219488997
 31
0.0
  0
LINE
  5
16F31
  8
0
 10
4107.1220963142022811
 20
155.5042372424152859
 30
0.0
 11
4107.1288176454017957
 21
155.5714375182982963
 31
0.0
  0
ARC
  5
16F32
  8
0
 10
4107.0562847380788298
 20
155.5443464473619031
 30
0.0
 40
0.0759405432471407
 50
202.7163264540496073
 51
211.9020498649975934
  0
ARC
  5
16F33
  8
0
 10
4107.0572905385442937
 20
155.5447587411190113
 30
0.0
 40
0.0770275373008337
 50
194.731087954081886
 51
202.7103032342544964
  0
ARC
  5
16F34
  8
0
 10
4107.0583141152819735
 20
155.5450183199403114
 30
0.0
 40
0.07808347595216
 50
183.9704539324229131
 51
194.7243141409190059
  0
ARC
  5
16F35
  8
0
 10
4107.0605300549514141
 20
155.5436658211606868
 30
0.0
 40
0.0802145237931135
 50
134.4090304011608055
 51
182.8970477681955913
  0
ARC
  5
16F36
  8
0
 10
4107.0570898190671869
 20
155.5473739611111057
 30
0.0
 40
0.0751582991479064
 50
35.7092759265827908
 51
134.5136928914614032
  0
ARC
  5
16F37
  8
0
 10
4107.0551498661297956
 20
155.5444281004766935
 30
0.0
 40
0.0784630508822479
 50
359.0959630661348001
 51
36.6291880557097116
  0
ARC
  5
16F38
  8
0
 10
4107.0584996156276247
 20
155.544365841193212
 30
0.0
 40
0.0751127366269057
 50
343.117548813555004
 51
359.1031333351817239
  0
ARC
  5
16F39
  8
0
 10
4107.0567559098835773
 20
155.544707958864791
 30
0.0
 40
0.076880855654514
 50
338.6402417152464182
 51
343.2509604437161101
  0
ARC
  5
16F3A
  8
0
 10
4107.0573585617603385
 20
155.5444689403352072
 30
0.0
 40
0.0762325428892928
 50
333.2518983831712944
 51
338.642572595578315
  0
ARC
  5
16F3B
  8
0
 10
4107.0620269300716245
 20
155.5419928107669136
 30
0.0
 40
0.0709493752700536
 50
327.8492980666140966
 51
333.3407955380316139
  0
ARC
  5
16F3C
  8
0
 10
4107.0510071054186483
 20
155.5022590598179022
 30
0.0
 40
0.070645460763555
 50
337.3710598724640022
 51
346.3981080074051988
  0
ARC
  5
16F3D
  8
0
 10
4107.0539496059209341
 20
155.4997067008634986
 30
0.0
 40
0.0613776574489214
 50
185.7068308414011142
 51
204.4729175316655869
  0
ARC
  5
16F3E
  8
0
 10
4106.910839097362441
 20
155.5223389468424955
 30
0.0
 40
0.2120313263887973
 50
350.0342906070453068
 51
355.1025383127943087
  0
ARC
  5
16F3F
  8
0
 10
4107.0568506880117639
 20
155.0538955319306922
 30
0.0
 40
0.136440235361655
 50
244.8287971491544113
 51
302.2372781609955723
  0
ARC
  5
16F40
  8
0
 10
4107.0808635333505663
 20
155.0159313784282062
 30
0.0
 40
0.0915193236307267
 50
302.1996636627425801
 51
351.4988942241122913
  0
ARC
  5
16F41
  8
0
 10
4105.9402015932810173
 20
155.1370251894581997
 30
0.0
 40
1.2385140503031351
 50
353.7597812807695732
 51
356.0296335661366243
  0
ARC
  5
16F42
  8
0
 10
4107.0936643730292417
 20
155.0509211133604026
 30
0.0
 40
0.0820795715545941
 50
0.2434238788085686
 51
6.4245063438994814
  0
ARC
  5
16F43
  8
0
 10
4107.0357854898757068
 20
155.0172580152334945
 30
0.0
 40
0.0943864888955015
 50
189.1440939521860116
 51
246.9429891083065058
  0
ARC
  5
16F44
  8
0
 10
4109.5657858668373592
 20
155.2745978750249094
 30
0.0
 40
2.6372866522673428
 50
184.9211879900782094
 51
185.927218427830411
  0
ARC
  5
16F45
  8
0
 10
4107.0127052026628007
 20
155.0512572671092073
 30
0.0
 40
0.0745404357814119
 50
173.1078081450806962
 51
182.229652745267714
  0
ARC
  5
16F46
  8
0
 10
4107.0140247147101036
 20
155.0362393866541026
 30
0.0
 40
0.079097534824377
 50
173.6202219542020941
 51
205.4427993706821951
  0
ARC
  5
16F47
  8
0
 10
4107.0177267130093242
 20
155.0351441766271989
 30
0.0
 40
0.0829010700527722
 50
141.9964170240207864
 51
173.1522715892890005
  0
ARC
  5
16F48
  8
0
 10
4107.0452863489172159
 20
155.0129182757517015
 30
0.0
 40
0.1183032782162645
 50
108.9011700116680004
 51
141.7326453492804887
  0
ARC
  5
16F49
  8
0
 10
4107.0568157672923917
 20
154.9844567895964929
 30
0.0
 40
0.1489744511610169
 50
66.5423345701614863
 51
109.5503974493536958
  0
ARC
  5
16F4A
  8
0
 10
4107.0770934401689374
 20
155.0241719510075882
 30
0.0
 40
0.1045069214765546
 50
20.1108328823845106
 51
68.0734161594159701
  0
ARC
  5
16F4B
  8
0
 10
4107.0971070347568457
 20
155.0369773968955087
 30
0.0
 40
0.0819238718237967
 50
335.0365271096047763
 51
353.5043947351630891
  0
ARC
  5
16F4C
  8
0
 10
4107.1028664548121014
 20
155.0362822859401035
 30
0.0
 40
0.0761227983849988
 50
353.5338264499471848
 51
9.6679075269410966
  0
ARC
  5
16F4D
  8
0
 10
4107.1050414035407812
 20
155.0372233870689911
 30
0.0
 40
0.0738228359412109
 50
9.2313456161228888
 51
18.0566643396462396
  0
ARC
  5
16F4E
  8
0
 10
4106.6444573485723595
 20
155.1978775730443942
 30
0.0
 40
0.0584870681791714
 50
187.4249037680129106
 51
240.6335368697361048
  0
ARC
  5
16F4F
  8
0
 10
4106.6530249417146479
 20
155.2092728902186138
 30
0.0
 40
0.0726438838910178
 50
239.151779227626605
 51
294.6143919522668284
  0
ARC
  5
16F50
  8
0
 10
4106.662555543623057
 20
155.1910974262256957
 30
0.0
 40
0.0521618940548916
 50
293.4122749383653854
 51
353.1993110353092789
  0
LINE
  5
16F51
  8
0
 10
4106.7143504309860873
 20
155.1849206281567035
 30
0.0
 11
4106.7237680097987322
 21
155.253923748208706
 31
0.0
  0
LINE
  5
16F52
  8
0
 10
4106.5864606893510427
 20
155.1903194870857021
 30
0.0
 11
4106.5783278801736742
 21
155.2636031828693888
 31
0.0
  0
ARC
  5
16F53
  8
0
 10
4106.6327402411689036
 20
155.2399441330780121
 30
0.0
 40
0.0593334278977885
 50
150.6087827582088892
 51
216.1651049830788054
  0
ARC
  5
16F54
  8
0
 10
4106.6414465570323955
 20
155.2312379640652864
 30
0.0
 40
0.0712689096473814
 50
94.0947586785000283
 51
147.944545749250608
  0
ARC
  5
16F55
  8
0
 10
4106.6451826333122881
 20
155.212061411515208
 30
0.0
 40
0.0906939277987969
 50
47.279332997177498
 51
95.5840938253950867
  0
ARC
  5
16F56
  8
0
 10
4106.662834158674741
 20
155.2302183578902088
 30
0.0
 40
0.0653825645175194
 50
0.9366397915911386
 51
47.8488808725201977
  0
ARC
  5
16F57
  8
0
 10
4106.6705184638067294
 20
155.2325573788484974
 30
0.0
 40
0.0577035057141548
 50
322.0271523919993797
 51
358.7386429427261874
  0
ARC
  5
16F58
  8
0
 10
4106.1276999362880815
 20
155.3233288204004907
 30
0.0
 40
0.0713148454364259
 50
184.7509154769003885
 51
235.8705366523288092
  0
ARC
  5
16F59
  8
0
 10
4106.1281869950125838
 20
155.3205393162490111
 30
0.0
 40
0.0693069979502805
 50
234.2431613570732907
 51
287.0528394841174986
  0
ARC
  5
16F5A
  8
0
 10
4106.1330070103813341
 20
155.303732191572692
 30
0.0
 40
0.0518263087699614
 50
287.4073272415899964
 51
354.5833344683612722
  0
LINE
  5
16F5B
  8
0
 10
4106.1846018913265652
 20
155.2988398975417113
 30
0.0
 11
4106.1936514129747593
 21
155.3683214235792889
 31
0.0
  0
LINE
  5
16F5C
  8
0
 10
4106.056630115876942
 20
155.3174222303204033
 30
0.0
 11
4106.0512580551521751
 21
155.3992519349033046
 31
0.0
  0
ARC
  5
16F5D
  8
0
 10
4106.1249922681327007
 20
155.3711214772027915
 30
0.0
 40
0.0795031437827838
 50
170.2990966591436859
 51
209.2983744874219099
  0
ARC
  5
16F5E
  8
0
 10
4106.103076440548648
 20
155.3748659175830937
 30
0.0
 40
0.0572697381326114
 50
89.2041475873091514
 51
170.2970688798149865
  0
ARC
  5
16F5F
  8
0
 10
4106.1032452771105454
 20
155.3368037238132047
 30
0.0
 40
0.0953284667615743
 50
38.0218405404676432
 51
89.6233713711090729
  0
ARC
  5
16F60
  8
0
 10
4106.1141716372367227
 20
155.3414987277542139
 30
0.0
 40
0.0838837991670754
 50
2.9838853874925761
 51
40.0929942407930824
  0
ARC
  5
16F61
  8
0
 10
4106.1375236871972447
 20
155.3437085417089065
 30
0.0
 40
0.0604565039580466
 50
322.8113287386220804
 51
2.0444405524287239
  0
LINE
  5
16F62
  8
0
 10
4106.0299782042102379
 20
154.8795188853243019
 30
0.0
 11
4106.0402700470422133
 21
154.9454279316991858
 31
0.0
  0
LINE
  5
16F63
  8
0
 10
4105.9025438524104175
 20
154.8963453742242962
 30
0.0
 11
4105.8958799494557752
 21
154.9712779681917993
 31
0.0
  0
ARC
  5
16F64
  8
0
 10
4105.9559277309836034
 20
154.9018371066277098
 30
0.0
 40
0.053665609251292
 50
185.8734982824906012
 51
206.5829402228339973
  0
ARC
  5
16F65
  8
0
 10
4105.9718954538038815
 20
154.9124335534206125
 30
0.0
 40
0.0727245396935215
 50
208.4195900426840922
 51
253.4486103969832982
  0
ARC
  5
16F66
  8
0
 10
4105.9745030462909199
 20
154.9149714939997864
 30
0.0
 40
0.0759209466496452
 50
252.1077672548701969
 51
283.1664519714523749
  0
ARC
  5
16F67
  8
0
 10
4105.9824519520134345
 20
154.8885030589304961
 30
0.0
 40
0.0483679648451561
 50
281.1392726952873886
 51
349.2953498503006813
  0
ARC
  5
16F68
  8
0
 10
4105.9416910683548849
 20
154.9484134426074036
 30
0.0
 40
0.0514645910846018
 50
162.7038883345830982
 51
199.2618267127467959
  0
ARC
  5
16F69
  8
0
 10
4105.9353140277080456
 20
154.9494225429409084
 30
0.0
 40
0.0450855424776067
 50
124.2068239354816939
 51
161.5187750719921098
  0
ARC
  5
16F6A
  8
0
 10
4105.9486950183700174
 20
154.9307849061588911
 30
0.0
 40
0.0680242183697398
 50
96.1775275246486387
 51
124.7025316191168969
  0
ARC
  5
16F6B
  8
0
 10
4105.9522195950376044
 20
154.9024795299156949
 30
0.0
 40
0.0965455971731615
 50
76.5523276208355554
 51
96.4494422783530041
  0
ARC
  5
16F6C
  8
0
 10
4105.951197209563361
 20
154.8946490271038101
 30
0.0
 40
0.10440244500204
 50
47.7112536379197465
 51
77.0060151041705154
  0
ARC
  5
16F6D
  8
0
 10
4105.9799780440916948
 20
154.922450586474298
 30
0.0
 40
0.0645219653546265
 50
1.651808641124856
 51
50.0066891270667497
  0
ARC
  5
16F6E
  8
0
 10
4105.9976853474991003
 20
154.9254712294548995
 30
0.0
 40
0.0468022469618373
 50
317.5541698099846144
 51
358.5788345299242224
  0
ARC
  5
16F6F
  8
0
 10
4105.9594357570549619
 20
154.9534785543459918
 30
0.0
 40
0.0698950793734626
 50
198.3829129995158951
 51
213.0548852958758062
  0
ARC
  5
16F70
  8
0
 10
4106.7969226057266496
 20
154.7488416649248109
 30
0.0
 40
0.048058459721713
 50
184.2893215127155884
 51
233.8399798038830113
  0
ARC
  5
16F71
  8
0
 10
4106.8145037039230374
 20
154.7733202076497037
 30
0.0
 40
0.0781957455384715
 50
234.0223464879908022
 51
289.4800103671954048
  0
ARC
  5
16F72
  8
0
 10
4106.8257899635409558
 20
154.749416056531004
 30
0.0
 40
0.0519647716656679
 50
286.5362335070749964
 51
351.1431475276411902
  0
LINE
  5
16F73
  8
0
 10
4106.8771351120922191
 20
154.7414152306675987
 30
0.0
 11
4106.8859607890672123
 21
154.8057894565864103
 31
0.0
  0
ARC
  5
16F74
  8
0
 10
4106.7876441613680072
 20
154.7919667483321859
 30
0.0
 40
0.051514053174791
 50
193.3722862983767072
 51
218.5911977818464891
  0
ARC
  5
16F75
  8
0
 10
4106.7784647617299925
 20
154.7893838412882985
 30
0.0
 40
0.0419879690790864
 50
171.9973061349566876
 51
192.8402417666318058
  0
ARC
  5
16F76
  8
0
 10
4106.7786830458908298
 20
154.7891392617999884
 30
0.0
 40
0.0422387088223796
 50
153.7873067379046859
 51
171.709992253526309
  0
ARC
  5
16F77
  8
0
 10
4106.7934407875663965
 20
154.779931531092501
 30
0.0
 40
0.0595713522124276
 50
115.9570186643114056
 51
152.1113702121099038
  0
ARC
  5
16F78
  8
0
 10
4106.8118684413930168
 20
154.7426226127103064
 30
0.0
 40
0.1011826519159207
 50
66.548681310473512
 51
116.0922008039054987
  0
ARC
  5
16F79
  8
0
 10
4106.8242683409325764
 20
154.7688247439033091
 30
0.0
 40
0.0722162926440615
 50
35.4573258379838592
 51
67.3008333162879637
  0
ARC
  5
16F7A
  8
0
 10
4106.8437169476637791
 20
154.7844947381632039
 30
0.0
 40
0.047307580461676
 50
10.2799036255766207
 51
33.6622637583783728
  0
ARC
  5
16F7B
  8
0
 10
4106.8512356335213553
 20
154.78615638669541
 30
0.0
 40
0.039614139024471
 50
345.6589342388635941
 51
9.8558131085868315
  0
ARC
  5
16F7C
  8
0
 10
4106.8431502385219574
 20
154.788046758761709
 30
0.0
 40
0.0479161193760956
 50
318.7959492155030148
 51
345.8636885381114894
  0
LINE
  5
16F7D
  8
0
 10
4106.7489987534099782
 20
154.7452472345217984
 30
0.0
 11
4106.7418451779585666
 21
154.8097080163377939
 31
0.0
  0
ARC
  5
16F7E
  8
0
 10
4106.4409749407614072
 20
154.9383373819684095
 30
0.0
 40
0.1411406747812634
 50
237.7268972786031043
 51
288.3056454303567762
  0
ARC
  5
16F7F
  8
0
 10
4106.4537526440108195
 20
154.9005545187179109
 30
0.0
 40
0.101256877350082
 50
288.156254527768283
 51
319.5777060296853165
  0
ARC
  5
16F80
  8
0
 10
4106.4715359976871696
 20
154.8842055604270058
 30
0.0
 40
0.0771231597638521
 50
320.2576506446163194
 51
353.9173753899510189
  0
ARC
  5
16F81
  8
0
 10
4106.425821925998207
 20
154.9136464952919141
 30
0.0
 40
0.1121737999547493
 50
214.3723368066661124
 51
237.5370056111576105
  0
ARC
  5
16F82
  8
0
 10
4106.4005699951831048
 20
154.8970270348283123
 30
0.0
 40
0.0819501528488706
 50
185.4242785783013971
 51
214.7491649014594941
  0
LINE
  5
16F83
  8
0
 10
4106.3189868153103816
 20
154.8892802733242888
 30
0.0
 11
4106.3134047737257788
 21
154.9475418414529884
 31
0.0
  0
LINE
  5
16F84
  8
0
 10
4106.5482249636088454
 20
154.8760333956242903
 30
0.0
 11
4106.5534723790960925
 21
154.9307972837785883
 31
0.0
  0
ARC
  5
16F85
  8
0
 10
4106.3883778790323049
 20
154.9200074476358111
 30
0.0
 40
0.0798693267911483
 50
159.8338897706343005
 51
212.6414558655127109
  0
ARC
  5
16F86
  8
0
 10
4106.4836510494087634
 20
154.9039787020622043
 30
0.0
 40
0.0747947485080835
 50
325.4631452089909089
 51
21.0119319966333613
  0
ARC
  5
16F87
  8
0
 10
4106.4029261677133036
 20
154.9082178752574066
 30
0.0
 40
0.0977775757271917
 50
104.3414948530109001
 51
156.2856084636894991
  0
ARC
  5
16F88
  8
0
 10
4106.4224991015262276
 20
154.8504368541564986
 30
0.0
 40
0.1586743397603358
 50
68.2626138648249139
 51
106.0210127499499038
  0
ARC
  5
16F89
  8
0
 10
4106.4388963106630399
 20
154.8780524582768976
 30
0.0
 40
0.127048267623691
 50
37.0780206976288724
 51
70.5197492408977809
  0
ARC
  5
16F8A
  8
0
 10
4106.464067344913019
 20
154.8968519432116011
 30
0.0
 40
0.0956323495659839
 50
20.7907889505629093
 51
37.1841560311489729
  0
ARC
  5
16F8B
  8
0
 10
4106.738963430190779
 20
154.5379004533373006
 30
0.0
 40
0.093170956821592
 50
291.7176606468257205
 51
301.8962871431937174
  0
ARC
  5
16F8C
  8
0
 10
4106.7467791523704363
 20
154.5268202184527979
 30
0.0
 40
0.0800475694997635
 50
269.1506787639474965
 51
289.4545919040797912
  0
ARC
  5
16F8D
  8
0
 10
4106.7463165726103398
 20
154.5287411238230106
 30
0.0
 40
0.0819628777504384
 50
250.1571126493402062
 51
269.4939137893424004
  0
ARC
  5
16F8E
  8
0
 10
4106.7612354049342684
 20
154.4994162966694944
 30
0.0
 40
0.0487503810684642
 50
303.5717212966526972
 51
331.3961753569384996
  0
ARC
  5
16F8F
  8
0
 10
4106.7670555431886896
 20
154.4957133675978866
 30
0.0
 40
0.0418703834170767
 50
332.0319460495005046
 51
343.2130847627216212
  0
ARC
  5
16F90
  8
0
 10
4106.7411620105485781
 20
154.5148839882432128
 30
0.0
 40
0.0671789632989123
 50
231.7524032724064966
 51
250.2806313340211943
  0
ARC
  5
16F91
  8
0
 10
4106.7293382720417867
 20
154.5005018863149076
 30
0.0
 40
0.0485659708412009
 50
201.8099942567442042
 51
232.203415787110913
  0
LINE
  5
16F92
  8
0
 10
4106.6816765463099728
 20
154.4944001763242909
 30
0.0
 11
4106.6777696685712726
 21
154.5599517339460931
 31
0.0
  0
LINE
  5
16F93
  8
0
 10
4106.808887912928185
 20
154.4945633470767063
 30
0.0
 11
4106.8141801879091872
 21
154.5561624846243092
 31
0.0
  0
ARC
  5
16F94
  8
0
 10
4106.7180108377297074
 20
154.5424958598707121
 30
0.0
 40
0.0473405277119893
 50
200.6727055139720903
 51
217.660445643954688
  0
ARC
  5
16F95
  8
0
 10
4106.7090576085829525
 20
154.5392235519138069
 30
0.0
 40
0.0378086860755872
 50
183.1509933252712017
 51
200.8229430056586864
  0
ARC
  5
16F96
  8
0
 10
4106.7017495215841336
 20
154.5398219010646983
 30
0.0
 40
0.0305608750084678
 50
163.8029115058957927
 51
185.0245450781216903
  0
ARC
  5
16F97
  8
0
 10
4106.7170038539052257
 20
154.5347597381559126
 30
0.0
 40
0.0466257219863361
 50
123.2735414779206025
 51
163.0580186158560139
  0
ARC
  5
16F98
  8
0
 10
4106.7432381398512007
 20
154.4928125642940984
 30
0.0
 40
0.0960952770271285
 50
79.9576674761822517
 51
122.6294077787269003
  0
ARC
  5
16F99
  8
0
 10
4106.7514073638440095
 20
154.5099778028379092
 30
0.0
 40
0.0779323570345555
 50
36.3435253501192008
 51
83.6736611246141848
  0
ARC
  5
16F9A
  8
0
 10
4106.780690508868247
 20
154.5349125893905011
 30
0.0
 40
0.0396625345855306
 50
11.0367069358522496
 51
32.3959733351400629
  0
ARC
  5
16F9B
  8
0
 10
4106.7909601158971782
 20
154.5362904102902064
 30
0.0
 40
0.0293255207935711
 50
351.5062421249517115
 51
12.23574213984406
  0
ARC
  5
16F9C
  8
0
 10
4106.7806917481893834
 20
154.5367713717859885
 30
0.0
 40
0.0395659995980464
 50
335.7106155993279231
 51
353.0138495510400958
  0
ARC
  5
16F9D
  8
0
 10
4106.7748163913329336
 20
154.5394884462463096
 30
0.0
 40
0.0460389620613467
 50
320.2615416505385042
 51
335.6362486793985909
  0
ARC
  5
16F9E
  8
0
 10
4106.7583158863726567
 20
154.4970231152707925
 30
0.0
 40
0.0506318114369815
 50
344.6506083235618121
 51
357.2153903050900112
  0
ARC
  5
16F9F
  8
0
 10
4106.8733851536362636
 20
154.5294422346055967
 30
0.0
 40
0.1948849300783218
 50
190.3586329704046136
 51
193.9506533585413024
  0
ARC
  5
16FA0
  8
0
 10
4106.4120389808203981
 20
154.5790917259249113
 30
0.0
 40
0.0618470439036841
 50
289.7020636500266164
 51
305.088855611261522
  0
ARC
  5
16FA1
  8
0
 10
4106.4068634824061519
 20
154.5938533647135955
 30
0.0
 40
0.0774893941279845
 50
268.6297751591071119
 51
289.6251196317351173
  0
ARC
  5
16FA2
  8
0
 10
4106.4057640275041194
 20
154.598459246180596
 30
0.0
 40
0.0820765766369697
 50
250.1638252641446911
 51
269.4739759539152146
  0
ARC
  5
16FA3
  8
0
 10
4106.4204589584660425
 20
154.5676397368114863
 30
0.0
 40
0.0476371170014863
 50
304.7200732794203759
 51
332.9444762536055009
  0
ARC
  5
16FA4
  8
0
 10
4106.4263857406358511
 20
154.5640865572729012
 30
0.0
 40
0.0407454422009301
 50
333.6033217112303078
 51
344.544865711316902
  0
ARC
  5
16FA5
  8
0
 10
4106.3994147508883543
 20
154.5819175066258993
 30
0.0
 40
0.0643628043176731
 50
231.1683238817554127
 51
250.4837767410922993
  0
ARC
  5
16FA6
  8
0
 10
4106.3911626634571803
 20
154.5745137386354884
 30
0.0
 40
0.0534508315495977
 50
205.5205181206852956
 51
233.0830336010849919
  0
LINE
  5
16FA7
  8
0
 10
4106.3390626905638783
 20
154.5661153955485929
 30
0.0
 11
4106.3331305950805472
 21
154.6328190990948031
 31
0.0
  0
LINE
  5
16FA8
  8
0
 10
4106.4669497545746708
 20
154.5596437727004115
 30
0.0
 11
4106.4767854497567896
 21
154.6226344948063058
 31
0.0
  0
ARC
  5
16FA9
  8
0
 10
4106.3706279228872518
 20
154.6111375841838935
 30
0.0
 40
0.042569580763187
 50
204.6905103852606089
 51
218.7495869935150949
  0
ARC
  5
16FAA
  8
0
 10
4106.3748531642577291
 20
154.6145682114884892
 30
0.0
 40
0.0478606703863627
 50
193.9704612963199963
 51
206.3092991489085932
  0
ARC
  5
16FAB
  8
0
 10
4106.3637633730522793
 20
154.6126135974758995
 30
0.0
 40
0.0366353410002458
 50
151.1638092033848864
 51
195.1912439541285096
  0
ARC
  5
16FAC
  8
0
 10
4106.378836653981125
 20
154.6048201481048068
 30
0.0
 40
0.0536002339249472
 50
115.086635939284406
 51
151.6372205124320089
  0
ARC
  5
16FAD
  8
0
 10
4106.398728684960588
 20
154.5615472301736872
 30
0.0
 40
0.1012256482074776
 50
77.86770252230869
 51
114.8989229488665984
  0
ARC
  5
16FAE
  8
0
 10
4106.4061218257666042
 20
154.5772978960582122
 30
0.0
 40
0.0843639748755337
 50
36.1665171099979901
 51
80.5293661680753274
  0
ARC
  5
16FAF
  8
0
 10
4106.4356910455326215
 20
154.6019853679385108
 30
0.0
 40
0.0459906131610637
 50
14.5175433932218905
 51
33.0747416613585798
  0
ARC
  5
16FB0
  8
0
 10
4106.4427948461689084
 20
154.6042180636547982
 30
0.0
 40
0.0385558251661844
 50
355.8141035609203868
 51
13.9518666727530505
  0
ARC
  5
16FB1
  8
0
 10
4106.43969733952963
 20
154.60484560844111
 30
0.0
 40
0.041692792006106
 50
330.9666010207432123
 51
355.2647089554582749
  0
ARC
  5
16FB2
  8
0
 10
4106.4300069082037226
 20
154.6105701468378015
 30
0.0
 40
0.0529445861696396
 50
318.0343103486221139
 51
330.6395401076650273
  0
ARC
  5
16FB3
  8
0
 10
4106.4102845186725972
 20
154.567717806245895
 30
0.0
 40
0.0572375661390425
 50
345.3364677568424099
 51
351.8907078823817187
  0
ARC
  5
16FB4
  8
0
 10
4106.3827392951498041
 20
154.5698263979959961
 30
0.0
 40
0.0438339745772318
 50
184.8564976538546887
 51
204.7350179871731939
  0
ARC
  5
16FB5
  8
0
 10
4106.0213515947925771
 20
154.6144960583621071
 30
0.0
 40
0.1505643735255506
 50
237.5951939070725132
 51
285.3823241959958068
  0
ARC
  5
16FB6
  8
0
 10
4106.0348679280059514
 20
154.5615242322124061
 30
0.0
 40
0.0959102317738127
 50
285.9911326196987034
 51
319.6582122931292815
  0
ARC
  5
16FB7
  8
0
 10
4106.0563022196001839
 20
154.541085501616891
 30
0.0
 40
0.0663640169818771
 50
321.1286063563587732
 51
353.297068749358175
  0
ARC
  5
16FB8
  8
0
 10
4106.0020993492917114
 20
154.5850298887957877
 30
0.0
 40
0.1153702867292997
 50
215.5643937466460898
 51
237.8253768174689924
  0
ARC
  5
16FB9
  8
0
 10
4105.9789406790459907
 20
154.5683286741713118
 30
0.0
 40
0.0868179383619252
 50
188.0707619160837965
 51
215.4876278078149028
  0
LINE
  5
16FBA
  8
0
 10
4105.89298263496039
 20
154.5561397825742915
 30
0.0
 11
4105.888900641732107
 21
154.5998949952019075
 31
0.0
  0
ARC
  5
16FBB
  8
0
 10
4105.9541231242337744
 20
154.5904654105387124
 30
0.0
 40
0.0683641456466323
 50
166.7481231321137898
 51
205.758342660225594
  0
ARC
  5
16FBC
  8
0
 10
4106.0655040642323002
 20
154.5637001290691899
 30
0.0
 40
0.0643244464423815
 50
331.83620528435398
 51
25.9046148944818206
  0
ARC
  5
16FBD
  8
0
 10
4105.9505212135136389
 20
154.5895072729286142
 30
0.0
 40
0.0651015324495312
 50
128.7423422621805003
 51
165.2004587592871871
  0
ARC
  5
16FBE
  8
0
 10
4105.9794922433411557
 20
154.5515040614668862
 30
0.0
 40
0.1128796916107627
 50
96.4616705581676825
 51
128.1400027603910132
  0
ARC
  5
16FBF
  8
0
 10
4105.9887451663626052
 20
154.4975208512991003
 30
0.0
 40
0.1675903015360684
 50
45.1890521208976921
 51
97.5280396757293033
  0
ARC
  5
16FC0
  8
0
 10
4106.0340275226171798
 20
154.5497280682617998
 30
0.0
 40
0.098749427855986
 50
25.2181441290004216
 51
42.4789473413245204
  0
ARC
  5
16FC1
  8
0
 10
4105.9532068974949652
 20
154.6047409932409096
 30
0.0
 40
0.0644885898992943
 50
174.5970444538723996
 51
184.3095563325391026
  0
LINE
  5
16FC2
  8
0
 10
4106.1260037523588835
 20
154.5731657355694892
 30
0.0
 11
4106.1222126172469871
 21
154.5333393908543087
 31
0.0
  0
ARC
  5
16FC3
  8
0
 10
4106.0633385439386984
 20
154.5791628357123102
 30
0.0
 40
0.0629515175083676
 50
354.5334058440876106
 51
5.959517142197809
  0
LINE
  5
16FC4
  8
0
 10
4105.5648651642086406
 20
154.3956507519243075
 30
0.0
 11
4105.5592164621202755
 21
154.4686500531306876
 31
0.0
  0
LINE
  5
16FC5
  8
0
 10
4105.6921206306342356
 20
154.3735797189943071
 30
0.0
 11
4105.7023779578012181
 21
154.4362575830591879
 31
0.0
  0
ARC
  5
16FC6
  8
0
 10
4105.6702947772319021
 20
154.4182031109824038
 30
0.0
 40
0.0365882725689916
 50
312.4881216659940151
 51
354.2782509790990275
  0
ARC
  5
16FC7
  8
0
 10
4105.6572566378317788
 20
154.4159883653539111
 30
0.0
 40
0.049464883524502
 50
358.3398922549018266
 51
42.5104380054251081
  0
ARC
  5
16FC8
  8
0
 10
4105.6059498440799871
 20
154.3675816649300998
 30
0.0
 40
0.1199997822445061
 50
42.9945685089044289
 51
91.7292032939194684
  0
ARC
  5
16FC9
  8
0
 10
4105.6039116573801948
 20
154.4213009110798112
 30
0.0
 40
0.0662448033141592
 50
91.36918900000326
 51
123.9710435213863065
  0
ARC
  5
16FCA
  8
0
 10
4105.5859521462161865
 20
154.4492760157071132
 30
0.0
 40
0.0330174216159126
 50
125.2510761503803991
 51
181.4204672762843984
  0
ARC
  5
16FCB
  8
0
 10
4105.6058161882820059
 20
154.45131011447981
 30
0.0
 40
0.052948214300443
 50
183.0882968856388118
 51
215.9717368290860975
  0
ARC
  5
16FCC
  8
0
 10
4105.6074457760241785
 20
154.3992085379838102
 30
0.0
 40
0.0427289871642945
 50
184.7762050446681883
 51
198.6594244329779997
  0
ARC
  5
16FCD
  8
0
 10
4105.6552202480770575
 20
154.3798225474417904
 30
0.0
 40
0.037424739678057
 50
303.4973111118620182
 51
350.3975909475533967
  0
ARC
  5
16FCE
  8
0
 10
4105.6470844667655911
 20
154.3895841533376938
 30
0.0
 40
0.05007467145828
 50
281.7637678327777735
 51
305.0961060426604945
  0
ARC
  5
16FCF
  8
0
 10
4105.6272797103029006
 20
154.4077955256097994
 30
0.0
 40
0.0642926518462951
 50
200.2547559526381065
 51
233.7595782414362873
  0
ARC
  5
16FD0
  8
0
 10
4105.6433153107927865
 20
154.4317562738019092
 30
0.0
 40
0.0931060254021685
 50
234.517494262328114
 51
261.9215025674341177
  0
ARC
  5
16FD1
  8
0
 10
4105.6410683083213371
 20
154.4139324158435045
 30
0.0
 40
0.0751437945140774
 50
261.7079486680048035
 51
282.4696512120922876
  0
ARC
  5
16FD2
  8
0
 10
4105.9319847051219767
 20
154.1971502164996934
 30
0.0
 40
0.1623970205536159
 50
239.5639325978409886
 51
283.9627116362461834
  0
ARC
  5
16FD3
  8
0
 10
4105.9506797127805839
 20
154.1235948795165882
 30
0.0
 40
0.0865049996038172
 50
283.7014630179980941
 51
323.5230860343153267
  0
ARC
  5
16FD4
  8
0
 10
4105.9748422455249965
 20
154.1033339894653977
 30
0.0
 40
0.0550646489014073
 50
325.5286913992413247
 51
349.8947535783236162
  0
ARC
  5
16FD5
  8
0
 10
4105.9102391605520097
 20
154.1617435959103091
 30
0.0
 40
0.1208565594535551
 50
222.620948957385707
 51
239.9492365893786996
  0
ARC
  5
16FD6
  8
0
 10
4105.87633462240683
 20
154.1337411651570903
 30
0.0
 40
0.0769821725032604
 50
179.6763302152048141
 51
224.3722843262964943
  0
LINE
  5
16FD7
  8
0
 10
4105.7993536782432784
 20
154.134176043099103
 30
0.0
 11
4105.7952493756693002
 21
154.1770114676623109
 31
0.0
  0
ARC
  5
16FD8
  8
0
 10
4105.8484392623986423
 20
154.1531992656844068
 30
0.0
 40
0.058374704041764
 50
157.2865687762025004
 51
215.044569884362005
  0
ARC
  5
16FD9
  8
0
 10
4105.9855342923092394
 20
154.1237957953109117
 30
0.0
 40
0.0542718778553126
 50
322.151732451933924
 51
22.2841974409068193
  0
ARC
  5
16FDA
  8
0
 10
4105.8514372374565937
 20
154.1471617079247096
 30
0.0
 40
0.0636245547632346
 50
119.6022179319288057
 51
153.3104716981875981
  0
ARC
  5
16FDB
  8
0
 10
4105.8849143303168603
 20
154.0899280200071075
 30
0.0
 40
0.1299274125858984
 50
93.7130359434315494
 51
119.9706535440653994
  0
ARC
  5
16FDC
  8
0
 10
4105.8921107321948512
 20
154.028506475297803
 30
0.0
 40
0.1917128321555214
 50
54.6497439919022128
 51
94.670539338494109
  0
ARC
  5
16FDD
  8
0
 10
4105.9456352459592381
 20
154.1050289601045904
 30
0.0
 40
0.0983328530475681
 50
23.5868519442075488
 51
54.2898589500889699
  0
LINE
  5
16FDE
  8
0
 10
4106.0344332144768487
 20
154.1472695895454876
 30
0.0
 11
4106.0290526830258386
 21
154.093672518318499
 31
0.0
  0
ARC
  5
16FDF
  8
0
 10
4106.2004250581394444
 20
153.8125809711455076
 30
0.0
 40
0.1773154089387916
 50
242.4168305346510124
 51
282.1076048936650977
  0
ARC
  5
16FE0
  8
0
 10
4106.2172326502432043
 20
153.7352997790954134
 30
0.0
 40
0.0982281967506538
 50
281.9768818627958922
 51
309.9376715808546123
  0
ARC
  5
16FE1
  8
0
 10
4106.2442236031138236
 20
153.7029636398906973
 30
0.0
 40
0.0561077688426126
 50
310.0021894016438182
 51
355.474907425376216
  0
ARC
  5
16FE2
  8
0
 10
4106.1710971819338738
 20
153.7568611308263939
 30
0.0
 40
0.1143490174530214
 50
224.2837469387280009
 51
242.5141285650543921
  0
ARC
  5
16FE3
  8
0
 10
4106.1357937654520356
 20
153.7241433499235939
 30
0.0
 40
0.0662430336778235
 50
180.8178876075234029
 51
225.3450096073920861
  0
LINE
  5
16FE4
  8
0
 10
4106.069557480858748
 20
153.7231977738832995
 30
0.0
 11
4106.0661531105597533
 21
153.7613489402621099
 31
0.0
  0
ARC
  5
16FE5
  8
0
 10
4106.1073856010279997
 20
153.7458018269198874
 30
0.0
 40
0.04406621158392
 50
158.2615605415126936
 51
210.8578601417146956
  0
ARC
  5
16FE6
  8
0
 10
4106.1206385084769863
 20
153.735744308414894
 30
0.0
 40
0.060264954586822
 50
118.3987044511453064
 51
154.0424041375160868
  0
ARC
  5
16FE7
  8
0
 10
4106.1580892036863588
 20
153.6701084984763099
 30
0.0
 40
0.1358248014211458
 50
95.5136709390127834
 51
119.1273100908361045
  0
ARC
  5
16FE8
  8
0
 10
4106.1682648781243188
 20
153.609563786500587
 30
0.0
 40
0.1971142565144728
 50
59.4953295392491484
 51
96.7669379690957072
  0
ARC
  5
16FE9
  8
0
 10
4106.223613487683906
 20
153.7026606431568894
 30
0.0
 40
0.0888087573707437
 50
25.5002259796629112
 51
59.7733433493310926
  0
LINE
  5
16FEA
  8
0
 10
4106.3037708144129283
 20
153.7408941148466965
 30
0.0
 11
4106.3001564771457197
 21
153.6985369789672973
 31
0.0
  0
ARC
  5
16FEB
  8
0
 10
4106.2629907379960059
 20
153.7235717085459896
 30
0.0
 40
0.0443066630733638
 50
327.2308929700300268
 51
23.0146305919279612
  0
ARC
  5
16FEC
  8
0
 10
4106.2099355949239907
 20
154.2783689689136111
 30
0.0
 40
0.0618470439036841
 50
289.7020636500266164
 51
305.088855611261522
  0
ARC
  5
16FED
  8
0
 10
4106.2047600965097445
 20
154.2931306077022953
 30
0.0
 40
0.0774893941279845
 50
268.6297751591071119
 51
289.6251196317351173
  0
ARC
  5
16FEE
  8
0
 10
4106.2036606416068025
 20
154.2977364891692957
 30
0.0
 40
0.0820765766369697
 50
250.1638252641446911
 51
269.4739759539152146
  0
ARC
  5
16FEF
  8
0
 10
4106.2183555725687256
 20
154.266916979800186
 30
0.0
 40
0.0476371170014863
 50
304.7200732794203759
 51
332.9444762536055009
  0
ARC
  5
16FF0
  8
0
 10
4106.2242823547403532
 20
154.263363800261601
 30
0.0
 40
0.0407454422009301
 50
333.6033217112303078
 51
344.544865711316902
  0
ARC
  5
16FF1
  8
0
 10
4106.1973113649919469
 20
154.281194749614599
 30
0.0
 40
0.0643628043176731
 50
231.1683238817549011
 51
250.4837767410922993
  0
ARC
  5
16FF2
  8
0
 10
4106.1890592775607729
 20
154.2737909816241881
 30
0.0
 40
0.0534508315495977
 50
205.5205181206852956
 51
233.0830336010849919
  0
LINE
  5
16FF3
  8
0
 10
4106.1369593046683804
 20
154.2653926385372927
 30
0.0
 11
4106.1310825985246993
 21
154.3314735142513996
 31
0.0
  0
LINE
  5
16FF4
  8
0
 10
4106.2648463686782634
 20
154.2589210156889976
 30
0.0
 11
4106.2745356475361405
 21
154.3183900214891082
 31
0.0
  0
ARC
  5
16FF5
  8
0
 10
4106.1758049082736761
 20
154.3175054629458032
 30
0.0
 40
0.0516115295835355
 50
208.4223813264067076
 51
218.032894368907904
  0
ARC
  5
16FF6
  8
0
 10
4106.1705212808037686
 20
154.3148234654146052
 30
0.0
 40
0.0456884985336042
 50
195.825796514522608
 51
208.6181639606122928
  0
ARC
  5
16FF7
  8
0
 10
4106.1587867487442054
 20
154.3123356261068011
 30
0.0
 40
0.0337299394032277
 50
149.4629330161172902
 51
197.1961125966784039
  0
ARC
  5
16FF8
  8
0
 10
4106.1748943079983292
 20
154.3005000108614979
 30
0.0
 40
0.0536546717370931
 50
111.7341390737002058
 51
147.3161974846779003
  0
ARC
  5
16FF9
  8
0
 10
4106.194295858364967
 20
154.2525876281621038
 30
0.0
 40
0.1053458367243871
 50
77.5610991163905652
 51
111.8866248750033066
  0
ARC
  5
16FFA
  8
0
 10
4106.2013824341029249
 20
154.2659717403643072
 30
0.0
 40
0.0908392253614879
 50
41.1993488224138673
 51
80.1084250009314758
  0
ARC
  5
16FFB
  8
0
 10
4106.2323199768916311
 20
154.2963075970372984
 30
0.0
 40
0.0476423794282048
 50
19.7837232593197996
 51
38.2547443872151405
  0
ARC
  5
16FFC
  8
0
 10
4106.2428173196485659
 20
154.3005623388812921
 30
0.0
 40
0.0363273109995579
 50
0.1871739187371732
 51
19.0730586807560414
  0
ARC
  5
16FFD
  8
0
 10
4106.2430414479622414
 20
154.3011805972454056
 30
0.0
 40
0.0361064452427366
 50
330.8616981684568827
 51
359.2072053877266171
  0
ARC
  5
16FFE
  8
0
 10
4106.2353061347603216
 20
154.3052303264497027
 30
0.0
 40
0.0448353084482476
 50
315.4703971187599905
 51
331.1546623624133758
  0
ARC
  5
16FFF
  8
0
 10
4106.2081811327770993
 20
154.2669950492345947
 30
0.0
 40
0.0572375661390425
 50
345.3364677568424099
 51
351.8907078823817187
  0
ARC
  5
17000
  8
0
 10
4106.1806359092533967
 20
154.2691036409846959
 30
0.0
 40
0.0438339745772318
 50
184.8564976538546887
 51
204.7350179871725118
  0
LINE
  5
17001
  8
0
 10
4105.6805018950099111
 20
153.8467563994242937
 30
0.0
 11
4105.6750211042735828
 21
153.9156531279951139
 31
0.0
  0
LINE
  5
17002
  8
0
 10
4105.8081113830094182
 20
153.8271891490230132
 30
0.0
 11
4105.8174405826493967
 21
153.8862830045754038
 31
0.0
  0
ARC
  5
17003
  8
0
 10
4105.7962594634636844
 20
153.8703267931834091
 30
0.0
 40
0.0262767400766536
 50
305.5782104795343912
 51
27.5384646007132403
  0
ARC
  5
17004
  8
0
 10
4105.7622312511039127
 20
153.8530701638117932
 30
0.0
 40
0.0644295202618948
 50
27.1549381553968487
 51
57.2654756738958426
  0
ARC
  5
17005
  8
0
 10
4105.7217026130883823
 20
153.7942428364069087
 30
0.0
 40
0.1358490998923752
 50
56.3032392720965333
 51
92.3244975087120139
  0
ARC
  5
17006
  8
0
 10
4105.7180197113748363
 20
153.8558020461339879
 30
0.0
 40
0.0742006021272358
 50
91.4109067608058012
 51
121.6967367430300015
  0
ARC
  5
17007
  8
0
 10
4105.691516088832941
 20
153.8995818739562083
 30
0.0
 40
0.0230297573140847
 50
122.8227521808013023
 51
183.5359290262915124
  0
ARC
  5
17008
  8
0
 10
4105.7103452745031973
 20
153.9033883258454978
 30
0.0
 40
0.0421405049766702
 50
187.1248969632221133
 51
220.2047208450871096
  0
ARC
  5
17009
  8
0
 10
4105.709476538081617
 20
153.8488968361934042
 30
0.0
 40
0.0290535954873521
 50
184.2249229595346947
 51
204.9085678167934077
  0
ARC
  5
1700A
  8
0
 10
4105.7728167534778549
 20
153.8346415619627976
 30
0.0
 40
0.0365152046901542
 50
294.0507708227202102
 51
330.1598709287457041
  0
ARC
  5
1700B
  8
0
 10
4105.7612394014768142
 20
153.8582078357624994
 30
0.0
 40
0.0627613325439143
 50
276.2983455440485159
 51
294.9344348730296019
  0
ARC
  5
1700C
  8
0
 10
4105.7308895600135656
 20
153.8564287827259136
 30
0.0
 40
0.0516933342585573
 50
202.4835755675948974
 51
236.045715990782611
  0
ARC
  5
1700D
  8
0
 10
4105.7588318880561928
 20
153.8932729168597859
 30
0.0
 40
0.0978961067943152
 50
234.5243588240224142
 51
259.0593957015507272
  0
ARC
  5
1700E
  8
0
 10
4105.7585674959782409
 20
153.8882081982455077
 30
0.0
 40
0.0928759133098852
 50
258.6265371834447819
 51
275.9063415109673087
  0
ARC
  5
1700F
  8
0
 10
4105.7786646846052463
 20
153.8311676868605957
 30
0.0
 40
0.029714252643501
 50
330.359396248619305
 51
352.3053732620467144
  0
LINE
  5
17010
  8
0
 10
4105.6843081383103709
 20
153.5571359718242945
 30
0.0
 11
4105.6810336429152812
 21
153.6237303190033003
 31
0.0
  0
LINE
  5
17011
  8
0
 10
4105.8119844073416971
 20
153.5305039185712985
 30
0.0
 11
4105.8195732292433604
 21
153.5855687830901957
 31
0.0
  0
ARC
  5
17012
  8
0
 10
4105.8097885417600992
 20
153.5723007368852109
 30
0.0
 40
0.0156784791984831
 50
292.3322372660824158
 51
34.3051316777170214
  0
ARC
  5
17013
  8
0
 10
4105.761374309859093
 20
153.5406376734098046
 30
0.0
 40
0.0735249538217665
 50
33.4236972777341919
 51
59.6324258145314587
  0
ARC
  5
17014
  8
0
 10
4105.7074116045432675
 20
153.4523210998403044
 30
0.0
 40
0.1770154069208322
 50
59.0138783306822319
 51
85.8238047774102739
  0
ARC
  5
17015
  8
0
 10
4105.7112772970967853
 20
153.5299113022977906
 30
0.0
 40
0.0993659199237122
 50
84.7887334899082958
 51
102.7173515000175001
  0
ARC
  5
17016
  8
0
 10
4105.6812435951242151
 20
153.6146937979850975
 30
0.0
 40
0.0076355185907208
 50
127.3629387945968006
 51
185.1447757335733968
  0
ARC
  5
17017
  8
0
 10
4105.6959900047340852
 20
153.6162644087991964
 30
0.0
 40
0.0224646628594727
 50
185.761835383169597
 51
214.4305818667046992
  0
ARC
  5
17018
  8
0
 10
4105.7166131600351946
 20
153.5598524277828005
 30
0.0
 40
0.0324190308557023
 50
184.8065646780135012
 51
207.8733573802823003
  0
ARC
  5
17019
  8
0
 10
4105.7860456954440451
 20
153.5341439322619976
 30
0.0
 40
0.0261928706829012
 50
289.7079359408925257
 51
352.0117721111137143
  0
ARC
  5
1701A
  8
0
 10
4105.774060385509074
 20
153.5620873198976142
 30
0.0
 40
0.056571782448395
 50
270.01008171523182
 51
291.5921092137166966
  0
ARC
  5
1701B
  8
0
 10
4105.7427665781160613
 20
153.5807773390394004
 30
0.0
 40
0.0656212366516523
 50
213.3562850169016087
 51
238.9086005815591136
  0
ARC
  5
1701C
  8
0
 10
4105.7730285468378497
 20
153.6247333110082138
 30
0.0
 40
0.118933599887786
 50
237.3593098372105032
 51
257.6395949297673837
  0
ARC
  5
1701D
  8
0
 10
4105.772919044923583
 20
153.612473328927706
 30
0.0
 40
0.1069639866991235
 50
256.2910063482622718
 51
270.6167086217594147
  0
LINE
  5
1701E
  8
0
 10
4106.2127424797108688
 20
153.4243024119444101
 30
0.0
 11
4106.2067518778530939
 21
153.4878946291144075
 31
0.0
  0
LINE
  5
1701F
  8
0
 10
4106.3407455586102515
 20
153.4119764968243089
 30
0.0
 11
4106.3490486985101597
 21
153.4712124831243045
 31
0.0
  0
ARC
  5
17020
  8
0
 10
4106.3339598887941975
 20
153.456916182233698
 30
0.0
 40
0.0207859663668903
 50
300.5864912774594018
 51
43.4551221515121995
  0
ARC
  5
17021
  8
0
 10
4106.2984940596588785
 20
153.4289606967124939
 30
0.0
 40
0.0658861515367277
 50
39.8876894031758269
 51
62.2217823661882576
  0
ARC
  5
17022
  8
0
 10
4106.2399813463507598
 20
153.4268734864276951
 30
0.0
 40
0.0273599393256209
 50
185.3921682347520061
 51
200.6651196130742107
  0
ARC
  5
17023
  8
0
 10
4106.3025012021316797
 20
153.4270669396067035
 30
0.0
 40
0.0432334891121373
 50
290.7225013610323003
 51
315.9918205311872725
  0
ARC
  5
17024
  8
0
 10
4106.2909532586481873
 20
153.4549626690049138
 30
0.0
 40
0.0734165504946183
 50
276.5916864871164762
 51
291.4484406119618143
  0
ARC
  5
17025
  8
0
 10
4106.2558131305549978
 20
153.4346460796026008
 30
0.0
 40
0.0449476896393641
 50
202.8140088153890019
 51
241.0537666125219971
  0
ARC
  5
17026
  8
0
 10
4106.2849157009040937
 20
153.4826888515081862
 30
0.0
 40
0.1010982593425726
 50
239.7984908811201024
 51
263.2616101905259143
  0
ARC
  5
17027
  8
0
 10
4106.2872491427760906
 20
153.4876768597750925
 30
0.0
 40
0.10633971547918
 50
262.3283417270675955
 51
276.5508826882100948
  0
ARC
  5
17028
  8
0
 10
4106.2337900864513358
 20
153.4807519799232978
 30
0.0
 40
0.0346882124575425
 50
200.4825988313926075
 51
226.2060180929071862
  0
ARC
  5
17029
  8
0
 10
4106.2164754834384439
 20
153.474603734351092
 30
0.0
 40
0.0163195961845944
 50
134.5709606234298974
 51
201.5332173690709112
  0
ARC
  5
1702A
  8
0
 10
4106.2356946121672081
 20
153.4561045673889907
 30
0.0
 40
0.0429917421614079
 50
110.9166226577075065
 51
135.5156179721668082
  0
ARC
  5
1702B
  8
0
 10
4106.254400671447911
 20
153.4121693008835052
 30
0.0
 40
0.0907275689252599
 50
103.2367309247223943
 51
112.0458824685686068
  0
ARC
  5
1702C
  8
0
 10
4106.2541608423080106
 20
153.4156707575338885
 30
0.0
 40
0.0872660734176284
 50
96.210639285821955
 51
103.6098514219525981
  0
ARC
  5
1702D
  8
0
 10
4106.2603626624477329
 20
153.3836473443882937
 30
0.0
 40
0.1198029265653191
 50
90.5628847949231925
 51
97.5025033349722747
  0
ARC
  5
1702E
  8
0
 10
4106.2622744576137848
 20
153.3690164303964139
 30
0.0
 40
0.1344635394557515
 50
84.855889020115697
 51
91.3162491728603243
  0
ARC
  5
1702F
  8
0
 10
4106.2615424397727111
 20
153.3481077569014985
 30
0.0
 40
0.1553578573244458
 50
74.9667408747498314
 51
85.2783979758169153
  0
ARC
  5
17030
  8
0
 10
4106.2704822907799098
 20
153.3795916351880066
 30
0.0
 40
0.1226335770379911
 50
61.3923711987326826
 51
75.1852137425842386
  0
ARC
  5
17031
  8
0
 10
4106.311793395138011
 20
153.4166416412460876
 30
0.0
 40
0.0293256089819529
 50
318.0289561876800803
 51
350.8464472909591905
  0
LINE
  5
17032
  8
0
 10
4106.5047989111089919
 20
153.1888255898242903
 30
0.0
 11
4106.5003437773802943
 21
153.248478424137204
 31
0.0
  0
LINE
  5
17033
  8
0
 10
4106.6333012651357421
 20
153.1790601270824084
 30
0.0
 11
4106.6393593166103528
 21
153.2347516665242892
 31
0.0
  0
ARC
  5
17034
  8
0
 10
4106.6292321742048443
 20
153.2316275053117067
 30
0.0
 40
0.0190447251047214
 50
294.5154855707672823
 51
324.647670438433579
  0
ARC
  5
17035
  8
0
 10
4106.5852919194330752
 20
153.1618371618476999
 30
0.0
 40
0.0908356439520541
 50
54.4807232067617804
 51
72.9476395914631439
  0
ARC
  5
17036
  8
0
 10
4106.5521429364816868
 20
153.0617322362843993
 30
0.0
 40
0.1962743698601707
 50
72.2656067771498414
 51
93.5957179335281069
  0
ARC
  5
17037
  8
0
 10
4106.544053952889044
 20
153.1465456152758122
 30
0.0
 40
0.1111547647143038
 50
92.1760437145225779
 51
111.222045574977102
  0
ARC
  5
17038
  8
0
 10
4106.5153867612862086
 20
153.2218699964253972
 30
0.0
 40
0.030566317902579
 50
112.240035526134406
 51
130.717629148616993
  0
ARC
  5
17039
  8
0
 10
4106.5008496015580022
 20
153.2385715542453966
 30
0.0
 40
0.0084254973090973
 50
129.8794775190033874
 51
155.2284016750076034
  0
ARC
  5
1703A
  8
0
 10
4106.526802474762917
 20
153.1909150640767905
 30
0.0
 40
0.0221025499916611
 50
185.4245820557675017
 51
220.3206684838716001
  0
ARC
  5
1703B
  8
0
 10
4106.6026866762031204
 20
153.1917015741892101
 30
0.0
 40
0.0352995954857052
 50
287.2561988501175279
 51
315.7023612843951241
  0
ARC
  5
1703C
  8
0
 10
4106.5884432106122404
 20
153.2328847449670093
 30
0.0
 40
0.0788664468183434
 50
275.6171255199888037
 51
288.2628472062564242
  0
ARC
  5
1703D
  8
0
 10
4106.5442717138312219
 20
153.2072634086634082
 30
0.0
 40
0.0460147922273558
 50
221.7662269909183976
 51
246.6231502995468077
  0
ARC
  5
1703E
  8
0
 10
4106.5766597740248471
 20
153.2789492284445885
 30
0.0
 40
0.1246737561761993
 50
246.0320466940437996
 51
262.562079924699276
  0
ARC
  5
1703F
  8
0
 10
4106.5821040468208594
 20
153.2994424948230119
 30
0.0
 40
0.1457252241272169
 50
261.4825211529525859
 51
275.536141854882203
  0
ARC
  5
17040
  8
0
 10
4106.6124260939477608
 20
153.1811609818383033
 30
0.0
 40
0.0209806187436121
 50
317.7298093626620812
 51
354.2531639929388234
  0
ARC
  5
17041
  8
0
 10
4105.6956864236799447
 20
153.5971078851324876
 30
0.0
 40
0.0303884512496965
 50
101.9336756700142956
 51
128.8847598699842081
  0
ARC
  5
17042
  8
0
 10
4105.7173955845591991
 20
153.6292874994825866
 30
0.0
 40
0.0475030978686108
 50
212.7884605510064944
 51
222.4284794066093127
  0
ARC
  5
17043
  8
0
 10
4106.6391989165967971
 20
153.2247532414710918
 30
0.0
 40
0.0069401335698812
 50
323.3260596850489037
 51
36.3330071107132113
  0
ARC
  5
17044
  8
0
 10
4106.6209099783300189
 20
153.212336459900996
 30
0.0
 40
0.0290420765337543
 50
34.6894281028938067
 51
53.7928357339162417
  0
ARC
  5
17045
  8
0
 10
4106.4973593643599088
 20
153.2406921358355874
 30
0.0
 40
0.0043923601826686
 50
161.2797374284373007
 51
202.539236450808005
  0
ARC
  5
17046
  8
0
 10
4106.510084553510751
 20
153.2455374471535947
 30
0.0
 40
0.0180073500173839
 50
201.2582780556631121
 51
223.4764933006536864
  0
ARC
  5
17047
  8
0
 10
4106.5212489202258439
 20
153.2580448151128962
 30
0.0
 40
0.0347426197414226
 50
225.776579532715914
 51
235.9148037299164002
  0
LINE
  5
17048
  8
0
 10
4106.2059544733119765
 20
153.9354296029005127
 30
0.0
 11
4106.2006705147769026
 21
154.001852205636709
 31
0.0
  0
LINE
  5
17049
  8
0
 10
4106.3333098020602847
 20
153.9250485878743007
 30
0.0
 11
4106.3434840114487088
 21
153.9892922730082887
 31
0.0
  0
ARC
  5
1704A
  8
0
 10
4106.3149204082837969
 20
153.9726515475074109
 30
0.0
 40
0.0333436698300031
 50
311.1785249400880957
 51
17.1320420889883387
  0
ARC
  5
1704B
  8
0
 10
4106.2948252454825706
 20
153.961530546677011
 30
0.0
 40
0.0560213258874045
 50
21.9528488517755207
 51
62.6391997917740611
  0
ARC
  5
1704C
  8
0
 10
4106.2634961987796487
 20
153.9060442560661102
 30
0.0
 40
0.1197214973175826
 50
61.5273046429216492
 51
106.5564347899325952
  0
ARC
  5
1704D
  8
0
 10
4106.247235093247582
 20
153.9620093567050958
 30
0.0
 40
0.0614440378543815
 50
106.8929539994464051
 51
136.5612039499710022
  0
ARC
  5
1704E
  8
0
 10
4106.2233965460090985
 20
153.9835365226419128
 30
0.0
 40
0.0290541743148619
 50
163.198419737436609
 51
186.6006671532967118
  0
ARC
  5
1704F
  8
0
 10
4106.2312611760326035
 20
153.9839262721102102
 30
0.0
 40
0.0369150928502859
 50
185.7984195533707066
 51
222.5904006456837863
  0
ARC
  5
17050
  8
0
 10
4106.2453484167181159
 20
153.9392319911831919
 30
0.0
 40
0.0395770253262678
 50
185.513233006116792
 51
208.4661877858063121
  0
ARC
  5
17051
  8
0
 10
4106.2939879012146775
 20
153.9336837094413966
 30
0.0
 40
0.0402588774121068
 50
301.8250065579401848
 51
347.6143989021484799
  0
ARC
  5
17052
  8
0
 10
4106.2821153407239763
 20
153.9499611430277923
 30
0.0
 40
0.0603686637922759
 50
286.2057264393632181
 51
303.2527362254476202
  0
ARC
  5
17053
  8
0
 10
4106.2650926747128324
 20
153.9550822486565949
 30
0.0
 40
0.0646474617245724
 50
212.4781419847375901
 51
238.389953710112394
  0
ARC
  5
17054
  8
0
 10
4106.2745334556420858
 20
153.97614576293401
 30
0.0
 40
0.0875855290996679
 50
240.352865862615289
 51
267.2509477305592895
  0
ARC
  5
17055
  8
0
 10
4106.2750202831693969
 20
153.9731004539939079
 30
0.0
 40
0.0845694377712802
 50
266.8225435340823992
 51
286.4464146068032733
  0
ARC
  5
17056
  8
0
 10
4106.2284099972057447
 20
153.9813573169415974
 30
0.0
 40
0.034489409215276
 50
138.3971844895569063
 51
162.1401394699178127
  0
ARC
  5
17057
  8
0
 10
4106.5523282517351618
 20
153.7341244345784048
 30
0.0
 40
0.039876889619608
 50
192.0977400208577137
 51
222.3583937157941932
  0
ARC
  5
17058
  8
0
 10
4106.5415803616197081
 20
153.7301083402313111
 30
0.0
 40
0.0285750977578403
 50
136.5450348897425101
 51
188.7385650659406906
  0
ARC
  5
17059
  8
0
 10
4106.5700679049314203
 20
153.7013824007229914
 30
0.0
 40
0.0690233750118229
 50
103.6899890686617027
 51
135.4996303100190005
  0
ARC
  5
1705A
  8
0
 10
4106.5850809327348543
 20
153.6498282227879031
 30
0.0
 40
0.1226892218355852
 50
64.9160724031568606
 51
104.8039789802979982
  0
ARC
  5
1705B
  8
0
 10
4106.6121376846867861
 20
153.706068862438002
 30
0.0
 40
0.0602858129567474
 50
30.6152464344964805
 51
65.5452606549134771
  0
ARC
  5
1705C
  8
0
 10
4106.6372506894003891
 20
153.723501905440088
 30
0.0
 40
0.0298773843600353
 50
309.4665687934380003
 51
26.3661848876539509
  0
ARC
  5
1705D
  8
0
 10
8908.6049611237613135
 20
606.103882602457702
 30
0.0
 40
4823.344814469938683
 50
185.3813789161455929
 51
185.3821573011599924
  0
LINE
  5
1705E
  8
0
 10
4106.6618186039404463
 20
153.7402183207964015
 30
0.0
 11
4106.6529431507087793
 21
153.6768993551243057
 31
0.0
  0
ARC
  5
1705F
  8
0
 10
4106.5621549756251625
 20
153.6865054071880081
 30
0.0
 40
0.0371783232334204
 50
186.2627321691215911
 51
223.212632568927404
  0
ARC
  5
17060
  8
0
 10
4106.5804534756416615
 20
153.7036545497851137
 30
0.0
 40
0.0622567529719561
 50
223.1845376014190947
 51
247.2699354719671874
  0
ARC
  5
17061
  8
0
 10
4106.5913188430504306
 20
153.7282160116203045
 30
0.0
 40
0.0891105137624521
 50
246.9283797715823141
 51
262.1562896361114099
  0
ARC
  5
17062
  8
0
 10
4106.5923397855412986
 20
153.7309248597339035
 30
0.0
 40
0.0919355869479787
 50
261.7563618627515893
 51
284.9233014929033061
  0
ARC
  5
17063
  8
0
 10
4106.6028747100872351
 20
153.6969880624361906
 30
0.0
 40
0.0564487846754521
 50
283.4615400716623981
 51
317.8646887991603762
  0
ARC
  5
17064
  8
0
 10
4106.618392936865348
 20
153.6820624110731899
 30
0.0
 40
0.0349338578378396
 50
318.9429309858473971
 51
351.5008242036253137
  0
LINE
  5
17065
  8
0
 10
4106.6168503563094418
 20
153.4721969358305103
 30
0.0
 11
4106.6123349131030409
 21
153.5192592919975993
 31
0.0
  0
ARC
  5
17066
  8
0
 10
4106.6463498594475823
 20
153.4986098559429877
 30
0.0
 40
0.0397921573208359
 50
148.7393399282792075
 51
222.2445908009422908
  0
ARC
  5
17067
  8
0
 10
4106.6809240604261504
 20
153.4713415088272086
 30
0.0
 40
0.0836694990692566
 50
113.4193552996678989
 51
145.0610615392793079
  0
ARC
  5
17068
  8
0
 10
4106.7180096539186707
 20
153.3918386502450062
 30
0.0
 40
0.1713801559449382
 50
95.3275987686992465
 51
114.232267290167897
  0
ARC
  5
17069
  8
0
 10
4106.7247787745518508
 20
153.3486022226659884
 30
0.0
 40
0.2150755884182627
 50
72.3924357208227747
 51
96.0536515470728176
  0
ARC
  5
1706A
  8
0
 10
4106.7827794103568522
 20
153.469845767021809
 30
0.0
 40
0.0795256665289428
 50
31.244521728930831
 51
61.3868658008681365
  0
LINE
  5
1706B
  8
0
 10
4106.8507707910102908
 20
153.5110950554243061
 30
0.0
 11
4106.8463720246099911
 21
153.4651839470242862
 31
0.0
  0
ARC
  5
1706C
  8
0
 10
4106.8174629120985628
 20
153.4907315580501859
 30
0.0
 40
0.0390395545936519
 50
333.0406142496279926
 51
31.4404387368938885
  0
ARC
  5
1706D
  8
0
 10
4106.7412206441622402
 20
153.4039243403599926
 30
0.0
 40
0.1573752665706396
 50
59.5975258335003275
 51
72.0053800337827568
  0
ARC
  5
1706E
  8
0
 10
4106.8063220519989045
 20
153.4952706264905942
 30
0.0
 40
0.0510374390407227
 50
321.2656782169536882
 51
334.1689313498483784
  0
ARC
  5
1706F
  8
0
 10
4106.7965515239438901
 20
153.4706590724219097
 30
0.0
 40
0.0501204477694738
 50
317.7958647337637217
 51
353.7285304005214925
  0
ARC
  5
17070
  8
0
 10
4106.761349812500157
 20
153.5070255944997086
 30
0.0
 40
0.1006802227756863
 50
283.9512317076150225
 51
315.9225942075423745
  0
ARC
  5
17071
  8
0
 10
4106.7376737027052513
 20
153.5920719684376934
 30
0.0
 40
0.1889422415695936
 50
254.803230855527687
 51
284.701287349126801
  0
ARC
  5
17072
  8
0
 10
4106.7137994869963222
 20
153.5223587468728965
 30
0.0
 40
0.1155068718558729
 50
224.6280354617541946
 51
257.1675747948909816
  0
ARC
  5
17073
  8
0
 10
4106.6696448290012995
 20
153.4783232261987962
 30
0.0
 40
0.0531487326335352
 50
186.6190204527269998
 51
224.2824213054261122
  0
LINE
  5
17074
  8
0
 10
4106.5541382990586499
 20
153.9714781309743046
 30
0.0
 11
4106.557625975128758
 21
153.9068245809893938
 31
0.0
  0
LINE
  5
17075
  8
0
 10
4106.6902216999087614
 20
153.9663770606242963
 30
0.0
 11
4106.6845625414089227
 21
153.9027583594742907
 31
0.0
  0
ARC
  5
17076
  8
0
 10
4106.5795721787580987
 20
153.9517566216327111
 30
0.0
 40
0.0321841601908195
 50
142.2098889392364924
 51
223.9656613610198121
  0
ARC
  5
17077
  8
0
 10
4106.6640751275108414
 20
153.9475087537921922
 30
0.0
 40
0.0322437009882065
 50
314.0177736663810037
 51
35.8155712247423921
  0
ARC
  5
17078
  8
0
 10
4106.6313932756302165
 20
153.9198344321312106
 30
0.0
 40
0.0750133306165337
 50
38.3495949909839098
 51
78.9678237037472144
  0
ARC
  5
17079
  8
0
 10
4106.6189804481382453
 20
153.8867959960934968
 30
0.0
 40
0.1099728360633362
 50
75.9126976379056941
 51
113.1832384433100032
  0
ARC
  5
1707A
  8
0
 10
4106.5977305701771911
 20
153.9365897313253129
 30
0.0
 40
0.0558344564872097
 50
113.2535184110643058
 51
141.3285064965959918
  0
ARC
  5
1707B
  8
0
 10
4106.6013563043006798
 20
153.9114284337360914
 30
0.0
 40
0.0439720041567536
 50
186.0098614782449999
 51
240.8827699704872032
  0
ARC
  5
1707C
  8
0
 10
4106.6234601579963055
 20
153.9472354127514961
 30
0.0
 40
0.0860302981910478
 50
239.626008457753187
 51
288.1383033225473014
  0
ARC
  5
1707D
  8
0
 10
4106.6351170294301482
 20
153.9163354014804099
 30
0.0
 40
0.0530568928501789
 50
286.5635364098350237
 51
325.9993115437274014
  0
ARC
  5
1707E
  8
0
 10
4106.648866590839134
 20
153.9058965044258969
 30
0.0
 40
0.035833627236441
 50
327.5430716983610182
 51
354.9758619743632266
  0
LINE
  5
1707F
  8
0
 10
4106.826941899387748
 20
153.8500521350418069
 30
0.0
 11
4106.8304378933144108
 21
153.7873039168109131
 31
0.0
  0
LINE
  5
17080
  8
0
 10
4106.9628922079045878
 20
153.8480133389637103
 30
0.0
 11
4106.9578760603244518
 21
153.7832376952956963
 31
0.0
  0
ARC
  5
17081
  8
0
 10
4106.8500469146410978
 20
153.8312181119167974
 30
0.0
 40
0.0298086306706007
 50
141.0265129018208086
 51
225.5627140648884961
  0
ARC
  5
17082
  8
0
 10
4106.9397697276290273
 20
153.8297389686076997
 30
0.0
 40
0.0294720495725992
 50
344.462760198961405
 51
38.3203458844158931
  0
ARC
  5
17083
  8
0
 10
4106.8998296325589763
 20
153.7847677395913877
 30
0.0
 40
0.090663769275273
 50
55.262792232410348
 51
79.4598608463446539
  0
ARC
  5
17084
  8
0
 10
4106.8937571842943726
 20
153.7642612118636976
 30
0.0
 40
0.1119570782476843
 50
78.3242577845356038
 51
113.1976343971222008
  0
ARC
  5
17085
  8
0
 10
4106.8727793518946783
 20
153.8128467139181907
 30
0.0
 40
0.0590365599709074
 50
113.0580874120771
 51
141.041268285574688
  0
ARC
  5
17086
  8
0
 10
4106.8741682224863325
 20
153.791907769557497
 30
0.0
 40
0.04397200415675
 50
186.0098614782457958
 51
240.8827699704883969
  0
ARC
  5
17087
  8
0
 10
4106.8957074776662921
 20
153.8281466315968089
 30
0.0
 40
0.0861203071788185
 50
240.0953702876873876
 51
288.402954740611392
  0
ARC
  5
17088
  8
0
 10
4106.906852710711064
 20
153.7995889248155947
 30
0.0
 40
0.0555264301744364
 50
286.7933919353370129
 51
324.2468776202392178
  0
ARC
  5
17089
  8
0
 10
4106.9230573312952401
 20
153.7869855225472122
 30
0.0
 40
0.0350198529453804
 50
325.4902943334597012
 51
353.8564358147776261
  0
ARC
  5
1708A
  8
0
 10
4106.9208750105008221
 20
153.8168697460421868
 30
0.0
 40
0.0523007481558412
 50
36.546235156730809
 51
54.169846911690037
  0
ARC
  5
1708B
  8
0
 10
4106.931670072700399
 20
153.8324047821068064
 30
0.0
 40
0.0379918853757713
 50
317.6658742235723025
 51
343.8613401859216196
  0
LINE
  5
1708C
  8
0
 10
4106.4226534476101733
 20
154.1089154023242997
 30
0.0
 11
4106.4195185483104069
 21
154.1743170186242935
 31
0.0
  0
LINE
  5
1708D
  8
0
 10
4106.5495566546351256
 20
154.1037456815097926
 30
0.0
 11
4106.5556047059872071
 21
154.1672098625496972
 31
0.0
  0
ARC
  5
1708E
  8
0
 10
4106.5258173700813131
 20
154.1487246244178948
 30
0.0
 40
0.0356358143234957
 50
316.0831919515500772
 51
10.5559711425387004
  0
ARC
  5
1708F
  8
0
 10
4106.5141695422644261
 20
154.1419035962283033
 30
0.0
 40
0.0485518270290167
 50
15.95908435032241
 51
58.1908450262713188
  0
ARC
  5
17090
  8
0
 10
4106.4827145786921392
 20
154.0922106617202871
 30
0.0
 40
0.1073622988423489
 50
57.9037482245901884
 51
108.4357320505742024
  0
ARC
  5
17091
  8
0
 10
4106.4707103279561125
 20
154.1292537201020139
 30
0.0
 40
0.0684248733429924
 50
108.7089979944863956
 51
135.4513779042266037
  0
ARC
  5
17092
  8
0
 10
4106.4419878768258059
 20
154.1548048892665861
 30
0.0
 40
0.0293716575445836
 50
159.6213673336725094
 51
183.4144758432815934
  0
ARC
  5
17093
  8
0
 10
4106.4532803881729706
 20
154.1561884207046944
 30
0.0
 40
0.0407326861464543
 50
184.4111361355247141
 51
218.9787869515307079
  0
ARC
  5
17094
  8
0
 10
4106.4608578818997557
 20
154.1110172391151991
 30
0.0
 40
0.0382622074293472
 50
183.1489826058316055
 51
209.7966286505684081
  0
ARC
  5
17095
  8
0
 10
4106.5087156975778271
 20
154.1085040067341083
 30
0.0
 40
0.0411172157640688
 50
305.5402346931148259
 51
353.3545066014731901
  0
ARC
  5
17096
  8
0
 10
4106.4961802038178575
 20
154.1237989444773859
 30
0.0
 40
0.0608634772002836
 50
290.6324087521667252
 51
306.7732279610102069
  0
ARC
  5
17097
  8
0
 10
4106.4748692368330012
 20
154.1201975678862084
 30
0.0
 40
0.0549922697441148
 50
210.8428229411757968
 51
242.7744227659939042
  0
ARC
  5
17098
  8
0
 10
4106.4895248816883395
 20
154.1480907493271957
 30
0.0
 40
0.0865005354960152
 50
242.5949256513503087
 51
270.1369858942367728
  0
ARC
  5
17099
  8
0
 10
4106.4880011229779484
 20
154.1475374448212108
 30
0.0
 40
0.0859644047626466
 50
271.1535121281754073
 51
290.1589955800038751
  0
ARC
  5
1709A
  8
0
 10
4106.4490005383404423
 20
154.1522625761174936
 30
0.0
 40
0.0368307475071929
 50
137.268149833810611
 51
159.7127956970375919
  0
LINE
  5
1709B
  8
0
 10
4106.4692033238989097
 20
154.3274338210354131
 30
0.0
 11
4106.4659989216906979
 21
154.3942854368847861
 31
0.0
  0
LINE
  5
1709C
  8
0
 10
4106.595810458975393
 20
154.3232622684490138
 30
0.0
 11
4106.6018328369509618
 21
154.3871699617637887
 31
0.0
  0
ARC
  5
1709D
  8
0
 10
4106.5723672463700495
 20
154.3672430431290081
 30
0.0
 40
0.0356358143234957
 50
315.0373221861578941
 51
10.5559711425387004
  0
ARC
  5
1709E
  8
0
 10
4106.5594889580406743
 20
154.3617201238870109
 30
0.0
 40
0.0494034242659526
 50
14.1189427895996005
 51
56.0513822625089873
  0
ARC
  5
1709F
  8
0
 10
4106.5292725312419861
 20
154.3165276944017137
 30
0.0
 40
0.1037667763475428
 50
56.1463428898531873
 51
109.259519271924205
  0
ARC
  5
170A0
  8
0
 10
4106.515695624358159
 20
154.3535350332454072
 30
0.0
 40
0.0643551667146976
 50
108.7161691714169933
 51
138.1841463886173926
  0
ARC
  5
170A1
  8
0
 10
4106.4916266545506005
 20
154.3733072198700995
 30
0.0
 40
0.0328443933372576
 50
161.5008563217245978
 51
183.0640556321835106
  0
ARC
  5
170A2
  8
0
 10
4106.5013252385033411
 20
154.3747277288977102
 30
0.0
 40
0.0426145480227352
 50
184.2742952612638874
 51
219.0325658268594111
  0
ARC
  5
170A3
  8
0
 10
4106.5074077581903111
 20
154.3295356578263977
 30
0.0
 40
0.0382622074293472
 50
183.1489826058316055
 51
209.7966286505684081
  0
ARC
  5
170A4
  8
0
 10
4106.5538771287310738
 20
154.3278580150524135
 30
0.0
 40
0.0421844174109293
 50
306.390512741789621
 51
353.745544457749304
  0
ARC
  5
170A5
  8
0
 10
4106.5416873408776155
 20
154.3421858088881038
 30
0.0
 40
0.0609643268674587
 50
291.5382932153025877
 51
307.623853929467316
  0
ARC
  5
170A6
  8
0
 10
4106.5214191131235566
 20
154.338715986597407
 30
0.0
 40
0.0549922697441148
 50
210.8428229411757968
 51
242.7744227659939042
  0
ARC
  5
170A7
  8
0
 10
4106.5360747579779854
 20
154.366609168038309
 30
0.0
 40
0.0865005354960152
 50
242.5949256513503087
 51
270.1369858942367728
  0
ARC
  5
170A8
  8
0
 10
4106.5350869656413124
 20
154.3608737435079092
 30
0.0
 40
0.0807736980061625
 50
270.847406654749193
 51
291.0266533903475761
  0
ARC
  5
170A9
  8
0
 10
4106.4962888474292413
 20
154.3717275010299943
 30
0.0
 40
0.0377669176831365
 50
139.1239385335674967
 51
161.4723004476620929
  0
ARC
  5
170AA
  8
0
 10
4107.0783267837432504
 20
153.9483499878996895
 30
0.0
 40
0.0302861588442181
 50
322.8660466203788246
 51
358.7640770637777905
  0
ARC
  5
170AB
  8
0
 10
4107.0642595356230231
 20
153.9602736901921105
 30
0.0
 40
0.0487095969341398
 50
283.9098817506978776
 51
321.6734954738709007
  0
ARC
  5
170AC
  8
0
 10
4107.0569010234248708
 20
153.9815196431860045
 30
0.0
 40
0.0711305903852492
 50
264.0651736824577824
 51
285.5495369991290886
  0
ARC
  5
170AD
  8
0
 10
4107.0547361672552142
 20
153.971014069550904
 30
0.0
 40
0.0604669001047356
 50
234.0203139509330015
 51
265.0762748473226793
  0
ARC
  5
170AE
  8
0
 10
4107.038220181781071
 20
153.9490535752728135
 30
0.0
 40
0.032996051075637
 50
182.4349785604125884
 51
234.8250067794519964
  0
LINE
  5
170AF
  8
0
 10
4107.0052539235266522
 20
153.9476517181981023
 30
0.0
 11
4107.0004364341593828
 21
154.0139948108420924
 31
0.0
  0
LINE
  5
170B0
  8
0
 10
4107.1085811566808843
 20
153.9469627836217001
 30
0.0
 11
4107.1133991208689622
 21
154.0137410384546968
 31
0.0
  0
ARC
  5
170B1
  8
0
 10
4107.0569125148367675
 20
154.026868014283508
 30
0.0
 40
0.0343920431660675
 50
55.1021586243819428
 51
124.8935853593003031
  0
ARC
  5
170B2
  8
0
 10
4106.9349876987425887
 20
153.885879200268505
 30
0.0
 40
0.220631414261013
 50
41.380854845517149
 51
50.0739031280556475
  0
ARC
  5
170B3
  8
0
 10
4107.037032433983768
 20
153.9727229119891092
 30
0.0
 40
0.0866853941838004
 50
22.3727643322269216
 51
42.8987321949324425
  0
ARC
  5
170B4
  8
0
 10
4107.0881422152206142
 20
153.9932611647639931
 30
0.0
 40
0.0316086751342785
 50
314.4942857925680073
 51
23.2096648381866011
  0
ARC
  5
170B5
  8
0
 10
4107.1441067777350327
 20
153.9223176721048105
 30
0.0
 40
0.1704284758792847
 50
128.8333262574761022
 51
147.4577429297320919
  0
ARC
  5
170B6
  8
0
 10
4107.0320311915493221
 20
153.9933101338581025
 30
0.0
 40
0.0377635347445864
 50
146.7877524540859895
 51
194.5891921838600069
  0
ARC
  5
170B7
  8
0
 10
4107.0298769869368698
 20
153.9958680545863103
 30
0.0
 40
0.0364482639087206
 50
199.3389480974510946
 51
223.8356373232199132
  0
ARC
  5
170B8
  8
0
 10
4106.9147439022153776
 20
153.9285490951695863
 30
0.0
 40
0.0973270015787309
 50
110.8574620418766017
 51
132.8857911140424903
  0
ARC
  5
170B9
  8
0
 10
4106.9986765619687503
 20
153.7245743453607076
 30
0.0
 40
0.3178719156760176
 50
101.9337871251104986
 51
111.9044769691404042
  0
ARC
  5
170BA
  8
0
 10
4106.9369986748297379
 20
154.0189447365710009
 30
0.0
 40
0.01711792688057
 50
58.2940802748522202
 51
103.6926356290819058
  0
ARC
  5
170BB
  8
0
 10
4106.9420465892399079
 20
154.0269118245996083
 30
0.0
 40
0.0076876426224683
 50
9.7426373373634085
 51
59.0943195669424526
  0
ARC
  5
170BC
  8
0
 10
4106.8677629449457527
 20
153.9802198739056109
 30
0.0
 40
0.0275048053993013
 50
134.4285124490210137
 51
176.5821544510255876
  0
ARC
  5
170BD
  8
0
 10
4106.8699835522329522
 20
153.9813481308690939
 30
0.0
 40
0.0296808979315683
 50
179.0125459751199912
 51
221.7820637268054043
  0
ARC
  5
170BE
  8
0
 10
4106.8883950212921263
 20
153.9986711638117072
 30
0.0
 40
0.0549562117419639
 50
222.4597244476786102
 51
263.8279273964885192
  0
ARC
  5
170BF
  8
0
 10
4106.8929302223323248
 20
154.0080820916132041
 30
0.0
 40
0.0648944861660778
 50
260.7388187635389158
 51
286.9278644792801742
  0
ARC
  5
170C0
  8
0
 10
4106.8998495724536042
 20
153.9927722371209882
 30
0.0
 40
0.0482817078938972
 50
284.3615833510583002
 51
321.5720580502559187
  0
ARC
  5
170C1
  8
0
 10
4106.8856581683567128
 20
154.0018858355583973
 30
0.0
 40
0.0650852007292127
 50
323.0519307195434067
 51
356.001502247443284
  0
ARC
  5
170C2
  8
0
 10
4106.8250897268781046
 20
154.0088853620042073
 30
0.0
 40
0.1260244956133702
 50
354.7470356352873182
 51
8.8218185886967255
  0
ARC
  5
170C3
  8
0
 10
4106.8575377318820756
 20
154.0252060886998891
 30
0.0
 40
0.0282474730473597
 50
138.8683027121533939
 51
227.9138533132594091
  0
ARC
  5
170C4
  8
0
 10
4106.9018335220716835
 20
153.9815931706434924
 30
0.0
 40
0.0903755308146488
 50
112.602685619833693
 51
136.5144448937483048
  0
ARC
  5
170C5
  8
0
 10
4106.996326453509937
 20
153.7629617548728902
 30
0.0
 40
0.3285472787057117
 50
101.9128535098567028
 51
113.1619056273116968
  0
ARC
  5
170C6
  8
0
 10
4106.9366827962248863
 20
154.0491196891377115
 30
0.0
 40
0.0362475168378804
 50
62.5722830292098777
 51
103.036290758374605
  0
ARC
  5
170C7
  8
0
 10
4106.9455931167258314
 20
154.0663656040329101
 30
0.0
 40
0.0168358523837228
 50
34.9709531923987385
 51
62.4523639089949825
  0
ARC
  5
170C8
  8
0
 10
4106.9497801246197923
 20
154.0704121656470988
 30
0.0
 40
0.0111232958158051
 50
4.0943764969414547
 51
30.2468206656082508
  0
ARC
  5
170C9
  8
0
 10
4106.8337037688806959
 20
154.0528152847030867
 30
0.0
 40
0.1284942093381085
 50
356.4163423287524211
 51
8.2288727959813226
  0
ARC
  5
170CA
  8
0
 10
4106.8917030269858515
 20
154.0476873010362908
 30
0.0
 40
0.070303681783722
 50
327.7168854356389147
 51
357.6329178135193274
  0
LINE
  5
170CB
  8
0
 10
4106.8403105036541092
 20
153.9806655694914923
 30
0.0
 11
4106.8357848489777098
 21
154.0432264055388885
 31
0.0
  0
LINE
  5
170CC
  8
0
 10
4106.8717607606531601
 20
154.1456216746854011
 30
0.0
 11
4106.8677738178103027
 21
154.0905412817241995
 31
0.0
  0
ARC
  5
170CD
  8
0
 10
4106.8576986415546344
 20
154.0901174346560083
 30
0.0
 40
0.0100969674156512
 50
3.0174257538672018
 51
86.8227644263765228
  0
ARC
  5
170CE
  8
0
 10
4106.8589680351178686
 20
154.0912327891118991
 30
0.0
 40
0.0088328925778667
 50
317.757477307478382
 51
356.2099909500690273
  0
ARC
  5
170CF
  8
0
 10
4106.7886403988732127
 20
153.7165308511906119
 30
0.0
 40
0.3899330772722782
 50
79.715386973472306
 51
87.9706926889296454
  0
ARC
  5
170D0
  8
0
 10
4106.7941907500462548
 20
153.9795079677408864
 30
0.0
 40
0.1269801851745954
 50
86.2714575542738942
 51
109.9114968595544042
  0
ARC
  5
170D1
  8
0
 10
4106.7664538770259242
 20
154.0600576712618874
 30
0.0
 40
0.0418213822069124
 50
111.7666957719324046
 51
146.0533019551805864
  0
ARC
  5
170D2
  8
0
 10
4106.7547611758327548
 20
154.069381157211609
 30
0.0
 40
0.0269421375523047
 50
148.616551569836389
 51
214.3959611786071093
  0
ARC
  5
170D3
  8
0
 10
4106.7724691071553025
 20
154.0813274463152993
 30
0.0
 40
0.0483026803906336
 50
214.2229600417481095
 51
253.9208554832262905
  0
ARC
  5
170D4
  8
0
 10
4106.7803441273899807
 20
154.1017459393723072
 30
0.0
 40
0.0701295690240181
 50
252.3587696581091109
 51
286.0215527998211087
  0
ARC
  5
170D5
  8
0
 10
4106.7628897760496329
 20
154.1449993401728875
 30
0.0
 40
0.1166207168572273
 50
288.3993892881297825
 51
315.5935189277445261
  0
ARC
  5
170D6
  8
0
 10
4106.7085672205739684
 20
154.2041744315777123
 30
0.0
 40
0.1968819685413435
 50
314.3529924526050081
 51
322.8565835506535109
  0
ARC
  5
170D7
  8
0
 10
4106.7879142437986957
 20
153.7480221826072864
 30
0.0
 40
0.407947508283932
 50
80.0451105998149188
 51
86.7003311955702856
  0
ARC
  5
170D8
  8
0
 10
4106.8553889212189461
 20
154.1169658693756901
 30
0.0
 40
0.033002913574685
 50
59.4774732334243268
 51
84.7002886935021877
  0
ARC
  5
170D9
  8
0
 10
4106.8657011182585848
 20
154.1331718576732897
 30
0.0
 40
0.0138206831140512
 50
21.6979827482396992
 51
62.1838553723282033
  0
ARC
  5
170DA
  8
0
 10
4106.8691920639457749
 20
154.1356665939619859
 30
0.0
 40
0.0097092499574669
 50
317.2891274677151046
 51
15.6242307114085506
  0
ARC
  5
170DB
  8
0
 10
4106.6835084889580685
 20
154.276384787684691
 30
0.0
 40
0.2426461650716083
 50
320.2216924046518898
 51
322.6218285007054192
  0
ARC
  5
170DC
  8
0
 10
4106.7639357419329826
 20
154.0978481033926926
 30
0.0
 40
0.0533314679162803
 50
109.8705025976479988
 51
139.7222611074172107
  0
ARC
  5
170DD
  8
0
 10
4106.7435478749293907
 20
154.1148821397146946
 30
0.0
 40
0.0267654124650079
 50
139.326187760886512
 51
193.4750340011763967
  0
ARC
  5
170DE
  8
0
 10
4106.7536061280261492
 20
154.1179453857047861
 30
0.0
 40
0.037265992732928
 50
194.4515803297863954
 51
222.3865061225945112
  0
LINE
  5
170DF
  8
0
 10
4106.7232481099572396
 20
154.1323265325079035
 30
0.0
 11
4106.7278423310217477
 21
154.0682610813823885
 31
0.0
  0
ARC
  5
170E0
  8
0
 10
4106.7608367053426264
 20
154.2563106667219017
 30
0.0
 40
0.1092475664010992
 50
259.5955701795234063
 51
275.770928300788114
  0
ARC
  5
170E1
  8
0
 10
4106.7506901194201419
 20
154.3618287153744859
 30
0.0
 40
0.2152517043992695
 50
275.6338892228999953
 51
284.9506013232015107
  0
ARC
  5
170E2
  8
0
 10
4106.7151742256755824
 20
154.4933219679791989
 30
0.0
 40
0.3514565535875719
 50
285.0142120052403811
 51
291.225311904949308
  0
ARC
  5
170E3
  8
0
 10
4106.8381371372734066
 20
154.1770673342344935
 30
0.0
 40
0.0121389854402521
 50
290.6310531619283779
 51
332.4570250479940796
  0
ARC
  5
170E4
  8
0
 10
4106.8415269141760291
 20
154.1757198324982028
 30
0.0
 40
0.0085184450941058
 50
329.9494266352792806
 51
25.3050930356710992
  0
ARC
  5
170E5
  8
0
 10
4106.8413726416747522
 20
154.1745630158712004
 30
0.0
 40
0.009204685993461
 50
31.4160132544942883
 51
54.9801737577317269
  0
ARC
  5
170E6
  8
0
 10
4106.6901786442758748
 20
153.9714171490257115
 30
0.0
 40
0.2624358598058474
 50
53.398528900418377
 51
63.6041189161672378
  0
ARC
  5
170E7
  8
0
 10
4106.7449746749061887
 20
154.0858947462062929
 30
0.0
 40
0.1355446444602439
 50
62.8389126156710205
 51
82.6002293870219262
  0
ARC
  5
170E8
  8
0
 10
4106.7534413457397022
 20
154.1569328911928096
 30
0.0
 40
0.0640121203197871
 50
81.9262561388379567
 51
128.7593556702161948
  0
ARC
  5
170E9
  8
0
 10
4106.7306743287499557
 20
154.1857075217452859
 30
0.0
 40
0.027322111532446
 50
129.3068290148997903
 51
208.6411053053047908
  0
ARC
  5
170EA
  8
0
 10
4106.7483865164304007
 20
154.1962094722900929
 30
0.0
 40
0.0479063538786835
 50
209.5107353563292918
 51
261.2600202004501284
  0
LINE
  5
170EB
  8
0
 10
4106.8540263484328534
 20
154.2302212291519083
 30
0.0
 11
4106.8500380558998586
 21
154.1753671663801128
 31
0.0
  0
LINE
  5
170EC
  8
0
 10
4106.6988107883062185
 20
154.2485438001909017
 30
0.0
 11
4106.7033578449681954
 21
154.1851530018221013
 31
0.0
  0
ARC
  5
170ED
  8
0
 10
4106.7223124350020953
 20
154.2302280370342089
 30
0.0
 40
0.0298991641249693
 50
150.5602956990391021
 51
226.3554474507162979
  0
ARC
  5
170EE
  8
0
 10
4106.7355444238301061
 20
154.2201043379288024
 30
0.0
 40
0.046456032896381
 50
113.9545453718069012
 51
147.7066123889208882
  0
ARC
  5
170EF
  8
0
 10
4106.7533136463389383
 20
154.1821367166508026
 30
0.0
 40
0.0883717709753257
 50
83.7649588476811147
 51
114.4884169330095034
  0
ARC
  5
170F0
  8
0
 10
4106.7490279242510951
 20
154.1361421323568095
 30
0.0
 40
0.1345617528983247
 50
70.8916432749278584
 51
84.0779109596336838
  0
ARC
  5
170F1
  8
0
 10
4106.6854042465565726
 20
153.9978735917806887
 30
0.0
 40
0.2870868123638179
 50
53.5937791860455022
 51
62.1942074683194406
  0
ARC
  5
170F2
  8
0
 10
4106.8514283010235886
 20
154.2202256798906888
 30
0.0
 40
0.0097364656247001
 50
327.1633022126409855
 51
63.3724955106623895
  0
ARC
  5
170F3
  8
0
 10
4106.8446193266845512
 20
154.2237449137749934
 30
0.0
 40
0.0173813469685929
 50
296.6899563310889789
 51
329.5875795024984996
  0
ARC
  5
170F4
  8
0
 10
4106.80718944547516
 20
154.2927976570341002
 30
0.0
 40
0.032273784035922
 50
172.3709123688531974
 51
231.0837366889136888
  0
ARC
  5
170F5
  8
0
 10
4106.8408220652381715
 20
154.3367166434429123
 30
0.0
 40
0.0875846015320171
 50
232.0132586160142125
 51
255.7908619959007126
  0
ARC
  5
170F6
  8
0
 10
4106.8853599072617726
 20
154.4960571745990876
 30
0.0
 40
0.2530152782915811
 50
254.8706997058262971
 51
265.2894961643393117
  0
ARC
  5
170F7
  8
0
 10
4106.9152572732373301
 20
154.8324468390281083
 30
0.0
 40
0.590727935546232
 50
265.0788629740214901
 51
267.4396586310061821
  0
ARC
  5
170F8
  8
0
 10
4106.8899032039580561
 20
154.254430736143803
 30
0.0
 40
0.0121662005401088
 50
265.1215352826695266
 51
356.3480845741370899
  0
ARC
  5
170F9
  8
0
 10
4106.8111434198935967
 20
154.2872981294225951
 30
0.0
 40
0.0372500107655812
 50
109.1526451581682977
 51
164.7718941800106052
  0
ARC
  5
170FA
  8
0
 10
4106.8256263031171329
 20
154.2601482280016114
 30
0.0
 40
0.067816961076418
 50
74.522528226843292
 51
113.1891057163242067
  0
ARC
  5
170FB
  8
0
 10
4106.8259227079179254
 20
154.2601960366592948
 30
0.0
 40
0.0676923378391929
 50
45.736795407743557
 51
74.7535133702483563
  0
ARC
  5
170FC
  8
0
 10
4106.7886745381620131
 20
154.229405038187906
 30
0.0
 40
0.1158566493270479
 50
15.7655030322086507
 51
43.1721442716578423
  0
ARC
  5
170FD
  8
0
 10
4106.8538276104382021
 20
154.2450244711409937
 30
0.0
 40
0.0489835461016703
 50
10.1490216450012305
 51
18.8904735928553009
  0
LINE
  5
170FE
  8
0
 10
4106.7702001370025755
 20
154.3554049923181992
 30
0.0
 11
4106.7749466189216037
 21
154.2913844083252002
 31
0.0
  0
LINE
  5
170FF
  8
0
 10
4106.9020447001103093
 20
154.2536558124236876
 30
0.0
 11
4106.9066874248092063
 21
154.3181416957243073
 31
0.0
  0
ARC
  5
17100
  8
0
 10
4106.7949699286737086
 20
154.3367131903104053
 30
0.0
 40
0.0310310496390246
 50
142.9610333848700918
 51
225.5192620682211952
  0
ARC
  5
17101
  8
0
 10
4106.7949699286737086
 20
154.3367131903104053
 30
0.0
 40
0.0310310496390246
 50
242.748513474313711
 51
243.0488739614208953
  0
ARC
  5
17102
  8
0
 10
4106.8164419718641511
 20
154.3150673408129023
 30
0.0
 40
0.0613631275306158
 50
101.0883292270504938
 51
138.9011765315906928
  0
ARC
  5
17103
  8
0
 10
4106.8252654951384102
 20
154.2878596626584056
 30
0.0
 40
0.0898252125100453
 50
65.4008379590803912
 51
103.2742695489174025
  0
ARC
  5
17104
  8
0
 10
4106.8196787105198382
 20
154.288152103251889
 30
0.0
 40
0.0920320162715626
 50
19.0177120731722802
 51
62.1608634319979103
  0
ARC
  5
17105
  8
0
 10
4106.7206672043539584
 20
154.245282197264288
 30
0.0
 40
0.1997799512822349
 50
15.8830773745296803
 51
21.3890444294084787
  0
ARC
  5
17106
  8
0
 10
4106.9021178516895816
 20
154.2978665912631016
 30
0.0
 40
0.0109043874339646
 50
324.2236754564005992
 51
11.0522426634309205
  0
ARC
  5
17107
  8
0
 10
4106.8961340365203796
 20
154.3016594815431972
 30
0.0
 40
0.0179814292995487
 50
297.1852349088260894
 51
325.5655225087883196
  0
ARC
  5
17108
  8
0
 10
4106.9944587745048921
 20
154.301604424828497
 30
0.0
 40
0.0132736338665293
 50
243.4533422972307051
 51
327.2769472527431844
  0
ARC
  5
17109
  8
0
 10
4106.9006117999952039
 20
154.3606864551402964
 30
0.0
 40
0.1241692077938314
 50
327.750554110352823
 51
352.654190250260001
  0
ARC
  5
1710A
  8
0
 10
4107.080490643425037
 20
154.4893554797488946
 30
0.0
 40
0.2197900347508443
 50
230.3398664350526133
 51
245.2652218416592973
  0
ARC
  5
1710B
  8
0
 10
4106.9731800347653916
 20
154.3646103849058875
 30
0.0
 40
0.0553478458079006
 50
197.9689781743163053
 51
233.4428862962737981
  0
ARC
  5
1710C
  8
0
 10
4106.9461202858537945
 20
154.3553336195629129
 30
0.0
 40
0.0267503113684709
 50
135.9129714000999058
 51
196.9487674003677
  0
ARC
  5
1710D
  8
0
 10
4106.9674235287848205
 20
154.3345784080347016
 30
0.0
 40
0.0564925949109321
 50
92.4163075877105058
 51
135.8253457090804091
  0
ARC
  5
1710E
  8
0
 10
4106.9717000634445867
 20
154.3271582904365005
 30
0.0
 40
0.0642086384377728
 50
51.53824425300283
 51
95.9521188404291934
  0
ARC
  5
1710F
  8
0
 10
4106.9873200062247633
 20
154.3498326139269921
 30
0.0
 40
0.0367863153088166
 50
352.1533663362376956
 51
48.6205586320226431
  0
ARC
  5
17110
  8
0
 10
4106.9260478676260391
 20
154.4021046535825121
 30
0.0
 40
0.1098110981341274
 50
333.5279033273843083
 51
351.3089824534945933
  0
ARC
  5
17111
  8
0
 10
4106.9909665670966206
 20
154.3928178057732055
 30
0.0
 40
0.0442390021759992
 50
350.4938150130496979
 51
31.1051625635311311
  0
ARC
  5
17112
  8
0
 10
4106.9794134683588709
 20
154.3780299760252888
 30
0.0
 40
0.0621321150075851
 50
37.2893597927483214
 51
79.4133412567748849
  0
ARC
  5
17113
  8
0
 10
4106.970867822314176
 20
154.3531436668417882
 30
0.0
 40
0.0882479051045618
 50
76.9271903237269328
 51
116.879973700330396
  0
ARC
  5
17114
  8
0
 10
4106.9489765303533204
 20
154.3940590203617091
 30
0.0
 40
0.0418682746239953
 50
115.474010589516098
 51
160.7458001236431926
  0
ARC
  5
17115
  8
0
 10
4106.9392578174401933
 20
154.3999265740567921
 30
0.0
 40
0.0308467614862216
 50
165.0861449115934079
 51
209.9760146012611131
  0
ARC
  5
17116
  8
0
 10
4106.9707946672224352
 20
154.415594997091091
 30
0.0
 40
0.0660297476979646
 50
208.0801547875153972
 51
216.6602873590248066
  0
LINE
  5
17117
  8
0
 10
4106.9148070665833075
 20
154.4182540645971926
 30
0.0
 11
4106.9191056577028576
 21
154.3583381229395002
 31
0.0
  0
LINE
  5
17118
  8
0
 10
4107.0288449094077805
 20
154.4156721379056876
 30
0.0
 11
4107.0241063215325994
 21
154.3498326139269921
 31
0.0
  0
LINE
  5
17119
  8
0
  6
CONTINUOUS
 62
     7
 10
4108.2811457367097319
 20
170.6990759780242968
 30
0.0
 11
4108.2823805162097415
 21
170.6902900654243069
 31
0.0
  0
LINE
  5
1711A
  8
0
  6
CONTINUOUS
 62
     7
 10
4108.1717065267894213
 20
170.6902900653423103
 30
0.0
 11
4108.1654661008096809
 21
170.7346930032242938
 31
0.0
  0
LINE
  5
1711B
  8
0
  6
CONTINUOUS
 62
     7
 10
4107.8472268080113281
 20
170.6902900654243069
 30
0.0
 11
4107.8409863821098043
 21
170.7346930032242938
 31
0.0
  0
LINE
  5
1711C
  8
0
  6
CONTINUOUS
 62
     7
 10
4107.5442350254097619
 20
170.6902900654243069
 30
0.0
 11
4107.537994599510057
 21
170.7346930032242938
 31
0.0
  0
LINE
  5
1711D
  8
0
  6
CONTINUOUS
 62
     7
 10
4107.3310541165092218
 20
170.6902900654243069
 30
0.0
 11
4107.324813690510382
 21
170.7346930032242938
 31
0.0
  0
LINE
  5
1711E
  8
0
  6
CONTINUOUS
 62
     7
 10
4107.2846512504893326
 20
170.6902900653423103
 30
0.0
 11
4107.2784108245086827
 21
170.7346930032242938
 31
0.0
  0
LINE
  5
1711F
  8
0
  6
CONTINUOUS
 62
     7
 10
4106.9815427226949396
 20
170.7018539292240007
 30
0.0
 11
4106.9831679178087143
 21
170.6902900654243069
 31
0.0
  0
LINE
  5
17120
  8
0
  6
CONTINUOUS
 62
     7
 10
4106.8717130972099767
 20
170.6902900654243069
 30
0.0
 11
4106.8654726713102718
 21
170.7346930032242938
 31
0.0
  0
LINE
  5
17121
  8
0
  6
CONTINUOUS
 62
     7
 10
4106.6583647681100047
 20
170.6902900654243069
 30
0.0
 11
4106.6521243422102998
 21
170.7346930032242938
 31
0.0
  0
LINE
  5
17122
  8
0
  6
CONTINUOUS
 62
     7
 10
4106.3335616185113395
 20
170.6902900654243069
 30
0.0
 11
4106.3273211926098156
 21
170.7346930032242938
 31
0.0
  0
LINE
  5
17123
  8
0
  6
CONTINUOUS
 62
     7
 10
4106.1595001353089174
 20
170.6902900654243069
 30
0.0
 11
4106.1532597093091681
 21
170.7346930032242938
 31
0.0
  0
LINE
  5
17124
  8
0
  6
CONTINUOUS
 62
     7
 10
4106.0087584689099458
 20
170.6902900654243069
 30
0.0
 11
4106.0025180430102409
 21
170.7346930032242938
 31
0.0
  0
LINE
  5
17125
  8
0
  6
CONTINUOUS
 62
     7
 10
4105.8750014304087017
 20
170.6902900654243069
 30
0.0
 11
4105.8687610044089524
 21
170.7346930032242938
 31
0.0
  0
LINE
  5
17126
  8
0
  6
CONTINUOUS
 62
     7
 10
4105.7068709483100974
 20
170.6902900654243069
 30
0.0
 11
4105.7006305224103926
 21
170.7346930032242938
 31
0.0
  0
LINE
  5
17127
  8
0
  6
CONTINUOUS
 62
     7
 10
4105.6839553193103711
 20
170.6902900654243069
 30
0.0
 11
4105.6777148934088473
 21
170.7346930032242938
 31
0.0
  0
LINE
  5
17128
  8
0
  6
CONTINUOUS
 62
     7
 10
4105.5969245777087053
 20
170.6902900654243069
 30
0.0
 11
4105.59068415180991
 21
170.7346930032242938
 31
0.0
  0
LINE
  5
17129
  8
0
  6
CONTINUOUS
 62
     7
 10
4108.3968253725088289
 20
170.7346930032242938
 30
0.0
 11
4108.3905849466100335
 21
170.6902900654243069
 31
0.0
  0
LINE
  5
1712A
  8
0
  6
CONTINUOUS
 62
     7
 10
4108.2799109572097223
 20
170.6902900654243069
 30
0.0
 11
4108.2861513831112461
 21
170.7346930032242938
 31
0.0
  0
LINE
  5
1712B
  8
0
  6
CONTINUOUS
 62
     7
 10
4107.9554312384088917
 20
170.6902900654243069
 30
0.0
 11
4107.9616716643104155
 21
170.7346930032242938
 31
0.0
  0
LINE
  5
1712C
  8
0
  6
CONTINUOUS
 62
     7
 10
4107.74721907330877
 20
170.7346930032242938
 30
0.0
 11
4107.7409786474090652
 21
170.6902900654243069
 31
0.0
  0
LINE
  5
1712D
  8
0
  6
CONTINUOUS
 62
     7
 10
4107.6524394558100539
 20
170.6902900654243069
 30
0.0
 11
4107.6586798818098032
 21
170.7346930032242938
 31
0.0
  0
LINE
  5
1712E
  8
0
  6
CONTINUOUS
 62
     7
 10
4107.4392585469104233
 20
170.6902900654243069
 30
0.0
 11
4107.4454989728101282
 21
170.7346930032242938
 31
0.0
  0
LINE
  5
1712F
  8
0
  6
CONTINUOUS
 62
     7
 10
4107.0976127741096207
 20
170.7346930032242938
 30
0.0
 11
4107.0913723482099158
 21
170.6902900654243069
 31
0.0
  0
LINE
  5
17130
  8
0
  6
CONTINUOUS
 62
     7
 10
4106.9799175276102687
 20
170.6902900654243069
 30
0.0
 11
4106.986157953610018
 21
170.7346930032242938
 31
0.0
  0
LINE
  5
17131
  8
0
  6
CONTINUOUS
 62
     7
 10
4106.830280123310331
 20
170.6902900654243069
 30
0.0
 11
4106.8365205492100358
 21
170.7346930032242938
 31
0.0
  0
LINE
  5
17132
  8
0
  6
CONTINUOUS
 62
     7
 10
4106.7665691986112506
 20
170.6902900654243069
 30
0.0
 11
4106.7728096245091365
 21
170.7346930032242938
 31
0.0
  0
LINE
  5
17133
  8
0
  6
CONTINUOUS
 62
     7
 10
4106.441766048908903
 20
170.6902900654243069
 30
0.0
 11
4106.4480064749086523
 21
170.7346930032242938
 31
0.0
  0
LINE
  5
17134
  8
0
  6
CONTINUOUS
 62
     7
 10
4106.2677045657101189
 20
170.6902900654243069
 30
0.0
 11
4106.2739449916098238
 21
170.7346930032242938
 31
0.0
  0
LINE
  5
17135
  8
0
  6
CONTINUOUS
 62
     7
 10
4106.1169628993102378
 20
170.6902900654243069
 30
0.0
 11
4106.1232033253090776
 21
170.7346930032242938
 31
0.0
  0
LINE
  5
17136
  8
0
  6
CONTINUOUS
 62
     7
 10
4105.9832058608099032
 20
170.6902900654243069
 30
0.0
 11
4105.9894462867086986
 21
170.7346930032242938
 31
0.0
  0
LINE
  5
17137
  8
0
  6
CONTINUOUS
 62
     7
 10
4105.8150753787103895
 20
170.6902900654243069
 30
0.0
 11
4105.8213158047101388
 21
170.7346930032242938
 31
0.0
  0
LINE
  5
17138
  8
0
  6
CONTINUOUS
 62
     7
 10
4105.6048211063098279
 20
170.6835119008242998
 30
0.0
 11
4105.6917527057103143
 21
170.6835119008242998
 31
0.0
  0
LINE
  5
17139
  8
0
  6
CONTINUOUS
 62
     7
 10
4108.3827875602100903
 20
170.6835119008242998
 30
0.0
 11
4108.2901779025087308
 21
170.6835119008242998
 31
0.0
  0
LINE
  5
1713A
  8
0
  6
CONTINUOUS
 62
     7
 10
4108.2720938236097936
 20
170.6835119008242998
 30
0.0
 11
4108.1795040399101708
 21
170.6835119008242998
 31
0.0
  0
LINE
  5
1713B
  8
0
  6
CONTINUOUS
 62
     7
 10
4107.9476335180088427
 20
170.6835119008242998
 30
0.0
 11
4107.8551136403111741
 21
170.6835119008242998
 31
0.0
  0
LINE
  5
1713C
  8
0
  6
CONTINUOUS
 62
     7
 10
4107.7331812610100314
 20
170.6835119008242998
 30
0.0
 11
4107.6446420695101551
 21
170.6835119008242998
 31
0.0
  0
LINE
  5
1713D
  8
0
  6
CONTINUOUS
 62
     7
 10
4107.6446420695101551
 20
170.6835119008242998
 30
0.0
 11
4107.5520428643103514
 21
170.6835119008242998
 31
0.0
  0
LINE
  5
1713E
  8
0
  6
CONTINUOUS
 62
     7
 10
4107.4314611605086611
 20
170.6835119008242998
 30
0.0
 11
4107.2925477790104196
 21
170.6835119008242998
 31
0.0
  0
LINE
  5
1713F
  8
0
  6
CONTINUOUS
 62
     7
 10
4107.0835749618090631
 20
170.6835119008242998
 30
0.0
 11
4106.9909653041113415
 21
170.6835119008242998
 31
0.0
  0
LINE
  5
17140
  8
0
  6
CONTINUOUS
 62
     7
 10
4106.9721201413103699
 20
170.6835119008242998
 30
0.0
 11
4106.8795104372102287
 21
170.6835119008242998
 31
0.0
  0
LINE
  5
17141
  8
0
  6
CONTINUOUS
 62
     7
 10
4106.8224824028102375
 20
170.6835119008242998
 30
0.0
 11
4106.6661621545090384
 21
170.6835119008242998
 31
0.0
  0
LINE
  5
17142
  8
0
  6
CONTINUOUS
 62
     7
 10
4106.4339686626090042
 20
170.6835119008242998
 30
0.0
 11
4106.3413590049103732
 21
170.6835119008242998
 31
0.0
  0
LINE
  5
17143
  8
0
  6
CONTINUOUS
 62
     7
 10
4106.2599071793092662
 20
170.6835119008242998
 30
0.0
 11
4106.1673010884096584
 21
170.6835119008242998
 31
0.0
  0
LINE
  5
17144
  8
0
  6
CONTINUOUS
 62
     7
 10
4106.1091655130103391
 20
170.6835119008242998
 30
0.0
 11
4106.016555855309889
 21
170.6835119008242998
 31
0.0
  0
LINE
  5
17145
  8
0
  6
CONTINUOUS
 62
     7
 10
4105.9754058375110617
 20
170.6835119008242998
 30
0.0
 11
4105.8827988168095544
 21
170.6835119008242998
 31
0.0
  0
LINE
  5
17146
  8
0
  6
CONTINUOUS
 62
     7
 10
4105.8072779924086717
 20
170.6835119008242998
 30
0.0
 11
4105.6917527057103143
 21
170.6835119008242998
 31
0.0
  0
ARC
  5
17147
  8
0
  6
CONTINUOUS
 62
     7
 10
4107.8550251453671081
 20
170.6913864328516865
 30
0.0
 40
0.0078750292701245
 50
188.0027571348836943
 51
270.6438697942249973
  0
ARC
  5
17148
  8
0
  6
CONTINUOUS
 62
     7
 10
4107.9476338519962155
 20
170.6913859165316012
 30
0.0
 40
0.0078740157144303
 50
269.9975697260979928
 51
351.9999999607557015
  0
ARC
  5
17149
  8
0
  6
CONTINUOUS
 62
     7
 10
4108.1795039131120575
 20
170.6913859165252916
 30
0.0
 40
0.0078740157020767
 50
188.0000000056780038
 51
270.0009226542218812
  0
ARC
  5
1714A
  8
0
  6
CONTINUOUS
 62
     7
 10
4108.2721135236779446
 20
170.6913859421144082
 30
0.0
 40
0.0078740659338264
 50
269.8566519514914717
 51
351.9998633349835018
  0
ARC
  5
1714B
  8
0
  6
CONTINUOUS
 62
     7
 10
4108.2901779025087308
 20
170.6913859165242968
 30
0.0
 40
0.0078740157
 50
188.0000000000009095
 51
270.0
  0
ARC
  5
1714C
  8
0
  6
CONTINUOUS
 62
     7
 10
4108.3827875602100903
 20
170.6913859165242968
 30
0.0
 40
0.0078740157
 50
270.0
 51
351.9999999999989768
  0
ARC
  5
1714D
  8
0
  6
CONTINUOUS
 62
     7
 10
4106.7587718122103979
 20
170.6913859165242968
 30
0.0
 40
0.0078740157
 50
270.0
 51
351.9999999999989768
  0
ARC
  5
1714E
  8
0
  6
CONTINUOUS
 62
     7
 10
4107.3388515029610062
 20
170.6913859166616021
 30
0.0
 40
0.0078740158372526
 50
188.0000002658150038
 51
269.9999996266824951
  0
ARC
  5
1714F
  8
0
  6
CONTINUOUS
 62
     7
 10
4107.4314611605086611
 20
170.6913859165242968
 30
0.0
 40
0.0078740157
 50
270.0
 51
351.9999999999989768
  0
ARC
  5
17150
  8
0
  6
CONTINUOUS
 62
     7
 10
4107.0835749618090631
 20
170.6913859165242968
 30
0.0
 40
0.0078740157
 50
270.0
 51
351.9999999999989768
  0
ARC
  5
17151
  8
0
  6
CONTINUOUS
 62
     7
 10
4106.9909653040858757
 20
170.6913859164596943
 30
0.0
 40
0.0078740156353874
 50
187.9999989889234087
 51
270.0000001758459121
  0
ARC
  5
17152
  8
0
  6
CONTINUOUS
 62
     7
 10
4107.7331812610100314
 20
170.6913859165242968
 30
0.0
 40
0.0078740157
 50
270.0
 51
351.9999999999989768
  0
ARC
  5
17153
  8
0
  6
CONTINUOUS
 62
     7
 10
4106.9721201413103699
 20
170.6913859165242968
 30
0.0
 40
0.0078740157
 50
270.0
 51
351.9999999999989768
  0
ARC
  5
17154
  8
0
  6
CONTINUOUS
 62
     7
 10
4106.8795104836099199
 20
170.6913859165244105
 30
0.0
 40
0.0078740157002616
 50
188.0000000006843095
 51
269.9996623655869143
  0
ARC
  5
17155
  8
0
  6
CONTINUOUS
 62
     7
 10
4107.2924498024312925
 20
170.6913865494045126
 30
0.0
 40
0.0078752580701428
 50
188.0033794165267977
 51
270.7128387771256826
  0
ARC
  5
17156
  8
0
  6
CONTINUOUS
 62
     7
 10
4107.6446420695101551
 20
170.6913859165242968
 30
0.0
 40
0.0078740156999904
 50
269.9999999999218971
 51
352.0000000000247837
  0
ARC
  5
17157
  8
0
  6
CONTINUOUS
 62
     7
 10
4107.5520324250437625
 20
170.6913859237101008
 30
0.0
 40
0.0078740298059396
 50
188.0000383764844116
 51
270.0759618689191939
  0
ARC
  5
17158
  8
0
  6
CONTINUOUS
 62
     7
 10
4106.8224827368958358
 20
170.6913859165316012
 30
0.0
 40
0.0078740157144348
 50
269.9975689984570977
 51
351.9999999607060772
  0
ARC
  5
17159
  8
0
  6
CONTINUOUS
 62
     7
 10
4105.8827988168095544
 20
170.6913859165242968
 30
0.0
 40
0.0078740157
 50
188.0000000000009095
 51
270.0
  0
ARC
  5
1715A
  8
0
  6
CONTINUOUS
 62
     7
 10
4105.975408473565949
 20
170.6913859169825116
 30
0.0
 40
0.0078740165994274
 50
269.9808185705430219
 51
351.9999975530014922
  0
ARC
  5
1715B
  8
0
  6
CONTINUOUS
 62
     7
 10
4106.6661621545090384
 20
170.6913859165242968
 30
0.0
 40
0.0078740157
 50
188.0000000000009095
 51
270.0
  0
ARC
  5
1715C
  8
0
  6
CONTINUOUS
 62
     7
 10
4105.8072779924086717
 20
170.6913859165242968
 30
0.0
 40
0.0078740157
 50
270.0
 51
351.9999999999989768
  0
ARC
  5
1715D
  8
0
  6
CONTINUOUS
 62
     7
 10
4105.7146683347100407
 20
170.6913859165242968
 30
0.0
 40
0.0078740157
 50
188.0000000000009095
 51
270.0
  0
ARC
  5
1715E
  8
0
  6
CONTINUOUS
 62
     7
 10
4106.4339686626090042
 20
170.6913859165242968
 30
0.0
 40
0.0078740157
 50
270.0
 51
351.9999999999989768
  0
ARC
  5
1715F
  8
0
  6
CONTINUOUS
 62
     7
 10
4106.3413590049103732
 20
170.6913859165242968
 30
0.0
 40
0.0078740157
 50
188.0000000000009095
 51
270.0
  0
ARC
  5
17160
  8
0
  6
CONTINUOUS
 62
     7
 10
4106.1091655130103391
 20
170.6913859165242968
 30
0.0
 40
0.0078740157
 50
270.0
 51
351.9999999999989768
  0
ARC
  5
17161
  8
0
  6
CONTINUOUS
 62
     7
 10
4106.016555855309889
 20
170.6913859165242968
 30
0.0
 40
0.0078740157
 50
188.0000000000009095
 51
270.0
  0
ARC
  5
17162
  8
0
  6
CONTINUOUS
 62
     7
 10
4105.604723129778904
 20
170.6913865495401126
 30
0.0
 40
0.0078752582051618
 50
188.0033796726553135
 51
270.7128384063590261
  0
ARC
  5
17163
  8
0
  6
CONTINUOUS
 62
     7
 10
4105.6917527057012194
 20
170.6913859164847054
 30
0.0
 40
0.0078740156858378
 50
187.9999997235258036
 51
269.9953943362468181
  0
ARC
  5
17164
  8
0
  6
CONTINUOUS
 62
     7
 10
4106.2599071793092662
 20
170.6913859165242968
 30
0.0
 40
0.0078740157
 50
270.0
 51
351.9999999999989768
  0
ARC
  5
17165
  8
0
  6
CONTINUOUS
 62
     7
 10
4106.1672975231531382
 20
170.6913859173623962
 30
0.0
 40
0.0078740173452765
 50
188.0000044760824096
 51
270.0259428114296156
  0
LINE
  5
17166
  8
0
 10
4108.5753308065086458
 20
154.7724647162243059
 30
0.0
 11
4108.5753352036090291
 21
154.7724581471242971
 31
0.0
  0
LINE
  5
17167
  8
0
 10
4108.8345989710096546
 20
154.1659899635243107
 30
0.0
 11
4108.8373452714185987
 21
154.2417836668174118
 31
0.0
  0
LINE
  5
17168
  8
0
 10
4108.5554325832099494
 20
154.8256676424242926
 30
0.0
 11
4108.5554382398086091
 21
154.8256306885243134
 31
0.0
  0
LINE
  5
17169
  8
0
 10
4108.5690247332086074
 20
154.7888065947242922
 30
0.0
 11
4108.5591460459099835
 21
154.8531675530242921
 31
0.0
  0
LINE
  5
1716A
  8
0
 10
4108.7079051448099563
 20
154.1299230767243102
 30
0.0
 11
4108.6987568077656761
 21
154.1890163353434957
 31
0.0
  0
LINE
  5
1716B
  8
0
 10
4108.6958479655086194
 20
154.821930869824314
 30
0.0
 11
4108.699291077057751
 21
154.9039867488095865
 31
0.0
  0
LINE
  5
1716C
  8
0
 10
4108.6945561255088251
 20
154.1778814986242878
 30
0.0
 11
4108.6945552895103901
 21
154.1778775421242926
 31
0.0
  0
LINE
  5
1716D
  8
0
 10
4108.8338269687101274
 20
154.1598548975242977
 30
0.0
 11
4108.8338250014103323
 21
154.1598455557243028
 31
0.0
  0
ARC
  5
1716E
  8
0
 10
4108.7200100065419974
 20
154.1715883990449925
 30
0.0
 40
0.0261931951150582
 50
168.0524470725322885
 51
234.3675403475990038
  0
ARC
  5
1716F
  8
0
 10
4108.7585273400782171
 20
154.1604479904434868
 30
0.0
 40
0.0662470139955345
 50
130.7066582608435112
 51
165.5215305372971102
  0
ARC
  5
17170
  8
0
 10
4108.8157561943462497
 20
154.1019482357968968
 30
0.0
 40
0.1480095733830878
 50
96.4898395234241661
 51
132.7316857379674957
  0
ARC
  5
17171
  8
0
 10
4108.8077117719703892
 20
154.1796781106268099
 30
0.0
 40
0.0698730578521705
 50
72.3056388342078407
 51
97.1398684272948429
  0
ARC
  5
17172
  8
0
 10
4108.8234806343070886
 20
154.2258244303332049
 30
0.0
 40
0.0211406100062616
 50
357.5939241771387742
 51
75.0092208568430863
  0
ARC
  5
17173
  8
0
 10
4108.7903844086113168
 20
154.2300493962320047
 30
0.0
 40
0.0544587040876716
 50
326.5691027900613221
 51
354.6132458002924182
  0
ARC
  5
17174
  8
0
 10
4108.795286340327948
 20
154.1678209067524108
 30
0.0
 40
0.0393552446843543
 50
339.2161671396315228
 51
357.3334380028585997
  0
ARC
  5
17175
  8
0
 10
4108.7379914538878438
 20
154.1347009561233108
 30
0.0
 40
0.0304633242685985
 50
189.0235479702884902
 51
235.953329317812603
  0
ARC
  5
17176
  8
0
 10
4108.7456768646698038
 20
154.1460931236385932
 30
0.0
 40
0.0442054838165565
 50
235.966444411991489
 51
264.9658661460529743
  0
ARC
  5
17177
  8
0
 10
4108.7669945261968678
 20
154.1805612926758897
 30
0.0
 40
0.0703517464843254
 50
306.9692624806348249
 51
337.6912657549123082
  0
ARC
  5
17178
  8
0
 10
4108.7424751374001062
 20
154.2076435111453918
 30
0.0
 40
0.1067860351059393
 50
285.4721501722644916
 51
308.7418086077939279
  0
ARC
  5
17179
  8
0
 10
4108.7493420103583048
 20
154.1802933671735047
 30
0.0
 40
0.0785981043789381
 50
264.4920559009917724
 51
285.9665283729422072
  0
ARC
  5
1717A
  8
0
 10
4108.7621666418190216
 20
154.1611299172379859
 30
0.0
 40
0.0375594645059162
 50
289.4940518256311748
 51
331.4395648680069826
  0
ARC
  5
1717B
  8
0
 10
4108.75987661061572
 20
154.1598916980142064
 30
0.0
 40
0.0372453378745397
 50
266.6589475432804761
 51
293.4537413868771978
  0
ARC
  5
1717C
  8
0
 10
4108.757773279164212
 20
154.1367603319432931
 30
0.0
 40
0.0140508276717838
 50
224.4752806412734003
 51
269.7255594282755737
  0
ARC
  5
1717D
  8
0
 10
4108.754805957489225
 20
154.1332175077525903
 30
0.0
 40
0.0094620422264962
 50
169.7177447267087018
 51
221.7549188110438081
  0
ARC
  5
1717E
  8
0
 10
4108.767195801687194
 20
154.1302894724709915
 30
0.0
 40
0.0221856597994293
 50
129.4766487508863122
 51
167.988572570975208
  0
ARC
  5
1717F
  8
0
 10
4108.7847668940967196
 20
154.112427257794792
 30
0.0
 40
0.0471958920224028
 50
108.9349391666756048
 51
132.1565499686464022
  0
ARC
  5
17180
  8
0
 10
4108.7829079097837166
 20
154.1189577209964057
 30
0.0
 40
0.0404171873215659
 50
91.9232291265394537
 51
109.4462884850621975
  0
ARC
  5
17181
  8
0
 10
4108.7825779526801853
 20
154.139690165260987
 30
0.0
 40
0.0196887507849869
 50
61.1679107447698485
 51
92.9884293230475834
  0
ARC
  5
17182
  8
0
 10
4108.7874955506440529
 20
154.1491330450523094
 30
0.0
 40
0.0090482959144663
 50
5.1778500120478723
 51
59.6113911237379028
  0
ARC
  5
17183
  8
0
 10
4108.7854360658502628
 20
154.1486344150117134
 30
0.0
 40
0.0111487079776205
 50
330.6696473032625931
 51
6.774979192643686
  0
ARC
  5
17184
  8
0
 10
4108.6349222578810441
 20
154.8258477857376931
 30
0.0
 40
0.0610514871261498
 50
326.7613276597141976
 51
356.3215147030961134
  0
ARC
  5
17185
  8
0
 10
4108.6128412971866055
 20
154.8396089207639932
 30
0.0
 40
0.0870647664353623
 50
290.1414561553756926
 51
327.1518709228230932
  0
ARC
  5
17186
  8
0
 10
4108.6170168831113187
 20
154.823472460069496
 30
0.0
 40
0.0704962979589726
 50
257.8842237357175122
 51
291.4713826256927973
  0
ARC
  5
17187
  8
0
 10
4108.6107026359450174
 20
154.7959773648653083
 30
0.0
 40
0.0422902769072442
 50
189.7622798464560105
 51
258.4298399144497012
  0
ARC
  5
17188
  8
0
 10
4108.6305632977719142
 20
154.8827799899316062
 30
0.0
 40
0.0756579118002353
 50
331.2153194440260791
 51
356.4833314074605823
  0
ARC
  5
17189
  8
0
 10
4108.6701897274278963
 20
154.8825296135144924
 30
0.0
 40
0.0361565651762599
 50
353.0255106553942142
 51
55.7622309758847976
  0
ARC
  5
1718A
  8
0
 10
4108.6612780063787795
 20
154.8682781337109873
 30
0.0
 40
0.05295639223506
 50
56.4664639635827399
 51
97.8599387251163364
  0
ARC
  5
1718B
  8
0
 10
4108.6650516236986732
 20
154.8068316139294893
 30
0.0
 40
0.1144368053055488
 50
95.5237544410779265
 51
122.3589786380553051
  0
ARC
  5
1718C
  8
0
 10
4108.6661465113393206
 20
154.8012761984097097
 30
0.0
 40
0.1197330612703009
 50
121.3786551553708932
 51
145.9824129133789086
  0
ARC
  5
1718D
  8
0
 10
4108.6275261905338994
 20
154.8275603320659002
 30
0.0
 40
0.0730176276260277
 50
146.1236448822899092
 51
171.5815609290029045
  0
ARC
  5
1718E
  8
0
 10
4108.5984852652691188
 20
154.8324293790253137
 30
0.0
 40
0.043580437289387
 50
172.3243321949707934
 51
223.6375409932639968
  0
ARC
  5
1718F
  8
0
 10
4108.6417047822769746
 20
154.8047312759375131
 30
0.0
 40
0.0170462324148883
 50
36.7036738520130328
 51
89.0353678491068763
  0
ARC
  5
17190
  8
0
 10
4108.640502014401136
 20
154.7876891866754931
 30
0.0
 40
0.0341184454071166
 50
87.4974464775430079
 51
130.0436932347134018
  0
ARC
  5
17191
  8
0
 10
4108.6370578972291696
 20
154.7885130367561999
 30
0.0
 40
0.0313427717375912
 50
126.1898135531145044
 51
162.0351979152254955
  0
ARC
  5
17192
  8
0
 10
4108.6217330088429662
 20
154.7931008584043866
 30
0.0
 40
0.0153542770692389
 50
160.6821912424464074
 51
227.5924042516053021
  0
ARC
  5
17193
  8
0
 10
4108.6244721738848966
 20
154.7994225094400065
 30
0.0
 40
0.0219837645962753
 50
233.4427548348240862
 51
285.0066547502585763
  0
ARC
  5
17194
  8
0
 10
4108.6222751225341199
 20
154.8152208436123942
 30
0.0
 40
0.0378634021902169
 50
282.0264410483557072
 51
317.2820335385753765
  0
ARC
  5
17195
  8
0
 10
4108.6313892673351802
 20
154.8082406855436943
 30
0.0
 40
0.0264529832050458
 50
314.997197753862622
 51
355.0262120593292252
  0
ARC
  5
17196
  8
0
 10
4108.6429416184082584
 20
154.8068349046245089
 30
0.0
 40
0.0148276183493161
 50
356.5677927502753732
 51
33.0405780898866723
  0
ARC
  5
17197
  8
0
 10
4108.4817674141677344
 20
154.3933170489553959
 30
0.0
 40
0.031427413502651
 50
291.9304164931431842
 51
327.4925106728690025
  0
ARC
  5
17198
  8
0
 10
4108.4789853507154476
 20
154.3969092374182139
 30
0.0
 40
0.0358201496163567
 50
262.13259646881761
 51
293.9128610485877857
  0
ARC
  5
17199
  8
0
 10
4108.476372577559232
 20
154.3800280906930027
 30
0.0
 40
0.0187423117496096
 50
218.6152825855143078
 51
262.9808674014946064
  0
ARC
  5
1719A
  8
0
 10
4108.4716826993517316
 20
154.3752159378379929
 30
0.0
 40
0.0121033554354966
 50
174.7595974920917001
 51
214.6683784628887111
  0
ARC
  5
1719B
  8
0
 10
4108.4799177360036992
 20
154.3734549734496113
 30
0.0
 40
0.0204892978207288
 50
130.0233249739054031
 51
171.9580269243029136
  0
ARC
  5
1719C
  8
0
 10
4108.492614912085628
 20
154.3591249330974904
 30
0.0
 40
0.0396317925654246
 50
103.4565700630190008
 51
130.7572375282877886
  0
ARC
  5
1719D
  8
0
 10
4108.4913509908628839
 20
154.3638640821463071
 30
0.0
 40
0.0347288543856358
 50
82.7712340941064042
 51
103.2480621470027984
  0
ARC
  5
1719E
  8
0
 10
4108.493262650215911
 20
154.3775522071954072
 30
0.0
 40
0.02090970527268
 50
53.7632757598140785
 51
83.2482179183182325
  0
ARC
  5
1719F
  8
0
 10
4108.4977246889120579
 20
154.3840260422099107
 30
0.0
 40
0.0130524050164772
 50
25.26923977101848
 51
52.7631126028425612
  0
ARC
  5
171A0
  8
0
 10
4108.4967315223739206
 20
154.3841743429472899
 30
0.0
 40
0.0138984403452995
 50
326.1252852987079223
 51
22.9680176990396383
  0
ARC
  5
171A1
  8
0
 10
4108.1430444976404033
 20
154.8954784521405088
 30
0.0
 40
0.0322474426000278
 50
295.5939484086753168
 51
329.8074671230360764
  0
ARC
  5
171A2
  8
0
 10
4108.1433839368537519
 20
154.8954732847271885
 30
0.0
 40
0.0320975864090979
 50
259.0801770014213048
 51
295.0514628067650733
  0
ARC
  5
171A3
  8
0
 10
4108.140762641010042
 20
154.88418201945899
 30
0.0
 40
0.0205188126276766
 50
219.5861775897272139
 51
260.2945785287708986
  0
ARC
  5
171A4
  8
0
 10
4108.1390407148528539
 20
154.8811254947380007
 30
0.0
 40
0.0172898941603676
 50
187.0963043808351927
 51
215.4127421600836101
  0
ARC
  5
171A5
  8
0
 10
4108.1413380443782444
 20
154.8805489850373931
 30
0.0
 40
0.0195171815819172
 50
141.9944745345939907
 51
184.5828686438495936
  0
ARC
  5
171A6
  8
0
 10
4108.1513880152406273
 20
154.8728019097260926
 30
0.0
 40
0.0322063435751008
 50
99.8817592695507841
 51
142.1436010729015038
  0
ARC
  5
171A7
  8
0
 10
4108.151512342681599
 20
154.87535468619771
 30
0.0
 40
0.0297180642136842
 50
75.2592048585265729
 51
100.9626071829011948
  0
ARC
  5
171A8
  8
0
 10
4108.1542079068549356
 20
154.8847897954472899
 30
0.0
 40
0.0199086841946234
 50
39.077598111901068
 51
75.852394870976724
  0
ARC
  5
171A9
  8
0
 10
4108.1543965861274046
 20
154.8862484855488049
 30
0.0
 40
0.0188699293937541
 50
17.2104792888583802
 51
35.9989770495744494
  0
ARC
  5
171AA
  8
0
 10
4108.155232561595767
 20
154.8875133622501892
 30
0.0
 40
0.0177231973626868
 50
332.2492455848797022
 51
14.10257735238282
  0
ARC
  5
171AB
  8
0
 10
4107.9884922027486027
 20
155.3092348590897132
 30
0.0
 40
0.0311192487250961
 50
297.9831111969378981
 51
334.3098749905799991
  0
ARC
  5
171AC
  8
0
 10
4107.9892634823791013
 20
155.3065319949648142
 30
0.0
 40
0.0283765685716494
 50
256.1412830827097196
 51
299.1686392781214749
  0
ARC
  5
171AD
  8
0
 10
4107.9875990141799775
 20
155.2989452049434078
 30
0.0
 40
0.0206129298469039
 50
214.0668352099939966
 51
255.5819110375686023
  0
ARC
  5
171AE
  8
0
 10
4107.9872888728168618
 20
155.2983070442089968
 30
0.0
 40
0.0200016907066476
 50
188.8011504520729034
 51
213.0501142586298045
  0
ARC
  5
171AF
  8
0
 10
4107.9917892633429801
 20
155.2986159139070139
 30
0.0
 40
0.0244993487733766
 50
154.1644225291157966
 51
187.904580735626098
  0
ARC
  5
171B0
  8
0
 10
4107.9984337131108987
 20
155.2954234792352963
 30
0.0
 40
0.0318709138481843
 50
115.1174923378669064
 51
154.2044037440965099
  0
ARC
  5
171B1
  8
0
 10
4107.9972203013821854
 20
155.2992979569970942
 30
0.0
 40
0.0278530967551763
 50
76.545627642819241
 51
116.2406253636192019
  0
ARC
  5
171B2
  8
0
 10
4107.9987299267795606
 20
155.3065225434311003
 30
0.0
 40
0.0204766447252287
 50
35.9933681367195604
 51
75.9503012641801831
  0
ARC
  5
171B3
  8
0
 10
4107.9987409278455743
 20
155.3068630577739953
 30
0.0
 40
0.020269412094232
 50
5.2687540365637329
 51
35.2328478570353312
  0
ARC
  5
171B4
  8
0
 10
4107.9941633436810662
 20
155.3065726226462004
 30
0.0
 40
0.0248546715361103
 50
334.1729856245240171
 51
4.9664436843341528
  0
ARC
  5
171B5
  8
0
 10
4107.4650982557641328
 20
155.1868840043545106
 30
0.0
 40
0.0242144557235793
 50
285.1829671124033894
 51
351.0227117221011781
  0
ARC
  5
171B6
  8
0
 10
4107.462187281077604
 20
155.1908725018695066
 30
0.0
 40
0.0288800933217787
 50
239.6245278826883123
 51
288.6863087478067769
  0
ARC
  5
171B7
  8
0
 10
4107.4581071974280349
 20
155.1835579262123019
 30
0.0
 40
0.0205072131696491
 50
196.0741165053051134
 51
239.125218772487699
  0
ARC
  5
171B8
  8
0
 10
4107.4564492759836867
 20
155.1827102799495037
 30
0.0
 40
0.0186827942918682
 50
168.6760906514988108
 51
194.9839355396989902
  0
ARC
  5
171B9
  8
0
 10
4107.4603261602223938
 20
155.1815889214807953
 30
0.0
 40
0.0227069111472607
 50
128.440583378631203
 51
167.8224809304801965
  0
ARC
  5
171BA
  8
0
 10
4107.4647269294118814
 20
155.1765693532952923
 30
0.0
 40
0.0293762862266054
 50
97.6519580114035648
 51
129.0768935567562892
  0
ARC
  5
171BB
  8
0
 10
4107.4649103234596623
 20
155.1766018041143127
 30
0.0
 40
0.0293691337591335
 50
76.1575701300942143
 51
98.014984790283961
  0
ARC
  5
171BC
  8
0
 10
4107.466011942955447
 20
155.1807644259471033
 30
0.0
 40
0.0250639485110599
 50
51.4355269408946967
 51
76.3260648682475704
  0
ARC
  5
171BD
  8
0
 10
4107.4681895833200542
 20
155.1837165159118967
 30
0.0
 40
0.0213986007904191
 50
37.4094747440615834
 51
51.0670799378834914
  0
ARC
  5
171BE
  8
0
 10
4107.4685931123885894
 20
155.1847037395941129
 30
0.0
 40
0.0204854190856556
 50
355.5253544371170733
 51
35.901715723281022
  0
ARC
  5
171BF
  8
0
 10
4107.7175267795719265
 20
154.5609416923568915
 30
0.0
 40
0.0194363704276034
 50
301.4007967432949044
 51
342.9289720984143059
  0
ARC
  5
171C0
  8
0
 10
4107.7093869131604151
 20
154.5726938106357977
 30
0.0
 40
0.0337184457096357
 50
251.1024973047364881
 51
302.8021720302351127
  0
ARC
  5
171C1
  8
0
 10
4107.7056520570222347
 20
154.5615750544017999
 30
0.0
 40
0.0219894690847553
 50
215.2908727975340923
 51
250.9264759799694957
  0
ARC
  5
171C2
  8
0
 10
4107.7002813970138959
 20
154.5565671799944027
 30
0.0
 40
0.0147455121272858
 50
173.8492467705241893
 51
211.4614541911633978
  0
ARC
  5
171C3
  8
0
 10
4107.7032776247915535
 20
154.5551118508226978
 30
0.0
 40
0.0179158371537754
 50
128.6285228505120983
 51
170.2461179000762002
  0
ARC
  5
171C4
  8
0
 10
4107.7119129940701896
 20
154.5447806166073974
 30
0.0
 40
0.0313788897201931
 50
96.7672262475093987
 51
129.170048561493104
  0
ARC
  5
171C5
  8
0
 10
4107.7127982013389556
 20
154.5421214636411946
 30
0.0
 40
0.0341285144784599
 50
77.4890192645190581
 51
97.7169743470724228
  0
ARC
  5
171C6
  8
0
 10
4107.7146288377907695
 20
154.5497487538868029
 30
0.0
 40
0.0262861193388095
 50
56.7155763090516771
 51
77.7830447912266294
  0
ARC
  5
171C7
  8
0
 10
4107.7187550768667279
 20
154.5560719585481024
 30
0.0
 40
0.0187357445336574
 50
37.7898141439537127
 51
56.6519983498855595
  0
ARC
  5
171C8
  8
0
 10
4107.7227133607902942
 20
154.5588892397267955
 30
0.0
 40
0.0138827475645012
 50
344.7430114180950227
 51
38.6115863361098732
  0
ARC
  5
171C9
  8
0
 10
4107.3090117957590337
 20
154.7385411022052892
 30
0.0
 40
0.0173624343250703
 50
305.6046730819543882
 51
358.8120117963484859
  0
ARC
  5
171CA
  8
0
 10
4107.3001552039058879
 20
154.7507871085095985
 30
0.0
 40
0.0324753812611616
 50
244.2002970379776059
 51
305.7306207941441016
  0
ARC
  5
171CB
  8
0
 10
4107.2943431789599344
 20
154.7393854868502103
 30
0.0
 40
0.0196825721383908
 50
201.096941380932293
 51
244.9874569968812068
  0
ARC
  5
171CC
  8
0
 10
4107.2896144714122784
 20
154.7369493616749878
 30
0.0
 40
0.0144052523350703
 50
163.6452798411689002
 51
198.826215843957101
  0
ARC
  5
171CD
  8
0
 10
4107.2941894687828608
 20
154.7350758401279052
 30
0.0
 40
0.0193293982506127
 50
123.6795053485603972
 51
162.1349442247019965
  0
ARC
  5
171CE
  8
0
 10
4107.3005644714212394
 20
154.7262367368562082
 30
0.0
 40
0.0302228084788016
 50
98.2970167036008178
 51
124.4440544841633027
  0
ARC
  5
171CF
  8
0
 10
4107.3014301998146038
 20
154.722428213051387
 30
0.0
 40
0.0341177802513241
 50
83.2968416761191293
 51
98.812718016619101
  0
ARC
  5
171D0
  8
0
 10
4107.3018013430928477
 20
154.7251870598462062
 30
0.0
 40
0.0313345050758513
 50
70.0436094903351858
 51
83.382011436233995
  0
ARC
  5
171D1
  8
0
 10
4107.3040281738722115
 20
154.7308835618150056
 30
0.0
 40
0.0252204741552454
 50
50.14858338880952
 51
70.3818182545981159
  0
ARC
  5
171D2
  8
0
 10
4107.3099986506367713
 20
154.7374087977626971
 30
0.0
 40
0.0163900544601638
 50
2.7008921460238362
 51
51.5548034704393814
  0
ARC
  5
171D3
  8
0
 10
4107.3743235893216479
 20
154.4911978927167127
 30
0.0
 40
0.020984671724632
 50
299.0425161449002189
 51
334.1973136675842966
  0
ARC
  5
171D4
  8
0
 10
4107.3681224388983537
 20
154.5029977817497127
 30
0.0
 40
0.0343126133835843
 50
250.9538847581430048
 51
298.5299751072806771
  0
ARC
  5
171D5
  8
0
 10
4107.3626621700796022
 20
154.4899141241226914
 30
0.0
 40
0.0201830709523342
 50
201.9896576506519921
 51
253.4862846605925029
  0
ARC
  5
171D6
  8
0
 10
4107.3567296876517503
 20
154.4864192924216866
 30
0.0
 40
0.0134123488667869
 50
150.5874516147698898
 51
197.6314246909662131
  0
ARC
  5
171D7
  8
0
 10
4107.3618475783978283
 20
154.4836422229375898
 30
0.0
 40
0.0192346101942492
 50
126.7929279649066956
 51
150.8681901055321077
  0
ARC
  5
171D8
  8
0
 10
4107.3680786054501368
 20
154.4751230666967103
 30
0.0
 40
0.0297889244735729
 50
100.2872261608186051
 51
126.5765571985842968
  0
ARC
  5
171D9
  8
0
 10
4107.3695234051865555
 20
154.4694947983327893
 30
0.0
 40
0.035587171121972
 50
82.5274057415527267
 51
100.9577506117365004
  0
ARC
  5
171DA
  8
0
 10
4107.370116735348347
 20
154.4734597066496917
 30
0.0
 40
0.0315788558710268
 50
66.7174440231068075
 51
82.6592146236956751
  0
ARC
  5
171DB
  8
0
 10
4107.3748835474589214
 20
154.4832215824723107
 30
0.0
 40
0.0207342872073902
 50
34.2855059219139306
 51
68.1548023815537931
  0
ARC
  5
171DC
  8
0
 10
4107.3809203011178397
 20
154.4873885804491067
 30
0.0
 40
0.0133992007617439
 50
336.5846657213295998
 51
34.1044677208555669
  0
ARC
  5
171DD
  8
0
 10
4107.494116104029672
 20
153.9118051763736048
 30
0.0
 40
0.0299693681012882
 50
282.7003094650046933
 51
307.031681563052814
  0
ARC
  5
171DE
  8
0
 10
4107.4919633814652116
 20
153.9177545651062076
 30
0.0
 40
0.0362551277611691
 50
245.8852941462938873
 51
283.9521578821087928
  0
ARC
  5
171DF
  8
0
 10
4107.4845805478889815
 20
153.9013583722640135
 30
0.0
 40
0.018273518920174
 50
209.9070595078374026
 51
246.0095289983883902
  0
ARC
  5
171E0
  8
0
 10
4107.4787446502941748
 20
153.8975995369019927
 30
0.0
 40
0.0113459767758587
 50
156.2212777829138872
 51
208.1466757205994895
  0
ARC
  5
171E1
  8
0
 10
4107.4864965393962848
 20
153.8931381598501105
 30
0.0
 40
0.0202612712622782
 50
112.4953085832452047
 51
153.5138956111856885
  0
ARC
  5
171E2
  8
0
 10
4107.4935257000488491
 20
153.8794207814092942
 30
0.0
 40
0.0356460992339249
 50
94.4089627638854836
 51
114.4983824432779045
  0
ARC
  5
171E3
  8
0
 10
4107.4939846980687435
 20
153.877764366698699
 30
0.0
 40
0.0373343588006211
 50
76.2072306656621805
 51
94.9158740078620298
  0
ARC
  5
171E4
  8
0
 10
4107.4962655336839816
 20
153.886718869002209
 30
0.0
 40
0.028094403614378
 50
58.889126657822068
 51
76.3708222117606539
  0
ARC
  5
171E5
  8
0
 10
4107.5037508297573368
 20
153.8977854084727142
 30
0.0
 40
0.014768112057062
 50
8.3208092840738104
 51
61.5695932583222572
  0
ARC
  5
171E6
  8
0
 10
4107.5040673163457541
 20
153.8996648049663065
 30
0.0
 40
0.0142984897771478
 50
304.4965073851572015
 51
1.0330091329868789
  0
ARC
  5
171E7
  8
0
 10
4107.8453603773323266
 20
153.9383241263900004
 30
0.0
 40
0.0286131430178031
 50
286.6215176405397074
 51
315.0677558643473049
  0
ARC
  5
171E8
  8
0
 10
4107.8417677904044467
 20
153.9487610922234921
 30
0.0
 40
0.0396442897571217
 50
259.1018014055958929
 51
287.2820037417878893
  0
ARC
  5
171E9
  8
0
 10
4107.8383282923632578
 20
153.9326156569784985
 30
0.0
 40
0.0231420370628997
 50
225.0096055781328062
 51
259.9063139376444269
  0
ARC
  5
171EA
  8
0
 10
4107.830629643026441
 20
153.9244784038938008
 30
0.0
 40
0.0119482884400406
 50
184.3381172090508073
 51
223.5312269231569928
  0
ARC
  5
171EB
  8
0
 10
4107.8310835020256491
 20
153.9241041652502986
 30
0.0
 40
0.0123792477187508
 50
147.2410605289070133
 51
182.4517267472382116
  0
ARC
  5
171EC
  8
0
 10
4107.8453489369294402
 20
153.908687814260702
 30
0.0
 40
0.0338209441155743
 50
96.9624552266300128
 51
121.4632637910715971
  0
ARC
  5
171ED
  8
0
 10
4107.8466084697447513
 20
153.9060584760960069
 30
0.0
 40
0.0365954298270208
 50
73.8086416800136789
 51
98.4210495326344557
  0
ARC
  5
171EE
  8
0
 10
4107.8502309891673576
 20
153.9185963600631055
 30
0.0
 40
0.02354473192339
 50
52.6038241351364704
 51
73.7665248330097114
  0
ARC
  5
171EF
  8
0
 10
4107.8554471527822898
 20
153.9255410524187084
 30
0.0
 40
0.0148597726677684
 50
30.5723414335626984
 51
52.3197995371103701
  0
ARC
  5
171F0
  8
0
 10
4107.8586443298681843
 20
153.927467001218389
 30
0.0
 40
0.0111275014746245
 50
338.4476441902332908
 51
30.4073085821059585
  0
ARC
  5
171F1
  8
0
 10
4107.5277205078946281
 20
153.6864795376066013
 30
0.0
 40
0.0272051557640691
 50
284.551322774573805
 51
308.7060703356590921
  0
ARC
  5
171F2
  8
0
 10
4107.5233424596654004
 20
153.6987209344144105
 30
0.0
 40
0.0401706667822056
 50
257.8944914974234734
 51
286.2089216988791804
  0
ARC
  5
171F3
  8
0
 10
4107.5194686056411228
 20
153.683387252235093
 30
0.0
 40
0.0243722768170513
 50
226.6583299462512002
 51
259.239413341618274
  0
ARC
  5
171F4
  8
0
 10
4107.5099149613142799
 20
153.6734765194291867
 30
0.0
 40
0.0106083445703982
 50
153.8763071093844133
 51
227.4464092628747949
  0
ARC
  5
171F5
  8
0
 10
4107.5168001544088838
 20
153.6694793151062015
 30
0.0
 40
0.0185585637238815
 50
118.9134922846307063
 51
152.1556542918114019
  0
ARC
  5
171F6
  8
0
 10
4107.5249842776192963
 20
153.6560522166722933
 30
0.0
 40
0.0342755041265957
 50
98.0682034113324761
 51
120.0371132389562945
  0
ARC
  5
171F7
  8
0
 10
4107.5263978344328279
 20
153.6499738865651068
 30
0.0
 40
0.0404957515348477
 50
81.6239088219375049
 51
98.8413914268742246
  0
ARC
  5
171F8
  8
0
 10
4107.5280160880265612
 20
153.6594328841972867
 30
0.0
 40
0.0309027250771198
 50
62.6936341480475932
 51
82.0375512657431187
  0
ARC
  5
171F9
  8
0
 10
4107.5360850912893511
 20
153.6735198575470918
 30
0.0
 40
0.0147009074096627
 50
15.6131083586603605
 51
65.4520127087929353
  0
ARC
  5
171FA
  8
0
 10
4107.5375006198537449
 20
153.6758646440486018
 30
0.0
 40
0.0128444630460863
 50
304.2663755630504738
 51
7.2089031205205174
  0
ARC
  5
171FB
  8
0
 10
4107.8363232338779198
 20
153.4343145217366953
 30
0.0
 40
0.0353347534138922
 50
284.0242105528088246
 51
305.9301573918911004
  0
ARC
  5
171FC
  8
0
 10
4107.832178964970808
 20
153.4458224140259119
 30
0.0
 40
0.0475198966223965
 50
261.8755649621252246
 51
285.5098423863506127
  0
ARC
  5
171FD
  8
0
 10
4107.8277242907952314
 20
153.4199372137636033
 30
0.0
 40
0.0212782285703757
 50
226.6183355711443994
 51
263.9002986678743241
  0
ARC
  5
171FE
  8
0
 10
4107.8184756283881143
 20
153.4092475748599043
 30
0.0
 40
0.007183404866023
 50
156.3437412189607869
 51
221.6641363053643943
  0
ARC
  5
171FF
  8
0
 10
4107.8302040157950614
 20
153.402477724058798
 30
0.0
 40
0.0206967031404634
 50
109.7348140614188026
 51
152.2015139967475932
  0
ARC
  5
17200
  8
0
 10
4107.8413708617208613
 20
153.3795412821581863
 30
0.0
 40
0.046139652050104
 50
96.8915850592128862
 51
113.1717691397799967
  0
ARC
  5
17201
  8
0
 10
4107.8417149845481617
 20
153.3801259968693955
 30
0.0
 40
0.0456023129089182
 50
82.2097501819543908
 51
97.4089832420203692
  0
ARC
  5
17202
  8
0
 10
4107.8439136636879994
 20
153.3958480659121903
 30
0.0
 40
0.0297273574233742
 50
67.7853151773506255
 51
82.3009314671055563
  0
ARC
  5
17203
  8
0
 10
4107.8490515611592855
 20
153.4082684681735032
 30
0.0
 40
0.0162864620337065
 50
48.4841657048251164
 51
67.9986776961941644
  0
ARC
  5
17204
  8
0
 10
4107.8551284723889694
 20
153.4146087269394059
 30
0.0
 40
0.0075191541459097
 50
335.4859841601056019
 51
51.1348034070609003
  0
ARC
  5
17205
  8
0
 10
4108.3674027652568839
 20
153.8477336227464889
 30
0.0
 40
0.031729923886477
 50
287.0504999508175956
 51
320.9375099347705032
  0
ARC
  5
17206
  8
0
 10
4108.362632379599745
 20
153.8560965677093861
 30
0.0
 40
0.0411780574120249
 50
262.0866691855511021
 51
289.9856870975864922
  0
ARC
  5
17207
  8
0
 10
4108.3584047989397732
 20
153.8315112893695868
 30
0.0
 40
0.0162646732486187
 50
213.9531585089978023
 51
264.9149539964304836
  0
ARC
  5
17208
  8
0
 10
4108.3532402899636509
 20
153.8267666287594864
 30
0.0
 40
0.0093898064882337
 50
162.3580047768508052
 51
207.5252658783956861
  0
ARC
  5
17209
  8
0
 10
4108.3642426263886591
 20
153.8221278237369063
 30
0.0
 40
0.0213082667246678
 50
118.4215419725655067
 51
159.4361226879915137
  0
ARC
  5
1720A
  8
0
 10
4108.3764329813775475
 20
153.8042049645389966
 30
0.0
 40
0.0429288641042635
 50
98.1959304106561035
 51
121.3465024688324974
  0
ARC
  5
1720B
  8
0
 10
4108.3762085018997823
 20
153.8082468500628011
 30
0.0
 40
0.0388978705005006
 50
84.6048994965118055
 51
98.7174003843224313
  0
ARC
  5
1720C
  8
0
 10
4108.3778343432240945
 20
153.8226428643696124
 30
0.0
 40
0.0244142027533523
 50
63.4218040433899972
 51
85.2270067635668056
  0
ARC
  5
1720D
  8
0
 10
4108.3842982748683426
 20
153.8346699196459895
 30
0.0
 40
0.0107734452289398
 50
11.9487217561703591
 51
65.5481124013910801
  0
ARC
  5
1720E
  8
0
 10
4108.3828784835914121
 20
153.835545172608505
 30
0.0
 40
0.0120363517255772
 50
319.5642278717388081
 51
6.4649615854814266
  0
ARC
  5
1720F
  8
0
 10
4108.3578548126452006
 20
153.5670307858173942
 30
0.0
 40
0.0440450032324722
 50
289.9900898395804916
 51
310.5471985245046085
  0
ARC
  5
17210
  8
0
 10
4108.3528304457850027
 20
153.5765499185498015
 30
0.0
 40
0.054727920869971
 50
270.3900560530963162
 51
291.5265980459963089
  0
ARC
  5
17211
  8
0
 10
4108.3529814138501024
 20
153.5438986843134899
 30
0.0
 40
0.0220765306933112
 50
245.9773551932939881
 51
270.5751434555560877
  0
ARC
  5
17212
  8
0
 10
4108.3461108004003108
 20
153.529604078838787
 30
0.0
 40
0.0062397470687544
 50
162.2216612170113876
 51
250.1702138109058922
  0
ARC
  5
17213
  8
0
 10
4108.3563204597112417
 20
153.5251631427852033
 30
0.0
 40
0.0173534497137356
 50
125.2765247774781017
 51
158.54935066069649
  0
ARC
  5
17214
  8
0
 10
4108.3765818750143808
 20
153.498276208431804
 30
0.0
 40
0.0510147485440687
 50
103.4888332848612009
 51
126.4144009911446034
  0
ARC
  5
17215
  8
0
 10
4108.3776077365337187
 20
153.4982750218630088
 30
0.0
 40
0.051264891908661
 50
90.5053063984173036
 51
104.6035128479501992
  0
ARC
  5
17216
  8
0
 10
4108.3776716095808297
 20
153.5234590847103107
 30
0.0
 40
0.0260839394442861
 50
71.4595004238985609
 51
91.1334839441554863
  0
ARC
  5
17217
  8
0
 10
4108.3838555563443151
 20
153.5404320887141125
 30
0.0
 40
0.0080390272698714
 50
33.95655492687807
 51
74.7826776716394761
  0
ARC
  5
17218
  8
0
 10
4108.3766611658757029
 20
153.5454280275833128
 30
0.0
 40
0.0154061545651829
 50
309.6285590724685903
 51
340.0560730118336892
  0
ARC
  5
17219
  8
0
 10
4108.1919599071188713
 20
154.138886036247186
 30
0.0
 40
0.0589427170255943
 50
270.3328731548963901
 51
302.9505050367575905
  0
ARC
  5
1721A
  8
0
 10
4108.1918182538238398
 20
154.1266302312992877
 30
0.0
 40
0.0466884270793685
 50
241.909993871872814
 51
270.5940866405729821
  0
ARC
  5
1721B
  8
0
 10
4108.1800729833630612
 20
154.1036660712154003
 30
0.0
 40
0.0209037508772247
 50
197.8312914581665041
 51
240.6735308585857922
  0
ARC
  5
1721C
  8
0
 10
4108.1775131414397038
 20
154.1020130459376105
 30
0.0
 40
0.0179780512133399
 50
159.6781376993222068
 51
195.3135435560045039
  0
ARC
  5
1721D
  8
0
 10
4108.1895547889262161
 20
154.0968524473107095
 30
0.0
 40
0.0310693823391733
 50
124.3237154211044952
 51
158.4657222715927958
  0
ARC
  5
1721E
  8
0
 10
4108.2018320622883039
 20
154.08174535574841
 30
0.0
 40
0.0504945855000743
 50
113.3764667060433027
 51
126.1633273865269018
  0
ARC
  5
1721F
  8
0
 10
4108.2065828964559842
 20
154.0704999961548083
 30
0.0
 40
0.0627019738246603
 50
100.9117729485263055
 51
113.2842143475121048
  0
ARC
  5
17220
  8
0
 10
4108.2060688574174492
 20
154.0723269293916928
 30
0.0
 40
0.0608109733180906
 50
93.9765162227274544
 51
100.7620469467670006
  0
ARC
  5
17221
  8
0
 10
4108.2057988501810541
 20
154.0788049800376029
 30
0.0
 40
0.0543300916343615
 50
80.4956978044570803
 51
94.1662156216758177
  0
ARC
  5
17222
  8
0
 10
4108.2060103337425971
 20
154.1182413795669959
 30
0.0
 40
0.0339813529598531
 50
302.0039550575103817
 51
330.8686237495763862
  0
ARC
  5
17223
  8
0
 10
4108.1013973665585581
 20
154.5644395658214023
 30
0.0
 40
0.0510341017897213
 50
271.4016406738866749
 51
317.2963006867677223
  0
ARC
  5
17224
  8
0
 10
4108.1001817986871174
 20
154.5570475095680081
 30
0.0
 40
0.0436962969652801
 50
242.2100006312454923
 51
273.2324515591625982
  0
ARC
  5
17225
  8
0
 10
4108.0915587538365799
 20
154.5406255600508985
 30
0.0
 40
0.025148090308989
 50
203.7766733871742133
 51
242.1463007325708929
  0
ARC
  5
17226
  8
0
 10
4108.0876639701991735
 20
154.5382921089874912
 30
0.0
 40
0.0206508308758877
 50
178.9421480768226047
 51
202.2085337961651135
  0
ARC
  5
17227
  8
0
 10
4108.0930889290475534
 20
154.5374665639635907
 30
0.0
 40
0.0261001845227727
 50
140.7677281656879984
 51
177.349858331488889
  0
ARC
  5
17228
  8
0
 10
4108.1074920228129486
 20
154.5259378195702027
 30
0.0
 40
0.0445485501530819
 50
112.6443675432862932
 51
140.9985029184016128
  0
ARC
  5
17229
  8
0
 10
4108.1124847358951229
 20
154.5160657945409923
 30
0.0
 40
0.0555876672985279
 50
94.4250910899567231
 51
113.476201907264695
  0
ARC
  5
1722A
  8
0
 10
4108.1123105676715568
 20
154.5239603603183127
 30
0.0
 40
0.0477051842133497
 50
72.2129659225666103
 51
94.9481043331741432
  0
ARC
  5
1722B
  8
0
 10
4108.1177444325921897
 20
154.5401655063058115
 30
0.0
 40
0.0306155494171632
 50
40.886565761978801
 51
72.6317518991843087
  0
ARC
  5
1722C
  8
0
 10
4108.1229822611921918
 20
154.5461241021197054
 30
0.0
 40
0.0227808718287555
 50
314.3283589815100072
 51
38.1787045540575889
  0
ARC
  5
1722D
  8
0
 10
4107.6880723774884245
 20
154.8851013198755027
 30
0.0
 40
0.0321680382643214
 50
301.4566679328926284
 51
352.3022883957954718
  0
ARC
  5
1722E
  8
0
 10
4107.677758129513677
 20
154.8988980329932019
 30
0.0
 40
0.0493455450773672
 50
250.9623119324442087
 51
303.3130922369422251
  0
ARC
  5
1722F
  8
0
 10
4107.6732448709817618
 20
154.8849935984945034
 30
0.0
 40
0.0347304869907979
 50
224.55013641619081
 51
250.5183901264273914
  0
ARC
  5
17230
  8
0
 10
4107.6657771647041955
 20
154.8779285128647132
 30
0.0
 40
0.0244531837111498
 50
166.3021361906862978
 51
225.0281372956428925
  0
ARC
  5
17231
  8
0
 10
4107.6712252887673458
 20
154.876296619312086
 30
0.0
 40
0.0301342349323569
 50
139.1845093522350112
 51
165.7405574564398023
  0
ARC
  5
17232
  8
0
 10
4107.6804421764691142
 20
154.8682094283593074
 30
0.0
 40
0.0423958460081035
 50
113.0056518422936023
 51
139.0545753788636034
  0
ARC
  5
17233
  8
0
 10
4107.6840041779487365
 20
154.8609352489253865
 30
0.0
 40
0.0504854722992124
 50
95.5618789771100126
 51
113.5002384601318965
  0
ARC
  5
17234
  8
0
 10
4107.6839764481437669
 20
154.8625502975322945
 30
0.0
 40
0.0488755096391874
 50
80.2578537136259342
 51
95.7130240325869863
  0
ARC
  5
17235
  8
0
 10
4107.6860187090642285
 20
154.872068862919491
 30
0.0
 40
0.039150694282068
 50
54.6117864992751265
 51
80.8463706966226852
  0
ARC
  5
17236
  8
0
 10
4107.6943312952698761
 20
154.8826857149184946
 30
0.0
 40
0.0256890956411414
 50
355.7736741992284237
 51
56.0135888531727772
  0
ARC
  5
17237
  8
0
 10
4107.3877829726616255
 20
153.4828544547713136
 30
0.0
 40
0.0404927424634952
 50
277.5119807038797148
 51
319.0100950907445849
  0
ARC
  5
17238
  8
0
 10
4107.379686755621151
 20
153.5012090069494946
 30
0.0
 40
0.0600126173201539
 50
250.2031489887947089
 51
282.8923127541663121
  0
ARC
  5
17239
  8
0
 10
4107.3678862895922066
 20
153.4729984709055941
 30
0.0
 40
0.0295133390734015
 50
225.6551378815566977
 51
253.210775205744909
  0
ARC
  5
1723A
  8
0
 10
4107.3582187913643793
 20
153.4632052407162917
 30
0.0
 40
0.0157525577300597
 50
194.8700882046478
 51
225.9040780664051056
  0
ARC
  5
1723B
  8
0
 10
4107.3557541279669749
 20
153.462267965374906
 30
0.0
 40
0.013132749936974
 50
154.3059282161626982
 51
193.6772782079052888
  0
ARC
  5
1723C
  8
0
 10
4107.3724953497494425
 20
153.4500838949520016
 30
0.0
 40
0.0337072315877057
 50
111.4550052129232967
 51
147.9681831199903002
  0
ARC
  5
1723D
  8
0
 10
4107.3832940550473722
 20
153.4249313411498861
 30
0.0
 40
0.0610726091526427
 50
87.7764921485447474
 51
112.2527931522361939
  0
ARC
  5
1723E
  8
0
 10
4107.3845152096491802
 20
153.4222905042034881
 30
0.0
 40
0.0636778184159945
 50
77.4054953050725487
 51
88.9667060408345662
  0
ARC
  5
1723F
  8
0
 10
4107.3912944789290123
 20
153.4470418109953869
 30
0.0
 40
0.0380633970258891
 50
50.629451544420121
 51
79.2409331372411003
  0
ARC
  5
17240
  8
0
 10
4107.4071890423538207
 20
153.4649814273487891
 30
0.0
 40
0.0141417164627898
 50
322.0991279075267926
 51
54.3097801420066588
  0
ARC
  5
17241
  8
0
 10
4107.2235960127172802
 20
153.7870348576016966
 30
0.0
 40
0.0243212027554442
 50
284.7225126013314025
 51
299.3360470091511161
  0
ARC
  5
17242
  8
0
 10
4107.2190846612811583
 20
153.8003598515516899
 30
0.0
 40
0.0383676532572503
 50
253.0169203783731859
 51
286.1814313690838958
  0
ARC
  5
17243
  8
0
 10
4107.2137280281158382
 20
153.7850023264917922
 30
0.0
 40
0.0221244182929534
 50
216.3995633847899001
 51
254.6674856177386914
  0
ARC
  5
17244
  8
0
 10
4107.2045578321076391
 20
153.7780550369691923
 30
0.0
 40
0.010621794056916
 50
170.2268541660990024
 51
215.5895993761301099
  0
ARC
  5
17245
  8
0
 10
4107.2097032407264123
 20
153.7762619113314031
 30
0.0
 40
0.0160218528351579
 50
117.4973998253181975
 51
167.0292962112812063
  0
ARC
  5
17246
  8
0
 10
4107.2187187948811697
 20
153.7619058829043013
 30
0.0
 40
0.0329471084029915
 50
96.8507466619164745
 51
119.8784333405133964
  0
ARC
  5
17247
  8
0
 10
4107.2198535775069104
 20
153.7561566736004863
 30
0.0
 40
0.0387931360318651
 50
77.6053496690161495
 51
97.5019440629066025
  0
ARC
  5
17248
  8
0
 10
4107.223359519083715
 20
153.7688222140095888
 30
0.0
 40
0.0256799669022968
 50
44.9221144775125367
 51
79.17993942970989
  0
ARC
  5
17249
  8
0
 10
4107.2334453537569061
 20
153.7787842731970045
 30
0.0
 40
0.0115040617959837
 50
337.4649124651115244
 51
45.2620450536542833
  0
ARC
  5
1724A
  8
0
 10
4107.2274980630363643
 20
153.7824210528658
 30
0.0
 40
0.0184227118851262
 50
295.7845387846850258
 51
334.1047435705650059
  0
ARC
  5
1724B
  8
0
 10
4107.2243781725410372
 20
153.9838106312083994
 30
0.0
 40
0.0251537296533852
 50
281.0557171304590156
 51
325.5235235339577002
  0
ARC
  5
1724C
  8
0
 10
4107.2193225438677473
 20
153.9977644319660044
 30
0.0
 40
0.0398836145317527
 50
250.5014169711122918
 51
284.3414876002137817
  0
ARC
  5
1724D
  8
0
 10
4107.2127317071717698
 20
153.9813129436847134
 30
0.0
 40
0.0221874482650849
 50
208.6212055350725905
 51
252.3652074000536061
  0
ARC
  5
1724E
  8
0
 10
4107.2046726882927032
 20
153.9760875783134964
 30
0.0
 40
0.0126310649946725
 50
168.4591988832571872
 51
205.3241335251329076
  0
ARC
  5
1724F
  8
0
 10
4107.2092771748812083
 20
153.9742665762886134
 30
0.0
 40
0.0175280376262823
 50
121.4030964366395011
 51
165.637122764595091
  0
ARC
  5
17250
  8
0
 10
4107.2183672161418144
 20
153.9610991224890029
 30
0.0
 40
0.0335151971809887
 50
98.3434936714320713
 51
122.937731647123897
  0
ARC
  5
17251
  8
0
 10
4107.2199293773073805
 20
153.9538097033131976
 30
0.0
 40
0.0409570514929538
 50
83.5779032557973238
 51
99.026015291836984
  0
ARC
  5
17252
  8
0
 10
4107.2205373065271488
 20
153.9580486058673898
 30
0.0
 40
0.0366769807863481
 50
68.7312737986668765
 51
83.7809609546413157
  0
ARC
  5
17253
  8
0
 10
4107.2249254301013934
 20
153.968537510272995
 30
0.0
 40
0.0253123214345775
 50
44.6046087967532188
 51
69.3752068305612966
  0
ARC
  5
17254
  8
0
 10
4107.2338439050981833
 20
153.9766234601339079
 30
0.0
 40
0.0132942226784752
 50
327.9660381152360173
 51
46.7845920710056404
  0
ARC
  5
17255
  8
0
 10
4107.3422748970169778
 20
154.0647084304634973
 30
0.0
 40
0.0158274138999746
 50
303.9421512298313814
 51
358.8367389273694243
  0
ARC
  5
17256
  8
0
 10
4107.3298689967077735
 20
154.0827888844850122
 30
0.0
 40
0.0377544057329446
 50
246.9754295027447881
 51
304.240562887358692
  0
ARC
  5
17257
  8
0
 10
4107.322715301592325
 20
154.0674232768390084
 30
0.0
 40
0.0208227811593375
 50
206.3216408857873887
 51
248.5548381771608888
  0
ARC
  5
17258
  8
0
 10
4107.3157152837520698
 20
154.0632905614604908
 30
0.0
 40
0.0127302099107794
 50
166.7012453028681875
 51
203.6185764919617043
  0
ARC
  5
17259
  8
0
 10
4107.3212982146369541
 20
154.0609624119769876
 30
0.0
 40
0.0187247098098216
 50
118.740578342837793
 51
163.6966238830567022
  0
ARC
  5
1725A
  8
0
 10
4107.3303821162089662
 20
154.0463744781621074
 30
0.0
 40
0.0358960211782208
 50
92.9192321102260337
 51
120.2575681896352933
  0
ARC
  5
1725B
  8
0
 10
4107.3311110844742871
 20
154.0423342197148031
 30
0.0
 40
0.0399715736834048
 50
78.3932193236457238
 51
93.6678667950991155
  0
ARC
  5
1725C
  8
0
 10
4107.3324500259595879
 20
154.0485892034811002
 30
0.0
 40
0.0335751504862695
 50
64.684070258843974
 51
78.4838304469183186
  0
ARC
  5
1725D
  8
0
 10
4107.3358211648728684
 20
154.0557473248497899
 30
0.0
 40
0.0256629421364729
 50
51.3675446953466732
 51
64.6539490062648383
  0
ARC
  5
1725E
  8
0
 10
4107.3427105105110968
 20
154.0633668274375054
 30
0.0
 40
0.0154223246816757
 50
3.7932522403608369
 51
53.6890319734793309
  0
ARC
  5
1725F
  8
0
 10
4107.355837297225662
 20
154.1906657652388049
 30
0.0
 40
0.0312735501786447
 50
278.3585910617591139
 51
317.8583185180319219
  0
ARC
  5
17260
  8
0
 10
4107.3539446074655643
 20
154.1964354139230977
 30
0.0
 40
0.0372713900094493
 50
249.8459613069992997
 51
279.9481094292250987
  0
ARC
  5
17261
  8
0
 10
4107.3484593129805944
 20
154.1835454452674128
 30
0.0
 40
0.0232915164687171
 50
215.1370530877053113
 51
251.5884858700833036
  0
ARC
  5
17262
  8
0
 10
4107.3414805853672078
 20
154.1779970411697036
 30
0.0
 40
0.0144005950690309
 50
179.4348011779129024
 51
213.0642326632329002
  0
ARC
  5
17263
  8
0
 10
4107.3439261260245985
 20
154.1766149338567118
 30
0.0
 40
0.0169142469242369
 50
123.4777615997031006
 51
174.8300032804941111
  0
ARC
  5
17264
  8
0
 10
4107.3538333909546054
 20
154.1633749409666905
 30
0.0
 40
0.0334364963616306
 50
97.0392444890630088
 51
125.123518192694803
  0
ARC
  5
17265
  8
0
 10
4107.355234520085105
 20
154.1567859831586134
 30
0.0
 40
0.0401517309148082
 50
83.6996875666536084
 51
97.8713421631828737
  0
ARC
  5
17266
  8
0
 10
4107.3559975894440868
 20
154.1619095411066951
 30
0.0
 40
0.0349759287202252
 50
65.9116586769081607
 51
84.0210986896243242
  0
ARC
  5
17267
  8
0
 10
4107.3605578327833427
 20
154.1718863004848004
 30
0.0
 40
0.0240069069340631
 50
39.8613132439600975
 51
66.1292328486996439
  0
ARC
  5
17268
  8
0
 10
4107.3684404391433418
 20
154.1784531900271134
 30
0.0
 40
0.0137473118541979
 50
320.3564216291538855
 51
39.9091541142314625
  0
ARC
  5
17269
  8
0
 10
4107.2838252233023013
 20
154.3031598356207041
 30
0.0
 40
0.0390316054602642
 50
251.9078482204392913
 51
282.9409140224570933
  0
ARC
  5
1726A
  8
0
 10
4107.2811302583122597
 20
154.292937935979694
 30
0.0
 40
0.0284847721434559
 50
221.5019953692134891
 51
250.6754343325054037
  0
ARC
  5
1726B
  8
0
 10
4107.2713060071291693
 20
154.2831718443063949
 30
0.0
 40
0.0146776516645742
 50
184.831319683847795
 51
218.3613655483671039
  0
ARC
  5
1726C
  8
0
 10
4107.2725744292229137
 20
154.2824501888235886
 30
0.0
 40
0.0159022499269389
 50
126.3105053697941997
 51
181.854187670597895
  0
ARC
  5
1726D
  8
0
 10
4107.2815162119968591
 20
154.2725318304306086
 30
0.0
 40
0.0292200178731235
 50
108.0967480153816069
 51
128.9236431856760987
  0
ARC
  5
1726E
  8
0
 10
4107.2846390614322445
 20
154.2635245155944119
 30
0.0
 40
0.0387521734480245
 50
85.3940335832512858
 51
108.3488333175224057
  0
ARC
  5
1726F
  8
0
 10
4107.2851400601912246
 20
154.2663059758467909
 30
0.0
 40
0.0359405242322224
 50
68.3921735356184541
 51
85.8340674875344263
  0
ARC
  5
17270
  8
0
 10
4107.2888499471664545
 20
154.2753349249562973
 30
0.0
 40
0.0261801969772783
 50
47.8821029368978301
 51
68.6641076122528915
  0
ARC
  5
17271
  8
0
 10
4107.296528099628631
 20
154.2831869088884957
 30
0.0
 40
0.0152125035443514
 50
357.6710329089651168
 51
49.4995811961229535
  0
ARC
  5
17272
  8
0
 10
4107.1454695944994455
 20
154.3529434732568006
 30
0.0
 40
0.0259529049780835
 50
279.3083613595376278
 51
328.9719683205460115
  0
ARC
  5
17273
  8
0
 10
4107.1415153874713724
 20
154.3648616783951866
 30
0.0
 40
0.0384045429083313
 50
249.7673505554581936
 51
282.2552619830992171
  0
ARC
  5
17274
  8
0
 10
4107.1362144054992314
 20
154.3516288647458055
 30
0.0
 40
0.0241582624891992
 50
215.6283211971978915
 51
250.7102515215464962
  0
ARC
  5
17275
  8
0
 10
4107.1291708573744472
 20
154.3460089340852903
 30
0.0
 40
0.015166553803911
 50
194.6236115313199946
 51
213.8717195166306055
  0
ARC
  5
17276
  8
0
 10
4107.1299875321192303
 20
154.3453378833295062
 30
0.0
 40
0.0158105157561305
 50
122.8769924632366042
 51
191.5218599700918958
  0
ARC
  5
17277
  8
0
 10
4107.1408037482733562
 20
154.3313523513282064
 30
0.0
 40
0.0334608211150801
 50
93.076315064775045
 51
125.4326288869983017
  0
ARC
  5
17278
  8
0
 10
4107.1418064852623502
 20
154.3260825099266071
 30
0.0
 40
0.0387835369163475
 50
76.2737299873889327
 51
94.1378029706984449
  0
ARC
  5
17279
  8
0
 10
4107.1437758706433669
 20
154.3335053398274965
 30
0.0
 40
0.0311057675826278
 50
56.9189063896742269
 51
76.5533875846988252
  0
ARC
  5
1727A
  8
0
 10
4107.1490001359961752
 20
154.3415709695474902
 30
0.0
 40
0.0214960628322504
 50
37.359812856421712
 51
56.8522169635242065
  0
ARC
  5
1727B
  8
0
 10
4107.1551261982713186
 20
154.3458210638339096
 30
0.0
 40
0.0140518810846594
 50
333.5670089284112123
 51
38.7432657525260566
  0
ARC
  5
1727C
  8
0
 10
4107.586432131053698
 20
154.3242403719370088
 30
0.0
 40
0.0215076703778682
 50
286.1379071469812061
 51
341.9110874013376247
  0
ARC
  5
1727D
  8
0
 10
4107.580669009529629
 20
154.3364235211271875
 30
0.0
 40
0.0348789200469865
 50
245.9252071168976954
 51
289.671501244248077
  0
ARC
  5
1727E
  8
0
 10
4107.5739864144561579
 20
154.3216665865759012
 30
0.0
 40
0.0186797909017473
 50
207.9496872271045049
 51
246.1752575409961992
  0
ARC
  5
1727F
  8
0
 10
4107.5684614954216158
 20
154.3184678987443021
 30
0.0
 40
0.0123023542604602
 50
170.4374831378486874
 51
206.8501070772296941
  0
ARC
  5
17280
  8
0
 10
4107.573016386449126
 20
154.3170919353418924
 30
0.0
 40
0.0170331117241525
 50
124.6578283673356964
 51
168.4182235026023875
  0
ARC
  5
17281
  8
0
 10
4107.5808939889802787
 20
154.3074452781056038
 30
0.0
 40
0.0294646548588757
 50
100.4138307935732968
 51
126.5911215524455997
  0
ARC
  5
17282
  8
0
 10
4107.5828810425064148
 20
154.3007519474377887
 30
0.0
 40
0.0364145157247294
 50
83.0741793266298458
 51
101.5852683941859027
  0
ARC
  5
17283
  8
0
 10
4107.5837946547890169
 20
154.306659415548495
 30
0.0
 40
0.0304406086034371
 50
64.0172608297160366
 51
83.4404577576150217
  0
ARC
  5
17284
  8
0
 10
4107.5880013333407987
 20
154.3151284277292064
 30
0.0
 40
0.0209847662436447
 50
42.0570478029266965
 51
64.2117051951561137
  0
ARC
  5
17285
  8
0
 10
4107.5939653040813937
 20
154.320180966213286
 30
0.0
 40
0.0131743567993484
 50
348.5354138293251935
 51
43.1169101058354016
  0
ARC
  5
17286
  8
0
 10
4107.9182165578713466
 20
154.2604177819040103
 30
0.0
 40
0.0215537163803255
 50
287.4025883821777825
 51
344.1663815519895024
  0
ARC
  5
17287
  8
0
 10
4107.9113033232815724
 20
154.2733349631494946
 30
0.0
 40
0.0360510527455809
 50
256.2821440040913217
 51
291.7510582048782908
  0
ARC
  5
17288
  8
0
 10
4107.9070969058548144
 20
154.2586850827428862
 30
0.0
 40
0.0208305449766855
 50
214.7015382722607058
 51
257.9666802276906878
  0
ARC
  5
17289
  8
0
 10
4107.9004779946699273
 20
154.2533511195890981
 30
0.0
 40
0.0123677164228107
 50
173.1124848258357076
 51
211.84176069959301
  0
ARC
  5
1728A
  8
0
 10
4107.9058183198903862
 20
154.2516920943716912
 30
0.0
 40
0.0178967868778197
 50
123.7214703792106008
 51
169.8880746245660021
  0
ARC
  5
1728B
  8
0
 10
4107.9148014985612463
 20
154.2403286095567125
 30
0.0
 40
0.0323563041262984
 50
99.5780442688227652
 51
125.7817094378114007
  0
ARC
  5
1728C
  8
0
 10
4107.9161330102560896
 20
154.2359490882602131
 30
0.0
 40
0.03690095104846
 50
85.9417694716544958
 51
100.485222954865705
  0
ARC
  5
1728D
  8
0
 10
4107.9166389893962332
 20
154.2415702875927934
 30
0.0
 40
0.0312582205821889
 50
69.9965416184540175
 51
86.1377095485149766
  0
ARC
  5
1728E
  8
0
 10
4107.9205141738711973
 20
154.2513092288928931
 30
0.0
 40
0.0207835105310761
 50
44.2913857051523365
 51
70.8510011828466162
  0
ARC
  5
1728F
  8
0
 10
4107.9263591311218988
 20
154.2567674744987016
 30
0.0
 40
0.0127893601791684
 50
349.9560412166044898
 51
45.073514952423551
  0
ARC
  5
17290
  8
0
 10
4107.9235671286041907
 20
153.7366388337015053
 30
0.0
 40
0.0602618695515668
 50
268.4298271838617893
 51
305.5504633942375108
  0
ARC
  5
17291
  8
0
 10
4107.9213510818899522
 20
153.7213154578219871
 30
0.0
 40
0.0449194171307596
 50
236.713319530223913
 51
270.7204294382283933
  0
ARC
  5
17292
  8
0
 10
4107.9069931832518705
 20
153.6981248479384021
 30
0.0
 40
0.0176684486368098
 50
190.1218263408366909
 51
234.3603151243559068
  0
ARC
  5
17293
  8
0
 10
4107.904797955408867
 20
153.696865822255802
 30
0.0
 40
0.0153099399587562
 50
158.5504157607767866
 51
186.9255239166303113
  0
ARC
  5
17294
  8
0
 10
4107.9143165557616157
 20
153.6924546270446115
 30
0.0
 40
0.0257899472539004
 50
128.3987064022462903
 51
157.1620041474344021
  0
ARC
  5
17295
  8
0
 10
4107.928607836836818
 20
153.6749148419245898
 30
0.0
 40
0.0484137178432382
 50
109.4585722285158056
 51
128.7604878901572931
  0
ARC
  5
17296
  8
0
 10
4107.9341736720407425
 20
153.6608346127395919
 30
0.0
 40
0.0635462860558511
 50
98.6424691645197527
 51
109.9611971690099068
  0
ARC
  5
17297
  8
0
 10
4107.9345809005435513
 20
153.6728753654539901
 30
0.0
 40
0.0517507398094324
 50
63.5496598316232522
 51
101.0921700218186032
  0
ARC
  5
17298
  8
0
 10
4107.9488710269733929
 20
153.7012156383387946
 30
0.0
 40
0.0200126982318498
 50
23.1226213717997418
 51
64.038851127605966
  0
ARC
  5
17299
  8
0
 10
4107.9434981192971463
 20
153.7083294662099036
 30
0.0
 40
0.0256421482103723
 50
306.0949974789429007
 51
337.3763246183723936
  0
ARC
  5
1729A
  8
0
 10
4108.3858648512577929
 20
153.5418993390333071
 30
0.0
 40
0.0055536490145152
 50
341.8894911379396149
 51
32.9794322030996625
  0
ARC
  5
1729B
  8
0
 10
4108.2116011974449066
 20
154.1022138619107125
 30
0.0
 40
0.0303413499797283
 50
45.0375085837679805
 51
84.0053295632567369
  0
ARC
  5
1729C
  8
0
 10
4108.2209694513221621
 20
154.1113074879544058
 30
0.0
 40
0.0172881482044932
 50
11.01722836132498
 51
45.7094288289714896
  0
ARC
  5
1729D
  8
0
 10
4108.2194581811781973
 20
154.1111739268937981
 30
0.0
 40
0.0187977509544567
 50
329.7312225844136719
 51
10.5365191389031203
  0
ARC
  5
1729E
  8
0
 10
4107.8481382452018806
 20
153.4182533147553897
 30
0.0
 40
0.0153970909274458
 50
305.4005886881529932
 51
333.9388600067970856
  0
ARC
  5
1729F
  8
0
 10
4107.5388605594071123
 20
153.2285020232318118
 30
0.0
 40
0.0626911353957424
 50
282.1155199837609757
 51
293.445448955724089
  0
ARC
  5
172A0
  8
0
 10
4107.5391609020198302
 20
153.2284324673917126
 30
0.0
 40
0.0625607142494666
 50
260.2104283540899132
 51
281.8599492729202893
  0
ARC
  5
172A1
  8
0
 10
4107.5324196972642312
 20
153.1879112485055998
 30
0.0
 40
0.0214847398008582
 50
241.1511106490582108
 51
259.5522884700463919
  0
ARC
  5
172A2
  8
0
 10
4107.5246073648586389
 20
153.174384726778186
 30
0.0
 40
0.0058759781698944
 50
192.0134291304258909
 51
244.2360315554267913
  0
ARC
  5
172A3
  8
0
 10
4107.5239581987707425
 20
153.1734007227076972
 30
0.0
 40
0.0051037217406178
 50
141.5597302887211129
 51
182.6843711208996979
  0
ARC
  5
172A4
  8
0
 10
4107.5313615331770052
 20
153.1673542704332078
 30
0.0
 40
0.0146621087246095
 50
118.693263984288194
 51
141.0388879176641979
  0
ARC
  5
172A5
  8
0
 10
4107.549877214791195
 20
153.1287287230528023
 30
0.0
 40
0.0574804464527376
 50
86.2384941970570651
 51
116.3971401370629053
  0
ARC
  5
172A6
  8
0
 10
4107.5518460814046193
 20
153.1435015737075105
 30
0.0
 40
0.0426218820701387
 50
74.9453437114351999
 51
87.5768129683794427
  0
ARC
  5
172A7
  8
0
 10
4107.5587593210511841
 20
153.1682687716985072
 30
0.0
 40
0.016910829288605
 50
54.1159605080140693
 51
75.7684325642823069
  0
ARC
  5
172A8
  8
0
 10
4107.5563302095679319
 20
153.187339767049906
 30
0.0
 40
0.0179799225706826
 50
294.561231273168687
 51
316.7592112770566928
  0
ARC
  5
172A9
  8
0
 10
4107.5663669158921039
 20
153.1782039594882008
 30
0.0
 40
0.0044152529444778
 50
313.8960967380876923
 51
58.5354794782514531
  0
ARC
  5
172AA
  8
0
 10
4107.9534365480958513
 20
153.7039115749639961
 30
0.0
 40
0.0147712068022436
 50
338.3649369277703727
 51
20.45888106431984
  0
ARC
  5
172AB
  8
0
 10
4107.8385264292001011
 20
153.9192113414869993
 30
0.0
 40
0.0212861250537642
 50
120.5839737311181068
 51
147.0062566952105101
  0
ARC
  5
172AC
  8
0
 10
4107.8540166841876271
 20
153.9292727567899988
 30
0.0
 40
0.0160949523322623
 50
316.1149772033534759
 51
338.5205155116133255
  0
ARC
  5
172AD
  8
0
 10
4107.2959714600301595
 20
154.2840666358858925
 30
0.0
 40
0.0158276177047179
 50
312.0688429689520831
 51
354.5694326695730751
  0
ARC
  5
172AE
  8
0
 10
4107.2872116050521072
 20
154.2927764958809007
 30
0.0
 40
0.0281704996279746
 50
280.9573417201754069
 51
313.4255489648093089
  0
ARC
  5
172AF
  8
0
 10
4107.6278728568031511
 20
154.1145512524803109
 30
0.0
 40
0.0317397381031189
 50
284.8490303634355882
 51
307.8167020121555879
  0
ARC
  5
172B0
  8
0
 10
4107.6267412048664482
 20
154.1178709759269054
 30
0.0
 40
0.0352394479318471
 50
245.6413142877202063
 51
285.2442964313825087
  0
ARC
  5
172B1
  8
0
 10
4107.6197017860367851
 20
154.1023764307990973
 30
0.0
 40
0.0182208286457904
 50
208.7439650715701021
 51
245.7107771327322894
  0
ARC
  5
172B2
  8
0
 10
4107.6143930438611278
 20
154.0990363254850877
 30
0.0
 40
0.0119658942454872
 50
156.9471264431581972
 51
206.9453257902650876
  0
ARC
  5
172B3
  8
0
 10
4107.621794280582435
 20
154.0950580302209119
 30
0.0
 40
0.0203482081272276
 50
114.4997950759734948
 51
154.7998147804588882
  0
ARC
  5
172B4
  8
0
 10
4107.6286528855316647
 20
154.0829975898300859
 30
0.0
 40
0.0341894386054958
 50
94.4830976491562211
 51
116.5778326644775973
  0
ARC
  5
172B5
  8
0
 10
4107.6292937199723383
 20
154.0811223629526978
 30
0.0
 40
0.0361123746671891
 50
75.5778938024293012
 51
95.2641981661648316
  0
ARC
  5
172B6
  8
0
 10
4107.6316560598270371
 20
154.0900439752263935
 30
0.0
 40
0.026883615765738
 50
57.0958531527037323
 51
75.7182308252380238
  0
ARC
  5
172B7
  8
0
 10
4107.6377687961976335
 20
154.099325021552886
 30
0.0
 40
0.0157710348872697
 50
7.6041165381923888
 51
57.4240700908244079
  0
ARC
  5
172B8
  8
0
 10
4107.6383619545686088
 20
154.1015484007731118
 30
0.0
 40
0.0150398054581813
 50
306.6219045251986017
 51
359.4802253097753919
  0
ARC
  5
172B9
  8
0
 10
4107.4694511741472525
 20
155.1978775730443942
 30
0.0
 40
0.0584870681791714
 50
299.3664631302639236
 51
352.575096231986322
  0
ARC
  5
172BA
  8
0
 10
4107.4608835810040546
 20
155.2092728902186138
 30
0.0
 40
0.0726438838910178
 50
245.3856080477332
 51
300.848220772373395
  0
ARC
  5
172BB
  8
0
 10
4107.4513529790965549
 20
155.1910974262256957
 30
0.0
 40
0.0521618940548916
 50
186.8006889646908064
 51
246.5877250616345862
  0
LINE
  5
172BC
  8
0
 10
4107.3995580917326151
 20
155.1849206281567035
 30
0.0
 11
4107.3901405129208797
 21
155.253923748208706
 31
0.0
  0
LINE
  5
172BD
  8
0
 10
4107.5274478333676598
 20
155.1903194870857021
 30
0.0
 11
4107.5355806425450282
 21
155.2636031828693888
 31
0.0
  0
ARC
  5
172BE
  8
0
 10
4107.4811682815507083
 20
155.2399441330780121
 30
0.0
 40
0.0593334278977885
 50
323.8348950169211093
 51
29.3912172417911108
  0
ARC
  5
172BF
  8
0
 10
4107.4724619656872164
 20
155.2312379640652864
 30
0.0
 40
0.0712689096473814
 50
32.0554542507501168
 51
85.9052413214999859
  0
ARC
  5
172C0
  8
0
 10
4107.4687258894073238
 20
155.212061411515208
 30
0.0
 40
0.0906939277987969
 50
84.4159061746048422
 51
132.7206670028224949
  0
ARC
  5
172C1
  8
0
 10
4107.4510743640430519
 20
155.2302183578902088
 30
0.0
 40
0.0653825645175194
 50
132.1511191274798023
 51
179.0633602084087954
  0
ARC
  5
172C2
  8
0
 10
4107.4433900589128825
 20
155.2325573788484974
 30
0.0
 40
0.0577035057141548
 50
181.2613570572729884
 51
217.972847607999995
  0
ARC
  5
172C3
  8
0
 10
4107.9862085864306209
 20
155.3233288204004907
 30
0.0
 40
0.0713148454364259
 50
304.1294633476712193
 51
355.2490845230988157
  0
ARC
  5
172C4
  8
0
 10
4107.9857215277070281
 20
155.3205393162490111
 30
0.0
 40
0.0693069979502805
 50
252.9471605158825867
 51
305.7568386429267093
  0
ARC
  5
172C5
  8
0
 10
4107.9809015123382778
 20
155.303732191572692
 30
0.0
 40
0.0518263087699614
 50
185.4166655316377899
 51
252.5926727584100036
  0
LINE
  5
172C6
  8
0
 10
4107.9293066313921372
 20
155.2988398975417113
 30
0.0
 11
4107.9202571097439431
 21
155.3683214235792889
 31
0.0
  0
LINE
  5
172C7
  8
0
 10
4108.0572784068417604
 20
155.3174222303204033
 30
0.0
 11
4108.0626504675683464
 21
155.3992519349033046
 31
0.0
  0
ARC
  5
172C8
  8
0
 10
4107.9889162545860017
 20
155.3711214772027915
 30
0.0
 40
0.0795031437827838
 50
330.7016255125781186
 51
9.7009033408562235
  0
ARC
  5
172C9
  8
0
 10
4108.0108320821718735
 20
155.3748659175830937
 30
0.0
 40
0.0572697381326114
 50
9.7029311201850064
 51
90.7958524126908344
  0
ARC
  5
172CA
  8
0
 10
4108.0106632456090665
 20
155.3368037238132047
 30
0.0
 40
0.0953284667615743
 50
90.3766286288909555
 51
141.9781594595322929
  0
ARC
  5
172CB
  8
0
 10
4107.9997368854810702
 20
155.3414987277542139
 30
0.0
 40
0.0838837991670754
 50
139.9070057592068963
 51
177.0161146125074083
  0
ARC
  5
172CC
  8
0
 10
4107.9763848355232767
 20
155.3437085417089065
 30
0.0
 40
0.0604565039580466
 50
177.9555594475712894
 51
217.1886712613778911
  0
LINE
  5
172CD
  8
0
 10
4108.083930318509374
 20
154.8795188853243019
 30
0.0
 11
4108.0736384756783082
 21
154.9454279316991858
 31
0.0
  0
LINE
  5
172CE
  8
0
 10
4108.2113646703091945
 20
154.8963453742242962
 30
0.0
 11
4108.2180285732638367
 21
154.9712779681917993
 31
0.0
  0
ARC
  5
172CF
  8
0
 10
4108.1579807917360085
 20
154.9018371066277098
 30
0.0
 40
0.053665609251292
 50
333.4170597771660027
 51
354.1265017175093135
  0
ARC
  5
172D0
  8
0
 10
4108.1420130689139114
 20
154.9124335534206125
 30
0.0
 40
0.0727245396935215
 50
286.5513896030166734
 51
331.5804099573159078
  0
ARC
  5
172D1
  8
0
 10
4108.1394054764277826
 20
154.9149714939997864
 30
0.0
 40
0.0759209466496452
 50
256.8335480285476251
 51
287.8922327451297178
  0
ARC
  5
172D2
  8
0
 10
4108.1314565707070869
 20
154.8885030589304961
 30
0.0
 40
0.0483679648451561
 50
190.704650149699205
 51
258.8607273047124977
  0
ARC
  5
172D3
  8
0
 10
4108.172217454364727
 20
154.9484134426074036
 30
0.0
 40
0.0514645910846018
 50
340.7381732872531757
 51
17.2961116654168912
  0
ARC
  5
172D4
  8
0
 10
4108.1785944950106568
 20
154.9494225429409084
 30
0.0
 40
0.0450855424776067
 50
18.4812249280079186
 51
55.793176064518299
  0
ARC
  5
172D5
  8
0
 10
4108.1652135043495946
 20
154.9307849061588911
 30
0.0
 40
0.0680242183697398
 50
55.2974683808830676
 51
83.8224724753513755
  0
ARC
  5
172D6
  8
0
 10
4108.161688927681098
 20
154.9024795299156949
 30
0.0
 40
0.0965455971731615
 50
83.5505577216470243
 51
103.4476723791644019
  0
ARC
  5
172D7
  8
0
 10
4108.162711313156251
 20
154.8946490271038101
 30
0.0
 40
0.10440244500204
 50
102.9939848958294988
 51
132.2887463620803032
  0
ARC
  5
172D8
  8
0
 10
4108.1339304786270077
 20
154.922450586474298
 30
0.0
 40
0.0645219653546265
 50
129.9933108729327103
 51
178.3481913588751127
  0
ARC
  5
172D9
  8
0
 10
4108.1162231752214211
 20
154.9254712294548995
 30
0.0
 40
0.0468022469618373
 50
181.4211654700758061
 51
222.445830190015414
  0
ARC
  5
172DA
  8
0
 10
4108.1544727656637406
 20
154.9534785543459918
 30
0.0
 40
0.0698950793734626
 50
326.9451147041240802
 51
341.6170870004841049
  0
ARC
  5
172DB
  8
0
 10
4107.3169859169929623
 20
154.7488416649248109
 30
0.0
 40
0.048058459721713
 50
306.1600201961171024
 51
355.7106784872843264
  0
ARC
  5
172DC
  8
0
 10
4107.2994048187947556
 20
154.7733202076497037
 30
0.0
 40
0.0781957455384715
 50
250.5199896327800957
 51
305.9776535120092262
  0
ARC
  5
172DD
  8
0
 10
4107.2881185591777466
 20
154.749416056531004
 30
0.0
 40
0.0519647716656679
 50
188.8568524723579003
 51
253.4637664929248899
  0
LINE
  5
172DE
  8
0
 10
4107.2367734106273929
 20
154.7414152306675987
 30
0.0
 11
4107.2279477336542186
 21
154.8057894565864103
 31
0.0
  0
ARC
  5
172DF
  8
0
 10
4107.3262643613506953
 20
154.7919667483321859
 30
0.0
 40
0.051514053174791
 50
321.4088022181534825
 51
346.6277137016231791
  0
ARC
  5
172E0
  8
0
 10
4107.3354437609896195
 20
154.7893838412882985
 30
0.0
 40
0.0419879690790864
 50
347.1597582333673131
 51
8.0026938650432733
  0
ARC
  5
172E1
  8
0
 10
4107.3352254768296916
 20
154.7891392617999884
 30
0.0
 40
0.0422387088223796
 50
8.2900077464736839
 51
26.2126932620952715
  0
ARC
  5
172E2
  8
0
 10
4107.3204677351532155
 20
154.779931531092501
 30
0.0
 40
0.0595713522124276
 50
27.8886297878900393
 51
64.0429813356885376
  0
ARC
  5
172E3
  8
0
 10
4107.3020400813247761
 20
154.7426226127103064
 30
0.0
 40
0.1011826519159207
 50
63.9077991960945013
 51
113.4513186895265022
  0
ARC
  5
172E4
  8
0
 10
4107.2896401817870355
 20
154.7688247439033091
 30
0.0
 40
0.0722162926440615
 50
112.6991666837119936
 51
144.5426741620161124
  0
ARC
  5
172E5
  8
0
 10
4107.2701915750558328
 20
154.7844947381632039
 30
0.0
 40
0.047307580461676
 50
146.3377362416215988
 51
169.7200963744234059
  0
ARC
  5
172E6
  8
0
 10
4107.2626728891982566
 20
154.78615638669541
 30
0.0
 40
0.039614139024471
 50
170.1441868914131135
 51
194.3410657611364059
  0
ARC
  5
172E7
  8
0
 10
4107.2707582841976546
 20
154.788046758761709
 30
0.0
 40
0.0479161193760956
 50
194.1363114618883969
 51
221.2040507844970136
  0
LINE
  5
172E8
  8
0
 10
4107.3649097693096337
 20
154.7452472345217984
 30
0.0
 11
4107.3720633447619548
 21
154.8097080163377939
 31
0.0
  0
ARC
  5
172E9
  8
0
 10
4107.6729335819582047
 20
154.9383373819684095
 30
0.0
 40
0.1411406747812634
 50
251.6943545696431102
 51
302.2731027213969242
  0
ARC
  5
172EA
  8
0
 10
4107.6601558787087924
 20
154.9005545187179109
 30
0.0
 40
0.101256877350082
 50
220.4222939703147119
 51
251.8437454722316886
  0
ARC
  5
172EB
  8
0
 10
4107.6423725250342613
 20
154.8842055604270058
 30
0.0
 40
0.0771231597638521
 50
186.0826246100481001
 51
219.7423493553837943
  0
ARC
  5
172EC
  8
0
 10
4107.6880865967214049
 20
154.9136464952919141
 30
0.0
 40
0.1121737999547493
 50
302.4629943888422758
 51
325.6276631933338876
  0
ARC
  5
172ED
  8
0
 10
4107.7133385275374167
 20
154.8970270348283123
 30
0.0
 40
0.0819501528488706
 50
325.2508350985405059
 51
354.5757214216985744
  0
LINE
  5
172EE
  8
0
 10
4107.7949217074101398
 20
154.8892802733242888
 30
0.0
 11
4107.8005037489929236
 21
154.9475418414529884
 31
0.0
  0
LINE
  5
172EF
  8
0
 10
4107.5656835591089475
 20
154.8760333956242903
 30
0.0
 11
4107.56043614362261
 21
154.9307972837785883
 31
0.0
  0
ARC
  5
172F0
  8
0
 10
4107.7255306436882165
 20
154.9200074476358111
 30
0.0
 40
0.0798693267911483
 50
327.3585441344872038
 51
20.1661102293657208
  0
ARC
  5
172F1
  8
0
 10
4107.6302574733090296
 20
154.9039787020622043
 30
0.0
 40
0.0747947485080835
 50
158.9880680033666067
 51
214.5368547910090911
  0
ARC
  5
172F2
  8
0
 10
4107.7109823550072178
 20
154.9082178752574066
 30
0.0
 40
0.0977775757271917
 50
23.7143915363104512
 51
75.6585051469890431
  0
ARC
  5
172F3
  8
0
 10
4107.6914094211933843
 20
154.8504368541564986
 30
0.0
 40
0.1586743397603358
 50
73.9789872500501247
 51
111.7373861351751003
  0
ARC
  5
172F4
  8
0
 10
4107.675012212054753
 20
154.8780524582768976
 30
0.0
 40
0.127048267623691
 50
109.4802507591022049
 51
142.9219793023711134
  0
ARC
  5
172F5
  8
0
 10
4107.6498411778065929
 20
154.8968519432116011
 30
0.0
 40
0.0956323495659839
 50
142.8158439688509986
 51
159.2092110494371013
  0
ARC
  5
172F6
  8
0
 10
4107.3749450925288329
 20
154.5379004533373006
 30
0.0
 40
0.093170956821592
 50
238.103712856806311
 51
248.2823393531500074
  0
ARC
  5
172F7
  8
0
 10
4107.3671293703491756
 20
154.5268202184527979
 30
0.0
 40
0.0800475694997635
 50
250.5454080959202088
 51
270.8493212360525035
  0
ARC
  5
172F8
  8
0
 10
4107.3675919501110911
 20
154.5287411238230106
 30
0.0
 40
0.0819628777504384
 50
270.5060862106574859
 51
289.8428873506597938
  0
ARC
  5
172F9
  8
0
 10
4107.352673117786253
 20
154.4994162966694944
 30
0.0
 40
0.0487503810684642
 50
208.6038246430613867
 51
236.428278703347388
  0
ARC
  5
172FA
  8
0
 10
4107.3468529795318318
 20
154.4957133675978866
 30
0.0
 40
0.0418703834170767
 50
196.7869152372784072
 51
207.9680539504994954
  0
ARC
  5
172FB
  8
0
 10
4107.3727465121710338
 20
154.5148839882432128
 30
0.0
 40
0.0671789632989123
 50
289.719368665978493
 51
308.2475967275934181
  0
ARC
  5
172FC
  8
0
 10
4107.3845702506778252
 20
154.5005018863149076
 30
0.0
 40
0.0485659708412009
 50
307.7965842128890017
 51
338.1900057432558242
  0
LINE
  5
172FD
  8
0
 10
4107.4322319764087297
 20
154.4944001763242909
 30
0.0
 11
4107.4361388541492488
 21
154.5599517339460931
 31
0.0
  0
LINE
  5
172FE
  8
0
 10
4107.3050206097923365
 20
154.4945633470767063
 30
0.0
 11
4107.2997283348113342
 21
154.5561624846243092
 31
0.0
  0
ARC
  5
172FF
  8
0
 10
4107.3958976849899045
 20
154.5424958598707121
 30
0.0
 40
0.0473405277119893
 50
322.339554356045312
 51
339.3272944860278812
  0
ARC
  5
17300
  8
0
 10
4107.4048509141366594
 20
154.5392235519138069
 30
0.0
 40
0.0378086860755872
 50
339.1770569943412852
 51
356.8490066747286846
  0
ARC
  5
17301
  8
0
 10
4107.4121590011345688
 20
154.5398219010646983
 30
0.0
 40
0.0305608750084678
 50
354.9754549218782813
 51
16.1970884941041717
  0
ARC
  5
17302
  8
0
 10
4107.3969046688152957
 20
154.5347597381559126
 30
0.0
 40
0.0466257219863361
 50
16.9419813841440003
 51
56.7264585220794189
  0
ARC
  5
17303
  8
0
 10
4107.3706703828684113
 20
154.4928125642940984
 30
0.0
 40
0.0960952770271285
 50
57.3705922212730712
 51
100.0423325238179046
  0
ARC
  5
17304
  8
0
 10
4107.3625011588774214
 20
154.5099778028379092
 30
0.0
 40
0.0779323570345555
 50
96.3263388753858294
 51
143.6564746498808063
  0
ARC
  5
17305
  8
0
 10
4107.333218013851365
 20
154.5349125893905011
 30
0.0
 40
0.0396625345855306
 50
147.6040266648599015
 51
168.963293064147706
  0
ARC
  5
17306
  8
0
 10
4107.3229484068233432
 20
154.5362904102902064
 30
0.0
 40
0.0293255207935711
 50
167.7642578601551122
 51
188.4937578750482885
  0
ARC
  5
17307
  8
0
 10
4107.3332167745302286
 20
154.5367713717859885
 30
0.0
 40
0.0395659995980464
 50
186.9861504489597905
 51
204.2893844006719917
  0
ARC
  5
17308
  8
0
 10
4107.3390921313848594
 20
154.5394884462463096
 30
0.0
 40
0.0460389620613467
 50
204.3637513206014091
 51
219.7384583494614958
  0
ARC
  5
17309
  8
0
 10
4107.3555926363460458
 20
154.4970231152707925
 30
0.0
 40
0.0506318114369815
 50
182.7846096949099888
 51
195.3493916764381879
  0
ARC
  5
1730A
  8
0
 10
4107.2405233690842579
 20
154.5294422346055967
 30
0.0
 40
0.1948849300783218
 50
346.0493466414586123
 51
349.6413670295954148
  0
ARC
  5
1730B
  8
0
 10
4107.7018695418992138
 20
154.5790917259249113
 30
0.0
 40
0.0618470439036841
 50
234.9111443887385064
 51
250.2979363499734973
  0
ARC
  5
1730C
  8
0
 10
4107.7070450403125506
 20
154.5938533647135955
 30
0.0
 40
0.0774893941279845
 50
250.3748803682649111
 51
271.3702248408928881
  0
ARC
  5
1730D
  8
0
 10
4107.708144495214583
 20
154.598459246180596
 30
0.0
 40
0.0820765766369697
 50
270.5260240460848991
 51
289.8361747358554226
  0
ARC
  5
1730E
  8
0
 10
4107.6934495642535694
 20
154.5676397368114863
 30
0.0
 40
0.0476371170014863
 50
207.0555237463944991
 51
235.2799267205795957
  0
ARC
  5
1730F
  8
0
 10
4107.6875227820819418
 20
154.5640865572729012
 30
0.0
 40
0.0407454422009301
 50
195.4551342886832117
 51
206.396678288769607
  0
ARC
  5
17310
  8
0
 10
4107.7144937718321671
 20
154.5819175066258993
 30
0.0
 40
0.0643628043176731
 50
289.5162232589077007
 51
308.831676118244502
  0
ARC
  5
17311
  8
0
 10
4107.7227458592633411
 20
154.5745137386354884
 30
0.0
 40
0.0534508315495977
 50
306.9169663989148944
 51
334.4794818793138802
  0
LINE
  5
17312
  8
0
 10
4107.7748458321548242
 20
154.5661153955485929
 30
0.0
 11
4107.7807779276390647
 21
154.6328190990948031
 31
0.0
  0
LINE
  5
17313
  8
0
 10
4107.6469587681449411
 20
154.5596437727004115
 30
0.0
 11
4107.6371230729619128
 21
154.6226344948063058
 31
0.0
  0
ARC
  5
17314
  8
0
 10
4107.7432805998332697
 20
154.6111375841838935
 30
0.0
 40
0.042569580763187
 50
321.2504130064849051
 51
335.3094896147393911
  0
ARC
  5
17315
  8
0
 10
4107.7390553584618829
 20
154.6145682114884892
 30
0.0
 40
0.0478606703863627
 50
333.6907008510913784
 51
346.0295387036799184
  0
ARC
  5
17316
  8
0
 10
4107.7501451496673326
 20
154.6126135974758995
 30
0.0
 40
0.0366353410002458
 50
344.8087560458714051
 51
28.836190796615039
  0
ARC
  5
17317
  8
0
 10
4107.735071868736668
 20
154.6048201481048068
 30
0.0
 40
0.0536002339249472
 50
28.3627794875679911
 51
64.913364060715594
  0
ARC
  5
17318
  8
0
 10
4107.7151798377581144
 20
154.5615472301736872
 30
0.0
 40
0.1012256482074776
 50
65.1010770511336858
 51
102.1322974776912957
  0
ARC
  5
17319
  8
0
 10
4107.7077866969520983
 20
154.5772978960582122
 30
0.0
 40
0.0843639748755337
 50
99.4706338319246726
 51
143.8334828900013065
  0
ARC
  5
1731A
  8
0
 10
4107.6782174771860809
 20
154.6019853679385108
 30
0.0
 40
0.0459906131610637
 50
146.925258338641413
 51
165.4824566067781006
  0
ARC
  5
1731B
  8
0
 10
4107.6711136765507035
 20
154.6042180636547982
 30
0.0
 40
0.0385558251661844
 50
166.0481333272468873
 51
184.1858964390796132
  0
ARC
  5
1731C
  8
0
 10
4107.6742111831908915
 20
154.60484560844111
 30
0.0
 40
0.041692792006106
 50
184.7352910445416114
 51
209.0333989792567877
  0
ARC
  5
1731D
  8
0
 10
4107.6839016145167989
 20
154.6105701468378015
 30
0.0
 40
0.0529445861696396
 50
209.3604598923350011
 51
221.9656896513778008
  0
ARC
  5
1731E
  8
0
 10
4107.7036240040470148
 20
154.567717806245895
 30
0.0
 40
0.0572375661390425
 50
188.1092921176183097
 51
194.6635322431575901
  0
ARC
  5
1731F
  8
0
 10
4107.7311692275698078
 20
154.5698263979959961
 30
0.0
 40
0.0438339745772318
 50
335.2649820128266924
 51
355.1435023461452829
  0
ARC
  5
17320
  8
0
 10
4108.0925569279270348
 20
154.6144960583621071
 30
0.0
 40
0.1505643735255506
 50
254.6176758040041932
 51
302.4048060929275152
  0
ARC
  5
17321
  8
0
 10
4108.0790405947118415
 20
154.5615242322124061
 30
0.0
 40
0.0959102317738127
 50
220.3417877068706048
 51
254.0088673803014103
  0
ARC
  5
17322
  8
0
 10
4108.057606303119428
 20
154.541085501616891
 30
0.0
 40
0.0663640169818771
 50
186.7029312506417114
 51
218.8713936436411984
  0
ARC
  5
17323
  8
0
 10
4108.1118091734279005
 20
154.5850298887957877
 30
0.0
 40
0.1153702867292997
 50
302.1746231825309792
 51
324.4356062533539102
  0
ARC
  5
17324
  8
0
 10
4108.1349678436736212
 20
154.5683286741713118
 30
0.0
 40
0.0868179383619252
 50
324.5123721921851256
 51
351.9292380839161183
  0
LINE
  5
17325
  8
0
 10
4108.2209258877601314
 20
154.5561397825742915
 30
0.0
 11
4108.2250078809856859
 21
154.5998949952019075
 31
0.0
  0
ARC
  5
17326
  8
0
 10
4108.1597853984858375
 20
154.5904654105387124
 30
0.0
 40
0.0683641456466323
 50
334.241657339774406
 51
13.2518768678869296
  0
ARC
  5
17327
  8
0
 10
4108.0484044584891308
 20
154.5637001290691899
 30
0.0
 40
0.0643244464423815
 50
154.0953851055182042
 51
208.1637947156459063
  0
ARC
  5
17328
  8
0
 10
4108.1633873092068825
 20
154.5895072729286142
 30
0.0
 40
0.0651015324495312
 50
14.79954124071282
 51
51.2576577378194997
  0
ARC
  5
17329
  8
0
 10
4108.1344162793775467
 20
154.5515040614668862
 30
0.0
 40
0.1128796916107627
 50
51.8599972396094913
 51
83.5383294418323317
  0
ARC
  5
1732A
  8
0
 10
4108.1251633563560972
 20
154.4975208512991003
 30
0.0
 40
0.1675903015360684
 50
82.4719603242707251
 51
134.8109478791016898
  0
ARC
  5
1732B
  8
0
 10
4108.0798810001033416
 20
154.5497280682617998
 30
0.0
 40
0.098749427855986
 50
137.5210526586753872
 51
154.7818558709994932
  0
ARC
  5
1732C
  8
0
 10
4108.1607016252228277
 20
154.6047409932409096
 30
0.0
 40
0.0644885898992943
 50
355.6904436674608974
 51
5.402955546127564
  0
LINE
  5
1732D
  8
0
 10
4107.9879047703598189
 20
154.5731657355694892
 30
0.0
 11
4107.9916959054717154
 21
154.5333393908543087
 31
0.0
  0
ARC
  5
1732E
  8
0
 10
4108.0505699787809135
 20
154.5791628357123102
 30
0.0
 40
0.0629515175083676
 50
174.0404828578022034
 51
185.4665941559123894
  0
LINE
  5
1732F
  8
0
 10
4108.5490433585100618
 20
154.3956507519243075
 30
0.0
 11
4108.5546920605993364
 21
154.4686500531306876
 31
0.0
  0
LINE
  5
17330
  8
0
 10
4108.4217878920835574
 20
154.3735797189943071
 30
0.0
 11
4108.4115305649183938
 21
154.4362575830591879
 31
0.0
  0
ARC
  5
17331
  8
0
 10
4108.4436137454877098
 20
154.4182031109824038
 30
0.0
 40
0.0365882725689916
 50
185.7217490209000914
 51
227.5118783340058997
  0
ARC
  5
17332
  8
0
 10
4108.4566518848860142
 20
154.4159883653539111
 30
0.0
 40
0.049464883524502
 50
137.489561994574899
 51
181.6601077450982018
  0
ARC
  5
17333
  8
0
 10
4108.5079586786396248
 20
154.3675816649300998
 30
0.0
 40
0.1199997822445061
 50
88.2707967060805174
 51
137.0054314910956066
  0
ARC
  5
17334
  8
0
 10
4108.5099968653403266
 20
154.4213009110798112
 30
0.0
 40
0.0662448033141592
 50
56.0289564786137007
 51
88.6308109999967257
  0
ARC
  5
17335
  8
0
 10
4108.5279563765034254
 20
154.4492760157071132
 30
0.0
 40
0.0330174216159126
 50
358.5795327237156016
 51
54.748923849619608
  0
ARC
  5
17336
  8
0
 10
4108.508092334437606
 20
154.45131011447981
 30
0.0
 40
0.052948214300443
 50
324.0282631709138741
 51
356.9117031143603072
  0
ARC
  5
17337
  8
0
 10
4108.5064627466963429
 20
154.3992085379838102
 30
0.0
 40
0.0427289871642945
 50
341.3405755670219719
 51
355.2237949553310159
  0
ARC
  5
17338
  8
0
 10
4108.4586882746425545
 20
154.3798225474417904
 30
0.0
 40
0.037424739678057
 50
189.6024090524466885
 51
236.5026888881380103
  0
ARC
  5
17339
  8
0
 10
4108.4668240559540209
 20
154.3895841533376938
 30
0.0
 40
0.05007467145828
 50
234.9038939573395055
 51
258.2362321672222265
  0
ARC
  5
1733A
  8
0
 10
4108.4866288124167113
 20
154.4077955256097994
 30
0.0
 40
0.0642926518462951
 50
306.2404217585636843
 51
339.7452440473618935
  0
ARC
  5
1733B
  8
0
 10
4108.470593211927735
 20
154.4317562738019092
 30
0.0
 40
0.0931060254021685
 50
278.0784974325658823
 51
305.482505737671886
  0
ARC
  5
1733C
  8
0
 10
4108.4728402143991843
 20
154.4139324158435045
 30
0.0
 40
0.0751437945140774
 50
257.5303487879077124
 51
278.2920513319951965
  0
ARC
  5
1733D
  8
0
 10
4108.1819238175967257
 20
154.1971502164996934
 30
0.0
 40
0.1623970205536159
 50
256.0372883637538166
 51
300.436067402158983
  0
ARC
  5
1733E
  8
0
 10
4108.1632288099399375
 20
154.1235948795165882
 30
0.0
 40
0.0865049996038172
 50
216.4769139656847017
 51
256.2985369820017922
  0
ARC
  5
1733F
  8
0
 10
4108.1390662771927964
 20
154.1033339894653977
 30
0.0
 40
0.0550646489014073
 50
190.1052464216762985
 51
214.4713086007587037
  0
ARC
  5
17340
  8
0
 10
4108.2036693621666927
 20
154.1617435959103091
 30
0.0
 40
0.1208565594535551
 50
300.0507634106213004
 51
317.3790510426143214
  0
ARC
  5
17341
  8
0
 10
4108.2375739003118724
 20
154.1337411651570903
 30
0.0
 40
0.0769821725032604
 50
315.6277156737035057
 51
0.3236697847952179
  0
LINE
  5
17342
  8
0
 10
4108.3145548444763335
 20
154.134176043099103
 30
0.0
 11
4108.3186591470512212
 21
154.1770114676623109
 31
0.0
  0
ARC
  5
17343
  8
0
 10
4108.2654692603191506
 20
154.1531992656844068
 30
0.0
 40
0.058374704041764
 50
324.9554301156380234
 51
22.7134312237974392
  0
ARC
  5
17344
  8
0
 10
4108.128374230411282
 20
154.1237957953109117
 30
0.0
 40
0.0542718778553126
 50
157.7158025590931061
 51
217.8482675480661044
  0
ARC
  5
17345
  8
0
 10
4108.2624712852621087
 20
154.1471617079247096
 30
0.0
 40
0.0636245547632346
 50
26.6895283018124303
 51
60.3977820680711801
  0
ARC
  5
17346
  8
0
 10
4108.2289941924009327
 20
154.0899280200071075
 30
0.0
 40
0.1299274125858984
 50
60.0293464559346006
 51
86.2869640565684364
  0
ARC
  5
17347
  8
0
 10
4108.2217977905229418
 20
154.028506475297803
 30
0.0
 40
0.1917128321555214
 50
85.329460661505891
 51
125.350256008097702
  0
ARC
  5
17348
  8
0
 10
4108.1682732767603738
 20
154.1050289601045904
 30
0.0
 40
0.0983328530475681
 50
125.7101410499105043
 51
156.4131480557923908
  0
LINE
  5
17349
  8
0
 10
4108.0794753082427633
 20
154.1472695895454876
 30
0.0
 11
4108.0848558396937733
 21
154.093672518318499
 31
0.0
  0
ARC
  5
1734A
  8
0
 10
4107.913483464581077
 20
153.8125809711455076
 30
0.0
 40
0.1773154089387916
 50
257.8923951063349023
 51
297.5831694653491013
  0
ARC
  5
1734B
  8
0
 10
4107.8966758724745887
 20
153.7352997790954134
 30
0.0
 40
0.0982281967506538
 50
230.0623284191449045
 51
258.0231181372039941
  0
ARC
  5
1734C
  8
0
 10
4107.8696849196048788
 20
153.7029636398906973
 30
0.0
 40
0.0561077688426126
 50
184.5250925746229029
 51
229.9978105983562102
  0
ARC
  5
1734D
  8
0
 10
4107.9428113407857381
 20
153.7568611308263939
 30
0.0
 40
0.1143490174530214
 50
297.4858714349455227
 51
315.7162530612720275
  0
ARC
  5
1734E
  8
0
 10
4107.9781147572666669
 20
153.7241433499235939
 30
0.0
 40
0.0662430336778235
 50
314.6549903926079992
 51
359.1821123924756876
  0
LINE
  5
1734F
  8
0
 10
4108.0443510418608639
 20
153.7231977738832995
 30
0.0
 11
4108.0477554121589492
 21
153.7613489402621099
 31
0.0
  0
ARC
  5
17350
  8
0
 10
4108.0065229216934313
 20
153.7458018269198874
 30
0.0
 40
0.04406621158392
 50
329.1421398582853044
 51
21.7384394584872709
  0
ARC
  5
17351
  8
0
 10
4107.9932700142426256
 20
153.735744308414894
 30
0.0
 40
0.060264954586822
 50
25.9575958624846095
 51
61.6012955488546368
  0
ARC
  5
17352
  8
0
 10
4107.9558193190341626
 20
153.6701084984763099
 30
0.0
 40
0.1358248014211458
 50
60.8726899091639169
 51
84.4863290609872166
  0
ARC
  5
17353
  8
0
 10
4107.9456436445971121
 20
153.609563786500587
 30
0.0
 40
0.1971142565144728
 50
83.2330620309043638
 51
120.5046704607508019
  0
ARC
  5
17354
  8
0
 10
4107.890295035033887
 20
153.7026606431568894
 30
0.0
 40
0.0888087573707437
 50
120.2266566506689003
 51
154.4997740203370995
  0
LINE
  5
17355
  8
0
 10
4107.8101377083057741
 20
153.7408941148466965
 30
0.0
 11
4107.8137520455729828
 21
153.6985369789672973
 31
0.0
  0
ARC
  5
17356
  8
0
 10
4107.850917784723606
 20
153.7235717085459896
 30
0.0
 40
0.0443066630733638
 50
156.985369408071989
 51
212.7691070299700016
  0
ARC
  5
17357
  8
0
 10
4107.9039729277956212
 20
154.2783689689136111
 30
0.0
 40
0.0618470439036841
 50
234.9111443887385064
 51
250.2979363499734973
  0
ARC
  5
17358
  8
0
 10
4107.9091484262098675
 20
154.2931306077022953
 30
0.0
 40
0.0774893941279845
 50
250.3748803682649111
 51
271.3702248408928881
  0
ARC
  5
17359
  8
0
 10
4107.9102478811118999
 20
154.2977364891692957
 30
0.0
 40
0.0820765766369697
 50
270.5260240460848991
 51
289.8361747358554226
  0
ARC
  5
1735A
  8
0
 10
4107.8955529501490673
 20
154.266916979800186
 30
0.0
 40
0.0476371170014863
 50
207.0555237463944991
 51
235.2799267205795957
  0
ARC
  5
1735B
  8
0
 10
4107.8896261679792588
 20
154.263363800261601
 30
0.0
 40
0.0407454422009301
 50
195.4551342886832117
 51
206.396678288769607
  0
ARC
  5
1735C
  8
0
 10
4107.916597157727665
 20
154.281194749614599
 30
0.0
 40
0.0643628043176731
 50
289.5162232589077007
 51
308.8316761182451273
  0
ARC
  5
1735D
  8
0
 10
4107.9248492451597485
 20
154.2737909816241881
 30
0.0
 40
0.0534508315495977
 50
306.9169663989148944
 51
334.4794818793146192
  0
LINE
  5
1735E
  8
0
 10
4107.9769492180521411
 20
154.2653926385372927
 30
0.0
 11
4107.9828259241949127
 21
154.3314735142513996
 31
0.0
  0
LINE
  5
1735F
  8
0
 10
4107.8490621540413485
 20
154.2589210156889976
 30
0.0
 11
4107.839372875182562
 21
154.3183900214891082
 31
0.0
  0
ARC
  5
17360
  8
0
 10
4107.9381036144459358
 20
154.3175054629458032
 30
0.0
 40
0.0516115295835355
 50
321.9671056310921244
 51
331.5776186735932924
  0
ARC
  5
17361
  8
0
 10
4107.9433872419158433
 20
154.3148234654146052
 30
0.0
 40
0.0456884985336042
 50
331.3818360393876787
 51
344.1742034854772783
  0
ARC
  5
17362
  8
0
 10
4107.955121773976316
 20
154.3123356261068011
 30
0.0
 40
0.0337299394032277
 50
342.8038874033214825
 51
30.5370669838820312
  0
ARC
  5
17363
  8
0
 10
4107.9390142147203733
 20
154.3005000108614979
 30
0.0
 40
0.0536546717370931
 50
32.6838025153220428
 51
68.2658609262997942
  0
ARC
  5
17364
  8
0
 10
4107.919612664352826
 20
154.2525876281621038
 30
0.0
 40
0.1053458367243871
 50
68.1133751249967077
 51
102.4389008836094064
  0
ARC
  5
17365
  8
0
 10
4107.9125260886157776
 20
154.2659717403643072
 30
0.0
 40
0.0908392253614879
 50
99.8915749990685384
 51
138.8006511775861043
  0
ARC
  5
17366
  8
0
 10
4107.8815885458279809
 20
154.2963075970372984
 30
0.0
 40
0.0476423794282048
 50
141.7452556127848879
 51
160.2162767406802004
  0
ARC
  5
17367
  8
0
 10
4107.8710912030719555
 20
154.3005623388812921
 30
0.0
 40
0.0363273109995579
 50
160.9269413192438947
 51
179.8128260812628127
  0
ARC
  5
17368
  8
0
 10
4107.8708670747573706
 20
154.3011805972454056
 30
0.0
 40
0.0361064452427366
 50
180.7927946122734113
 51
209.1383018315430036
  0
ARC
  5
17369
  8
0
 10
4107.8786023879592904
 20
154.3052303264497027
 30
0.0
 40
0.0448353084482476
 50
208.8453376375865105
 51
224.5296028812400948
  0
ARC
  5
1736A
  8
0
 10
4107.9057273899434222
 20
154.2669950492345947
 30
0.0
 40
0.0572375661390425
 50
188.1092921176183097
 51
194.6635322431575901
  0
ARC
  5
1736B
  8
0
 10
4107.9332726134671248
 20
154.2691036409846959
 30
0.0
 40
0.0438339745772318
 50
335.2649820128266924
 51
355.1435023461452829
  0
LINE
  5
1736C
  8
0
 10
4108.4334066277087913
 20
153.8467563994242937
 30
0.0
 11
4108.4388874184451197
 21
153.9156531279951139
 31
0.0
  0
LINE
  5
1736D
  8
0
 10
4108.3057971397111032
 20
153.8271891490230132
 30
0.0
 11
4108.2964679400702153
 21
153.8862830045754038
 31
0.0
  0
ARC
  5
1736E
  8
0
 10
4108.3176490592550181
 20
153.8703267931834091
 30
0.0
 40
0.0262767400766536
 50
152.4615353992867881
 51
234.4217895204656088
  0
ARC
  5
1736F
  8
0
 10
4108.3516772716147898
 20
153.8530701638117932
 30
0.0
 40
0.0644295202618948
 50
122.7345243261041929
 51
152.8450618446030944
  0
ARC
  5
17370
  8
0
 10
4108.3922059096312296
 20
153.7942428364069087
 30
0.0
 40
0.1358490998923752
 50
87.6755024912879861
 51
123.6967607279033956
  0
ARC
  5
17371
  8
0
 10
4108.3958888113447756
 20
153.8558020461339879
 30
0.0
 40
0.0742006021272358
 50
58.3032632569699416
 51
88.589093239194213
  0
ARC
  5
17372
  8
0
 10
4108.4223924338875804
 20
153.8995818739562083
 30
0.0
 40
0.0230297573140847
 50
356.4640709737075781
 51
57.1772478191986693
  0
ARC
  5
17373
  8
0
 10
4108.4035632482173241
 20
153.9033883258454978
 30
0.0
 40
0.0421405049766702
 50
319.7952791549129188
 51
352.875103036777773
  0
ARC
  5
17374
  8
0
 10
4108.4044319846370854
 20
153.8488968361934042
 30
0.0
 40
0.0290535954873521
 50
335.0914321832066207
 51
355.7750770404653053
  0
ARC
  5
17375
  8
0
 10
4108.3410917692426665
 20
153.8346415619627976
 30
0.0
 40
0.0365152046901542
 50
209.8401290712542107
 51
245.9492291772797046
  0
ARC
  5
17376
  8
0
 10
4108.3526691212409787
 20
153.8582078357624994
 30
0.0
 40
0.0627613325439143
 50
245.0655651269705118
 51
263.7016544559514273
  0
ARC
  5
17377
  8
0
 10
4108.3830189627051368
 20
153.8564287827259136
 30
0.0
 40
0.0516933342585573
 50
303.9542840092174174
 51
337.5164244324050742
  0
ARC
  5
17378
  8
0
 10
4108.3550766346634191
 20
153.8932729168597859
 30
0.0
 40
0.0978961067943152
 50
280.9406042984492728
 51
305.475641175976989
  0
ARC
  5
17379
  8
0
 10
4108.3553410267422805
 20
153.8882081982455077
 30
0.0
 40
0.0928759133098852
 50
264.0936584890326913
 51
281.3734628165552181
  0
ARC
  5
1737A
  8
0
 10
4108.3352438381125467
 20
153.8311676868605957
 30
0.0
 40
0.029714252643501
 50
187.6946267379532003
 51
209.640603751380695
  0
LINE
  5
1737B
  8
0
 10
4108.4296003844101506
 20
153.5571359718242945
 30
0.0
 11
4108.4328748798043307
 21
153.6237303190033003
 31
0.0
  0
LINE
  5
1737C
  8
0
 10
4108.3019241153770054
 20
153.5305039185712985
 30
0.0
 11
4108.294335293477161
 21
153.5855687830901957
 31
0.0
  0
ARC
  5
1737D
  8
0
 10
4108.3041199809586033
 20
153.5723007368852109
 30
0.0
 40
0.0156784791984831
 50
145.6948683222829004
 51
247.6677627339176126
  0
ARC
  5
1737E
  8
0
 10
4108.3525342128596094
 20
153.5406376734098046
 30
0.0
 40
0.0735249538217665
 50
120.3675741854684986
 51
146.5763027222658081
  0
ARC
  5
1737F
  8
0
 10
4108.406496918175435
 20
153.4523210998403044
 30
0.0
 40
0.1770154069208322
 50
94.1761952225897545
 51
120.9861216693176971
  0
ARC
  5
17380
  8
0
 10
4108.4026312256210076
 20
153.5299113022977906
 30
0.0
 40
0.0993659199237122
 50
77.2826484999824714
 51
95.2112665100917468
  0
ARC
  5
17381
  8
0
 10
4108.4326649275963064
 20
153.6146937979850975
 30
0.0
 40
0.0076355185907208
 50
354.8552242664256937
 51
52.6370612054031497
  0
ARC
  5
17382
  8
0
 10
4108.4179185179846172
 20
153.6162644087991964
 30
0.0
 40
0.0224646628594727
 50
325.5694181332953008
 51
354.2381646168295219
  0
ARC
  5
17383
  8
0
 10
4108.3972953626853268
 20
153.5598524277828005
 30
0.0
 40
0.0324190308557023
 50
332.1266426197176997
 51
355.193435321985703
  0
ARC
  5
17384
  8
0
 10
4108.3278628272755668
 20
153.5341439322619976
 30
0.0
 40
0.0261928706829012
 50
187.9882278888863141
 51
250.292064059107588
  0
ARC
  5
17385
  8
0
 10
4108.3398481372114475
 20
153.5620873198976142
 30
0.0
 40
0.056571782448395
 50
248.4078907862833034
 51
269.9899182847682937
  0
ARC
  5
17386
  8
0
 10
4108.3711419446035507
 20
153.5807773390394004
 30
0.0
 40
0.0656212366516523
 50
301.0913994184408011
 51
326.6437149830982776
  0
ARC
  5
17387
  8
0
 10
4108.3408799758799432
 20
153.6247333110082138
 30
0.0
 40
0.118933599887786
 50
282.3604050702325026
 51
302.6406901627894968
  0
ARC
  5
17388
  8
0
 10
4108.34098947779421
 20
153.612473328927706
 30
0.0
 40
0.1069639866991235
 50
269.3832913782405853
 51
283.7089936517377282
  0
LINE
  5
17389
  8
0
 10
4107.9011660430087431
 20
153.4243024119444101
 30
0.0
 11
4107.9071566448674275
 21
153.4878946291144075
 31
0.0
  0
LINE
  5
1738A
  8
0
 10
4107.77316296411027
 20
153.4119764968243089
 30
0.0
 11
4107.7648598242103617
 21
153.4712124831243045
 31
0.0
  0
ARC
  5
1738B
  8
0
 10
4107.779948633926324
 20
153.456916182233698
 30
0.0
 40
0.0207859663668903
 50
136.5448778484878005
 51
239.413508722540513
  0
ARC
  5
1738C
  8
0
 10
4107.8154144630598239
 20
153.4289606967124939
 30
0.0
 40
0.0658861515367277
 50
117.7782176338117068
 51
140.1123105968241873
  0
ARC
  5
1738D
  8
0
 10
4107.8739271763679426
 20
153.4268734864276951
 30
0.0
 40
0.0273599393256209
 50
339.3348803869258177
 51
354.6078317652471128
  0
ARC
  5
1738E
  8
0
 10
4107.8114073205879322
 20
153.4270669396067035
 30
0.0
 40
0.0432334891121373
 50
224.0081794688128127
 51
249.2774986389678133
  0
ARC
  5
1738F
  8
0
 10
4107.8229552640714246
 20
153.4549626690049138
 30
0.0
 40
0.0734165504946183
 50
248.5515593880382141
 51
263.4083135128835238
  0
ARC
  5
17390
  8
0
 10
4107.8580953921627952
 20
153.4346460796026008
 30
0.0
 40
0.0449476896393641
 50
298.9462333874780029
 51
337.1859911846111117
  0
ARC
  5
17391
  8
0
 10
4107.8289928218136993
 20
153.4826888515081862
 30
0.0
 40
0.1010982593425726
 50
276.7383898094740857
 51
300.2015091188799829
  0
ARC
  5
17392
  8
0
 10
4107.8266593799426118
 20
153.4876768597750925
 30
0.0
 40
0.10633971547918
 50
263.4491173117897915
 51
277.6716582729322909
  0
ARC
  5
17393
  8
0
 10
4107.8801184362682761
 20
153.4807519799232978
 30
0.0
 40
0.0346882124575425
 50
313.7939819070928138
 51
339.5174011686074209
  0
ARC
  5
17394
  8
0
 10
4107.897433039282987
 20
153.474603734351092
 30
0.0
 40
0.0163195961845944
 50
338.4667826309291172
 51
45.4290393765700387
  0
ARC
  5
17395
  8
0
 10
4107.8782139105533133
 20
153.4561045673889907
 30
0.0
 40
0.0429917421614079
 50
44.4843820278331492
 51
69.0833773422921666
  0
ARC
  5
17396
  8
0
 10
4107.8595078512717009
 20
153.4121693008835052
 30
0.0
 40
0.0907275689252599
 50
67.9541175314313222
 51
76.7632690752775488
  0
ARC
  5
17397
  8
0
 10
4107.8597476804134203
 20
153.4156707575338885
 30
0.0
 40
0.0872660734176284
 50
76.3901485780474019
 51
83.789360714178045
  0
ARC
  5
17398
  8
0
 10
4107.8535458602718791
 20
153.3836473443882937
 30
0.0
 40
0.1198029265653191
 50
82.4974966650276968
 51
89.4371152050768075
  0
ARC
  5
17399
  8
0
 10
4107.8516340651049177
 20
153.3690164303964139
 30
0.0
 40
0.1344635394557515
 50
88.6837508271397041
 51
95.144110979884303
  0
ARC
  5
1739A
  8
0
 10
4107.8523660829459914
 20
153.3481077569014985
 30
0.0
 40
0.1553578573244458
 50
94.7216020241830847
 51
105.033259125250197
  0
ARC
  5
1739B
  8
0
 10
4107.8434262319397021
 20
153.3795916351880066
 30
0.0
 40
0.1226335770379911
 50
104.814786257415804
 51
118.6076288012672961
  0
ARC
  5
1739C
  8
0
 10
4107.802115127581601
 20
153.4166416412460876
 30
0.0
 40
0.0293256089819529
 50
189.1535527090406958
 51
221.9710438123200049
  0
LINE
  5
1739D
  8
0
 10
4107.6091096116088011
 20
153.1888255898242903
 30
0.0
 11
4107.6135647453393176
 21
153.248478424137204
 31
0.0
  0
LINE
  5
1739E
  8
0
 10
4107.4806072575829603
 20
153.1790601270824084
 30
0.0
 11
4107.4745492061101686
 21
153.2347516665242892
 31
0.0
  0
ARC
  5
1739F
  8
0
 10
4107.4846763485138581
 20
153.2316275053117067
 30
0.0
 40
0.0190447251047214
 50
215.3523295615657958
 51
245.484514429232803
  0
ARC
  5
173A0
  8
0
 10
4107.5286166032856272
 20
153.1618371618476999
 30
0.0
 40
0.0908356439520541
 50
107.0523604085367992
 51
125.5192767932382054
  0
ARC
  5
173A1
  8
0
 10
4107.5617655862379252
 20
153.0617322362843993
 30
0.0
 40
0.1962743698601707
 50
86.4042820664718931
 51
107.7343932228501018
  0
ARC
  5
173A2
  8
0
 10
4107.5698545698296584
 20
153.1465456152758122
 30
0.0
 40
0.1111547647143038
 50
68.7779544250228696
 51
87.8239562854774363
  0
ARC
  5
173A3
  8
0
 10
4107.5985217614315843
 20
153.2218699964253972
 30
0.0
 40
0.030566317902579
 50
49.2823708513830212
 51
67.7599644738655513
  0
ARC
  5
173A4
  8
0
 10
4107.6130589211607003
 20
153.2385715542453966
 30
0.0
 40
0.0084254973090973
 50
24.7715983249923788
 51
50.1205224809966268
  0
ARC
  5
173A5
  8
0
 10
4107.587106047954876
 20
153.1909150640767905
 30
0.0
 40
0.0221025499916611
 50
319.6793315161283999
 51
354.5754179442325267
  0
ARC
  5
173A6
  8
0
 10
4107.511221846515582
 20
153.1917015741892101
 30
0.0
 40
0.0352995954857052
 50
224.2976387156049043
 51
252.7438011498825006
  0
ARC
  5
173A7
  8
0
 10
4107.5254653121055526
 20
153.2328847449670093
 30
0.0
 40
0.0788664468183434
 50
251.7371527937434905
 51
264.3828744800110826
  0
ARC
  5
173A8
  8
0
 10
4107.5696368088883901
 20
153.2072634086634082
 30
0.0
 40
0.0460147922273558
 50
293.3768497004530786
 51
318.2337730090815739
  0
ARC
  5
173A9
  8
0
 10
4107.5372487486947648
 20
153.2789492284445885
 30
0.0
 40
0.1246737561761993
 50
277.4379200753006103
 51
293.9679533059562004
  0
ARC
  5
173AA
  8
0
 10
4107.5318044758987526
 20
153.2994424948230119
 30
0.0
 40
0.1457252241272169
 50
264.463858145117797
 51
278.5174788470474141
  0
ARC
  5
173AB
  8
0
 10
4107.5014824287718511
 20
153.1811609818383033
 30
0.0
 40
0.0209806187436121
 50
185.746836007061205
 51
222.2701906373378051
  0
ARC
  5
173AC
  8
0
 10
4108.4182220990387577
 20
153.5971078851324876
 30
0.0
 40
0.0303884512496965
 50
51.1152401300158203
 51
78.0663243299856475
  0
ARC
  5
173AD
  8
0
 10
4108.3965129381604129
 20
153.6292874994825866
 30
0.0
 40
0.0475030978686108
 50
317.5715205933906873
 51
327.2115394489933919
  0
ARC
  5
173AE
  8
0
 10
4107.4747096061228149
 20
153.2247532414710918
 30
0.0
 40
0.0069401335698812
 50
143.6669928892868029
 51
216.67394031495121
  0
ARC
  5
173AF
  8
0
 10
4107.4929985443886835
 20
153.212336459900996
 30
0.0
 40
0.0290420765337543
 50
126.2071642660837938
 51
145.3105718971062004
  0
ARC
  5
173B0
  8
0
 10
4107.6165491583597031
 20
153.2406921358355874
 30
0.0
 40
0.0043923601826686
 50
337.460763549191995
 51
18.7202625715626603
  0
ARC
  5
173B1
  8
0
 10
4107.6038239692088609
 20
153.2455374471535947
 30
0.0
 40
0.0180073500173839
 50
316.5235066993463988
 51
338.7417219443368026
  0
ARC
  5
173B2
  8
0
 10
4107.5926596024928585
 20
153.2580448151128962
 30
0.0
 40
0.0347426197414226
 50
304.0851962700835998
 51
314.2234204672841997
  0
LINE
  5
173B3
  8
0
 10
4107.9079540494076355
 20
153.9354296029005127
 30
0.0
 11
4107.9132380079427094
 21
154.001852205636709
 31
0.0
  0
LINE
  5
173B4
  8
0
 10
4107.7805987206602367
 20
153.9250485878743007
 30
0.0
 11
4107.7704245112709032
 21
153.9892922730082887
 31
0.0
  0
ARC
  5
173B5
  8
0
 10
4107.7989881144339961
 20
153.9726515475074109
 30
0.0
 40
0.0333436698300031
 50
162.8679579110115867
 51
228.8214750599119043
  0
ARC
  5
173B6
  8
0
 10
4107.8190832772361318
 20
153.961530546677011
 30
0.0
 40
0.0560213258874045
 50
117.3608002082258963
 51
158.0471511482244864
  0
ARC
  5
173B7
  8
0
 10
4107.8504123239399632
 20
153.9060442560661102
 30
0.0
 40
0.1197214973175826
 50
73.4435652100673764
 51
118.4726953570782939
  0
ARC
  5
173B8
  8
0
 10
4107.86667342947203
 20
153.9620093567050958
 30
0.0
 40
0.0614440378543815
 50
43.4387960500289623
 51
73.1070460005535239
  0
ARC
  5
173B9
  8
0
 10
4107.8905119767114229
 20
153.9835365226419128
 30
0.0
 40
0.0290541743148619
 50
353.3993328467033166
 51
16.8015802625634016
  0
ARC
  5
173BA
  8
0
 10
4107.8826473466870084
 20
153.9839262721102102
 30
0.0
 40
0.0369150928502859
 50
317.4095993543161853
 51
354.2015804466291797
  0
ARC
  5
173BB
  8
0
 10
4107.8685601060005865
 20
153.9392319911831919
 30
0.0
 40
0.0395770253262678
 50
331.5338122141936879
 51
354.4867669938831796
  0
ARC
  5
173BC
  8
0
 10
4107.8199206215040249
 20
153.9336837094413966
 30
0.0
 40
0.0402588774121068
 50
192.3856010978514917
 51
238.1749934420597867
  0
ARC
  5
173BD
  8
0
 10
4107.8317931819956357
 20
153.9499611430277923
 30
0.0
 40
0.0603686637922759
 50
236.7472637745520103
 51
253.7942735606368103
  0
ARC
  5
173BE
  8
0
 10
4107.8488158480067796
 20
153.9550822486565949
 30
0.0
 40
0.0646474617245724
 50
301.6100462898875776
 51
327.5218580152624099
  0
ARC
  5
173BF
  8
0
 10
4107.8393750670784357
 20
153.97614576293401
 30
0.0
 40
0.0875855290996679
 50
272.7490522694405968
 51
299.6471341373846826
  0
ARC
  5
173C0
  8
0
 10
4107.8388882395502151
 20
153.9731004539939079
 30
0.0
 40
0.0845694377712802
 50
253.5535853931964994
 51
273.1774564659176008
  0
ARC
  5
173C1
  8
0
 10
4107.8854985255138672
 20
153.9813573169415974
 30
0.0
 40
0.034489409215276
 50
17.8598605300821305
 51
41.6028155104430581
  0
ARC
  5
173C2
  8
0
 10
4107.5615802709853597
 20
153.7341244345784048
 30
0.0
 40
0.039876889619608
 50
317.6416062842059205
 51
347.9022599791421726
  0
ARC
  5
173C3
  8
0
 10
4107.5723281610999038
 20
153.7301083402313111
 30
0.0
 40
0.0285750977578403
 50
351.2614349340585136
 51
43.4549651102574472
  0
ARC
  5
173C4
  8
0
 10
4107.5438406177881916
 20
153.7013824007229914
 30
0.0
 40
0.0690233750118229
 50
44.5003696899809924
 51
76.3100109313382831
  0
ARC
  5
173C5
  8
0
 10
4107.5288275899847577
 20
153.6498282227879031
 30
0.0
 40
0.1226892218355852
 50
75.1960210197019308
 51
115.0839275968430968
  0
ARC
  5
173C6
  8
0
 10
4107.5017708380319164
 20
153.706068862438002
 30
0.0
 40
0.0602858129567474
 50
114.4547393450861961
 51
149.3847535655035017
  0
ARC
  5
173C7
  8
0
 10
4107.4766578333201323
 20
153.723501905440088
 30
0.0
 40
0.0298773843600353
 50
153.6338151123460136
 51
230.5334312065619997
  0
ARC
  5
173C8
  8
0
 10
-694.4910526010412468
 20
606.103882602457702
 30
0.0
 40
4823.344814469938683
 50
354.6178426988399792
 51
354.6186210838544071
  0
LINE
  5
173C9
  8
0
 10
4107.4520899187800751
 20
153.7402183207964015
 30
0.0
 11
4107.4609653720099232
 21
153.6768993551243057
 31
0.0
  0
ARC
  5
173CA
  8
0
 10
4107.5517535470944495
 20
153.6865054071880081
 30
0.0
 40
0.0371783232334204
 50
316.787367431072596
 51
353.7372678308776131
  0
ARC
  5
173CB
  8
0
 10
4107.5334550470779504
 20
153.7036545497851137
 30
0.0
 40
0.0622567529719561
 50
292.7300645280326989
 51
316.8154623985809053
  0
ARC
  5
173CC
  8
0
 10
4107.5225896796691814
 20
153.7282160116203045
 30
0.0
 40
0.0891105137624521
 50
277.8437103638885901
 51
293.0716202284177143
  0
ARC
  5
173CD
  8
0
 10
4107.5215687371783133
 20
153.7309248597339035
 30
0.0
 40
0.0919355869479787
 50
255.0766985070966086
 51
278.2436381372484107
  0
ARC
  5
173CE
  8
0
 10
4107.5110338126323768
 20
153.6969880624361906
 30
0.0
 40
0.0564487846754521
 50
222.1353112008395954
 51
256.5384599283376019
  0
ARC
  5
173CF
  8
0
 10
4107.4955155858551734
 20
153.6820624110731899
 30
0.0
 40
0.0349338578378396
 50
188.4991757963746863
 51
221.0570690141526882
  0
LINE
  5
173D0
  8
0
 10
4107.4970581664101701
 20
153.4721969358305103
 30
0.0
 11
4107.5015736096156616
 21
153.5192592919975993
 31
0.0
  0
ARC
  5
173D1
  8
0
 10
4107.4675586632720297
 20
153.4986098559429877
 30
0.0
 40
0.0397921573208359
 50
317.7554091990576808
 51
31.2606600717208387
  0
ARC
  5
173D2
  8
0
 10
4107.432984462294371
 20
153.4713415088272086
 30
0.0
 40
0.0836694990692566
 50
34.9389384607206921
 51
66.5806447003320727
  0
ARC
  5
173D3
  8
0
 10
4107.3958988688009413
 20
153.3918386502450062
 30
0.0
 40
0.1713801559449382
 50
65.7677327098320461
 51
84.6724012313007677
  0
ARC
  5
173D4
  8
0
 10
4107.3891297481677611
 20
153.3486022226659884
 30
0.0
 40
0.2150755884182627
 50
83.9463484529271966
 51
107.6075642791771969
  0
ARC
  5
173D5
  8
0
 10
4107.3311291123627598
 20
153.469845767021809
 30
0.0
 40
0.0795256665289428
 50
118.6131341991318067
 51
148.7554782710691086
  0
LINE
  5
173D6
  8
0
 10
4107.2631377317102306
 20
153.5110950554243061
 30
0.0
 11
4107.2675364981087114
 21
153.4651839470242862
 31
0.0
  0
ARC
  5
173D7
  8
0
 10
4107.2964456106210491
 20
153.4907315580501859
 30
0.0
 40
0.0390395545936519
 50
148.5595612631061044
 51
206.9593857503718937
  0
ARC
  5
173D8
  8
0
 10
4107.3726878785573717
 20
153.4039243403599926
 30
0.0
 40
0.1573752665706396
 50
107.9946199662172006
 51
120.4024741664996014
  0
ARC
  5
173D9
  8
0
 10
4107.3075864707197979
 20
153.4952706264905942
 30
0.0
 40
0.0510374390407227
 50
205.8310686501515931
 51
218.7343217830463118
  0
ARC
  5
173DA
  8
0
 10
4107.3173569987748124
 20
153.4706590724219097
 30
0.0
 40
0.0501204477694738
 50
186.271469599477598
 51
222.2041352662363067
  0
ARC
  5
173DB
  8
0
 10
4107.3525587102185455
 20
153.5070255944997086
 30
0.0
 40
0.1006802227756863
 50
224.077405792457597
 51
256.0487682923849775
  0
ARC
  5
173DC
  8
0
 10
4107.3762348200134511
 20
153.5920719684376934
 30
0.0
 40
0.1889422415695936
 50
255.298712650873199
 51
285.1967691444722277
  0
ARC
  5
173DD
  8
0
 10
4107.4001090357241992
 20
153.5223587468728965
 30
0.0
 40
0.1155068718558729
 50
282.8324252051089047
 51
315.371964538245777
  0
ARC
  5
173DE
  8
0
 10
4107.4442636937183124
 20
153.4783232261987962
 30
0.0
 40
0.0531487326335352
 50
315.7175786945738878
 51
353.3809795472730002
  0
LINE
  5
173DF
  8
0
 10
4107.5597702236600526
 20
153.9714781309743046
 30
0.0
 11
4107.5562825475899444
 21
153.9068245809893938
 31
0.0
  0
LINE
  5
173E0
  8
0
 10
4107.4236868228099411
 20
153.9663770606242963
 30
0.0
 11
4107.4293459813097797
 21
153.9027583594742907
 31
0.0
  0
ARC
  5
173E1
  8
0
 10
4107.5343363439624227
 20
153.9517566216327111
 30
0.0
 40
0.0321841601908195
 50
316.0343386389802163
 51
37.7901110607635218
  0
ARC
  5
173E2
  8
0
 10
4107.449833395207861
 20
153.9475087537921922
 30
0.0
 40
0.0322437009882065
 50
144.1844287752576008
 51
225.9822263336189963
  0
ARC
  5
173E3
  8
0
 10
4107.4825152470875764
 20
153.9198344321312106
 30
0.0
 40
0.0750133306165337
 50
101.0321762962527004
 51
141.6504050090161115
  0
ARC
  5
173E4
  8
0
 10
4107.4949280745813667
 20
153.8867959960934968
 30
0.0
 40
0.1099728360633362
 50
66.8167615566899684
 51
104.0873023620943059
  0
ARC
  5
173E5
  8
0
 10
4107.5161779525424208
 20
153.9365897313253129
 30
0.0
 40
0.0558344564872097
 50
38.6714935034039868
 51
66.7464815889356657
  0
ARC
  5
173E6
  8
0
 10
4107.5125522184189322
 20
153.9114284337360914
 30
0.0
 40
0.0439720041567536
 50
299.1172300295128252
 51
353.9901385217550001
  0
ARC
  5
173E7
  8
0
 10
4107.4904483647233064
 20
153.9472354127514961
 30
0.0
 40
0.0860302981910478
 50
251.8616966774526134
 51
300.373991542246813
  0
ARC
  5
173E8
  8
0
 10
4107.4787914932885542
 20
153.9163354014804099
 30
0.0
 40
0.0530568928501789
 50
214.0006884562725986
 51
253.4364635901650047
  0
ARC
  5
173E9
  8
0
 10
4107.4650419318813874
 20
153.9058965044258969
 30
0.0
 40
0.035833627236441
 50
185.0241380256368018
 51
212.4569283016390102
  0
LINE
  5
173EA
  8
0
 10
4107.286966623330045
 20
153.8500521350418069
 30
0.0
 11
4107.2834706294052012
 21
153.7873039168109131
 31
0.0
  0
LINE
  5
173EB
  8
0
 10
4107.1510163148150241
 20
153.8480133389637103
 30
0.0
 11
4107.1560324623960696
 21
153.7832376952956963
 31
0.0
  0
ARC
  5
173EC
  8
0
 10
4107.2638616080776046
 20
153.8312181119167974
 30
0.0
 40
0.0298086306706007
 50
314.4372859351116176
 51
38.9734870981791488
  0
ARC
  5
173ED
  8
0
 10
4107.1741387950896751
 20
153.8297389686076997
 30
0.0
 40
0.0294720495725992
 50
141.6796541155840998
 51
195.5372398010385098
  0
ARC
  5
173EE
  8
0
 10
4107.2140788901597261
 20
153.7847677395913877
 30
0.0
 40
0.090663769275273
 50
100.5401391536553035
 51
124.7372077675895952
  0
ARC
  5
173EF
  8
0
 10
4107.2201513384261489
 20
153.7642612118636976
 30
0.0
 40
0.1119570782476843
 50
66.8023656028777424
 51
101.6757422154643962
  0
ARC
  5
173F0
  8
0
 10
4107.2411291708258432
 20
153.8128467139181907
 30
0.0
 40
0.0590365599709074
 50
38.9587317144252481
 51
66.9419125879229284
  0
ARC
  5
173F1
  8
0
 10
4107.2397403002332794
 20
153.791907769557497
 30
0.0
 40
0.04397200415675
 50
299.1172300295116884
 51
353.9901385217540906
  0
ARC
  5
173F2
  8
0
 10
4107.2182010450533198
 20
153.8281466315968089
 30
0.0
 40
0.0861203071788185
 50
251.597045259388608
 51
299.9046297123124987
  0
ARC
  5
173F3
  8
0
 10
4107.2070558120085479
 20
153.7995889248155947
 30
0.0
 40
0.0555264301744364
 50
215.7531223797608106
 51
253.2066080646629871
  0
ARC
  5
173F4
  8
0
 10
4107.1908511914252813
 20
153.7869855225472122
 30
0.0
 40
0.0350198529453804
 50
186.1435641852222886
 51
214.5097056665402988
  0
ARC
  5
173F5
  8
0
 10
4107.1930335122178803
 20
153.8168697460421868
 30
0.0
 40
0.0523007481558412
 50
125.8301530883099986
 51
143.4537648432691981
  0
ARC
  5
173F6
  8
0
 10
4107.1822384500192129
 20
153.8324047821068064
 30
0.0
 40
0.0379918853757713
 50
196.1386598140784088
 51
222.3341257764276975
  0
LINE
  5
173F7
  8
0
 10
4107.6912550751103481
 20
154.1089154023242997
 30
0.0
 11
4107.6943899744101145
 21
154.1743170186242935
 31
0.0
  0
LINE
  5
173F8
  8
0
 10
4107.5643518680835768
 20
154.1037456815097926
 30
0.0
 11
4107.5583038167324048
 21
154.1672098625496972
 31
0.0
  0
ARC
  5
173F9
  8
0
 10
4107.5880911526382988
 20
154.1487246244178948
 30
0.0
 40
0.0356358143234957
 50
169.4440288574612907
 51
223.9168080484500081
  0
ARC
  5
173FA
  8
0
 10
4107.5997389804551858
 20
154.1419035962283033
 30
0.0
 40
0.0485518270290167
 50
121.8091549737286954
 51
164.0409156496776006
  0
ARC
  5
173FB
  8
0
 10
4107.6311939440256538
 20
154.0922106617202871
 30
0.0
 40
0.1073622988423489
 50
71.5642679494257834
 51
122.0962517754097973
  0
ARC
  5
173FC
  8
0
 10
4107.643198194764409
 20
154.1292537201020139
 30
0.0
 40
0.0684248733429924
 50
44.5486220957733394
 51
71.2910020055136329
  0
ARC
  5
173FD
  8
0
 10
4107.6719206458928966
 20
154.1548048892665861
 30
0.0
 40
0.0293716575445836
 50
356.5855241567184066
 51
20.378632666327519
  0
ARC
  5
173FE
  8
0
 10
4107.6606281345466414
 20
154.1561884207046944
 30
0.0
 40
0.0407326861464543
 50
321.0212130484691784
 51
355.5888638644744901
  0
ARC
  5
173FF
  8
0
 10
4107.6530506408189467
 20
154.1110172391151991
 30
0.0
 40
0.0382622074293472
 50
330.2033713494316203
 51
356.8510173941676271
  0
ARC
  5
17400
  8
0
 10
4107.6051928251408754
 20
154.1085040067341083
 30
0.0
 40
0.0411172157640688
 50
186.6454933985268099
 51
234.4597653068852026
  0
ARC
  5
17401
  8
0
 10
4107.6177283189008449
 20
154.1237989444773859
 30
0.0
 40
0.0608634772002836
 50
233.2267720389897931
 51
249.3675912478333032
  0
ARC
  5
17402
  8
0
 10
4107.6390392858866107
 20
154.1201975678862084
 30
0.0
 40
0.0549922697441148
 50
297.2255772340060958
 51
329.1571770588241179
  0
ARC
  5
17403
  8
0
 10
4107.6243836410312724
 20
154.1480907493271957
 30
0.0
 40
0.0865005354960152
 50
269.8630141057632272
 51
297.4050743486496913
  0
ARC
  5
17404
  8
0
 10
4107.6259073997398445
 20
154.1475374448212108
 30
0.0
 40
0.0859644047626466
 50
249.8410044199960112
 51
268.8464878718245927
  0
ARC
  5
17405
  8
0
 10
4107.6649079843800791
 20
154.1522625761174936
 30
0.0
 40
0.0368307475071929
 50
20.2872043029623796
 51
42.731850166189453
  0
LINE
  5
17406
  8
0
 10
4107.6447051988188832
 20
154.3274338210354131
 30
0.0
 11
4107.647909601028914
 21
154.3942854368847861
 31
0.0
  0
LINE
  5
17407
  8
0
 10
4107.518098063744219
 20
154.3232622684490138
 30
0.0
 11
4107.5120756857668312
 21
154.3871699617637887
 31
0.0
  0
ARC
  5
17408
  8
0
 10
4107.5415412763486529
 20
154.3672430431290081
 30
0.0
 40
0.0356358143234957
 50
169.4440288574612907
 51
224.9626778138421059
  0
ARC
  5
17409
  8
0
 10
4107.5544195646789376
 20
154.3617201238870109
 30
0.0
 40
0.0494034242659526
 50
123.9486177374910056
 51
165.8810572104003995
  0
ARC
  5
1740A
  8
0
 10
4107.5846359914776258
 20
154.3165276944017137
 30
0.0
 40
0.1037667763475428
 50
70.740480728075795
 51
123.8536571101467985
  0
ARC
  5
1740B
  8
0
 10
4107.598212898359634
 20
154.3535350332454072
 30
0.0
 40
0.0643551667146976
 50
41.8158536113826003
 51
71.2838308285829783
  0
ARC
  5
1740C
  8
0
 10
4107.6222818681690114
 20
154.3733072198700995
 30
0.0
 40
0.0328443933372576
 50
356.9359443678164894
 51
18.4991436782745886
  0
ARC
  5
1740D
  8
0
 10
4107.6125832842162708
 20
154.3747277288977102
 30
0.0
 40
0.0426145480227352
 50
320.9674341731405889
 51
355.7257047387361126
  0
ARC
  5
1740E
  8
0
 10
4107.6065007645293008
 20
154.3295356578263977
 30
0.0
 40
0.0382622074293472
 50
330.2033713494316203
 51
356.8510173941676271
  0
ARC
  5
1740F
  8
0
 10
4107.5600313939894477
 20
154.3278580150524135
 30
0.0
 40
0.0421844174109293
 50
186.2544555422506107
 51
233.6094872582104074
  0
ARC
  5
17410
  8
0
 10
4107.5722211818410869
 20
154.3421858088881038
 30
0.0
 40
0.0609643268674587
 50
232.3761460705325987
 51
248.4617067846972986
  0
ARC
  5
17411
  8
0
 10
4107.5924894095960553
 20
154.338715986597407
 30
0.0
 40
0.0549922697441148
 50
297.2255772340060958
 51
329.1571770588241179
  0
ARC
  5
17412
  8
0
 10
4107.577833764740717
 20
154.366609168038309
 30
0.0
 40
0.0865005354960152
 50
269.8630141057632272
 51
297.4050743486496913
  0
ARC
  5
17413
  8
0
 10
4107.57882155707739
 20
154.3608737435079092
 30
0.0
 40
0.0807736980061625
 50
248.9733466096523955
 51
269.152593345250807
  0
ARC
  5
17414
  8
0
 10
4107.6176196752903707
 20
154.3717275010299943
 30
0.0
 40
0.0377669176831365
 50
18.5276995523379107
 51
40.8760614664325175
  0
ARC
  5
17415
  8
0
 10
4107.1991646205042343
 20
153.9285490951695863
 30
0.0
 40
0.0973270015787309
 50
47.1142088859574599
 51
69.142537958123313
  0
ARC
  5
17416
  8
0
 10
4107.1152319607499521
 20
153.7245743453607076
 30
0.0
 40
0.3178719156760176
 50
68.09552303085988
 51
78.0662128748895014
  0
ARC
  5
17417
  8
0
 10
4107.1769098478889646
 20
154.0189447365710009
 30
0.0
 40
0.01711792688057
 50
76.3073643709181084
 51
121.705919725147794
  0
ARC
  5
17418
  8
0
 10
4107.1718619334787945
 20
154.0269118245996083
 30
0.0
 40
0.0076876426224683
 50
120.9056804330574977
 51
170.2573626626366092
  0
ARC
  5
17419
  8
0
 10
4107.2461455777738593
 20
153.9802198739056109
 30
0.0
 40
0.0275048053993013
 50
3.4178455489744342
 51
45.5714875509789366
  0
ARC
  5
1741A
  8
0
 10
4107.2439249704857502
 20
153.9813481308690939
 30
0.0
 40
0.0296808979315683
 50
318.2179362731940273
 51
0.9874540248799574
  0
ARC
  5
1741B
  8
0
 10
4107.2255135014265761
 20
153.9986711638117072
 30
0.0
 40
0.0549562117419639
 50
276.1720726035114239
 51
317.5402755523214182
  0
ARC
  5
1741C
  8
0
 10
4107.2209783003891062
 20
154.0080820916132041
 30
0.0
 40
0.0648944861660778
 50
253.0721355207197973
 51
279.2611812364610842
  0
ARC
  5
1741D
  8
0
 10
4107.2140589502650982
 20
153.9927722371209882
 30
0.0
 40
0.0482817078938972
 50
218.427941949743996
 51
255.6384166489418135
  0
ARC
  5
1741E
  8
0
 10
4107.2282503543628991
 20
154.0018858355583973
 30
0.0
 40
0.0650852007292127
 50
183.9984977525558065
 51
216.9480692804565933
  0
ARC
  5
1741F
  8
0
 10
4107.2888187958424169
 20
154.0088853620042073
 30
0.0
 40
0.1260244956133702
 50
171.1781814113033136
 51
185.2529643647127102
  0
ARC
  5
17420
  8
0
 10
4107.2563707908384458
 20
154.0252060886998891
 30
0.0
 40
0.0282474730473597
 50
312.0861466867406193
 51
41.1316972878465918
  0
ARC
  5
17421
  8
0
 10
4107.2120750006479284
 20
153.9815931706434924
 30
0.0
 40
0.0903755308146488
 50
43.4855551062516383
 51
67.397314380166236
  0
ARC
  5
17422
  8
0
 10
4107.117582069209675
 20
153.7629617548728902
 30
0.0
 40
0.3285472787057117
 50
66.8380943726882464
 51
78.0871464901432404
  0
ARC
  5
17423
  8
0
 10
4107.1772257264938162
 20
154.0491196891377115
 30
0.0
 40
0.0362475168378804
 50
76.9637092416254234
 51
117.427716970790101
  0
ARC
  5
17424
  8
0
 10
4107.1683154059928711
 20
154.0663656040329101
 30
0.0
 40
0.0168358523837228
 50
117.5476360910050033
 51
145.0290468076011905
  0
ARC
  5
17425
  8
0
 10
4107.1641283980998196
 20
154.0704121656470988
 30
0.0
 40
0.0111232958158051
 50
149.7531793343918025
 51
175.9056235030585071
  0
ARC
  5
17426
  8
0
 10
4107.2802047538380066
 20
154.0528152847030867
 30
0.0
 40
0.1284942093381085
 50
171.7711272040187112
 51
183.5836576712474937
  0
ARC
  5
17427
  8
0
 10
4107.222205495732851
 20
154.0476873010362908
 30
0.0
 40
0.070303681783722
 50
182.3670821864797915
 51
212.3298434462375894
  0
LINE
  5
17428
  8
0
 10
4107.2735980190664122
 20
153.9806655694914923
 30
0.0
 11
4107.2781236737409927
 21
154.0432264055388885
 31
0.0
  0
LINE
  5
17429
  8
0
 10
4107.1642851634787803
 20
154.0282127494388078
 30
0.0
 11
4107.1605290613133548
 21
154.0812927189724064
 31
0.0
  0
LINE
  5
1742A
  8
0
 10
4107.2421477620664518
 20
154.1456216746854011
 30
0.0
 11
4107.2461347049111282
 21
154.0905412817241995
 31
0.0
  0
ARC
  5
1742B
  8
0
 10
4107.2562098811658871
 20
154.0901174346560083
 30
0.0
 40
0.0100969674156512
 50
93.177235573623463
 51
176.9825742461327991
  0
ARC
  5
1742C
  8
0
 10
4107.2549404876017434
 20
154.0912327891118991
 30
0.0
 40
0.0088328925778667
 50
183.7900090499308874
 51
222.2425226925215895
  0
ARC
  5
1742D
  8
0
 10
4107.3252681238473087
 20
153.7165308511906119
 30
0.0
 40
0.3899330772722782
 50
92.0293073110703546
 51
100.284613026527694
  0
ARC
  5
1742E
  8
0
 10
4107.3197177726733571
 20
153.9795079677408864
 30
0.0
 40
0.1269801851745954
 50
70.0885031404456242
 51
93.7285424457260916
  0
ARC
  5
1742F
  8
0
 10
4107.3474546456927783
 20
154.0600576712618874
 30
0.0
 40
0.0418213822069124
 50
33.946698044819378
 51
68.2333042280675528
  0
ARC
  5
17430
  8
0
 10
4107.3591473468859476
 20
154.069381157211609
 30
0.0
 40
0.0269421375523047
 50
325.6040388213929191
 51
31.3834484301635896
  0
ARC
  5
17431
  8
0
 10
4107.3414394155661284
 20
154.0813274463152993
 30
0.0
 40
0.0483026803906336
 50
286.0791445167737947
 51
325.777039958251919
  0
ARC
  5
17432
  8
0
 10
4107.3335643953314502
 20
154.1017459393723072
 30
0.0
 40
0.0701295690240181
 50
253.9784472001788913
 51
287.6412303418907754
  0
ARC
  5
17433
  8
0
 10
4107.35101874666816
 20
154.1449993401728875
 30
0.0
 40
0.1166207168572273
 50
224.4064810722549055
 51
251.6006107118701891
  0
ARC
  5
17434
  8
0
 10
4107.4053413021438246
 20
154.2041744315777123
 30
0.0
 40
0.1968819685413435
 50
217.1434164493464891
 51
225.6470075473949919
  0
ARC
  5
17435
  8
0
 10
4107.3259942789190973
 20
153.7480221826072864
 30
0.0
 40
0.407947508283932
 50
93.2996688044297002
 51
99.9548894001850954
  0
ARC
  5
17436
  8
0
 10
4107.2585196014997564
 20
154.1169658693756901
 30
0.0
 40
0.033002913574685
 50
95.2997113064978265
 51
120.5225267665756945
  0
ARC
  5
17437
  8
0
 10
4107.2482074044601177
 20
154.1331718576732897
 30
0.0
 40
0.0138206831140512
 50
117.8161446276718038
 51
158.3020172517603044
  0
ARC
  5
17438
  8
0
 10
4107.2447164587729276
 20
154.1356665939619859
 30
0.0
 40
0.0097092499574669
 50
164.3757692885914139
 51
222.7108725322848954
  0
ARC
  5
17439
  8
0
 10
4107.4304000337624529
 20
154.276384787684691
 30
0.0
 40
0.2426461650716083
 50
217.3781714992940124
 51
219.7783075953481102
  0
ARC
  5
1743A
  8
0
 10
4107.3499727807866293
 20
154.0978481033926926
 30
0.0
 40
0.0533314679162803
 50
40.2777388925827893
 51
70.1294974023519444
  0
ARC
  5
1743B
  8
0
 10
4107.3703606477911308
 20
154.1148821397146946
 30
0.0
 40
0.0267654124650079
 50
346.5249659988235749
 51
40.6738122391134596
  0
ARC
  5
1743C
  8
0
 10
4107.3603023946943722
 20
154.1179453857047861
 30
0.0
 40
0.037265992732928
 50
317.6134938774055172
 51
345.5484196702136046
  0
LINE
  5
1743D
  8
0
 10
4107.3906604127641913
 20
154.1323265325079035
 30
0.0
 11
4107.3860661916978643
 21
154.0682610813823885
 31
0.0
  0
ARC
  5
1743E
  8
0
 10
4107.3530718173760761
 20
154.2563106667219017
 30
0.0
 40
0.1092475664010992
 50
264.229071699211886
 51
280.4044298204765937
  0
ARC
  5
1743F
  8
0
 10
4107.3632184032985606
 20
154.3618287153744859
 30
0.0
 40
0.2152517043992695
 50
255.0493986767984893
 51
264.3661107771000047
  0
ARC
  5
17440
  8
0
 10
4107.3987342970440295
 20
154.4933219679791989
 30
0.0
 40
0.3514565535875719
 50
248.7746880950502941
 51
254.9857879947595052
  0
ARC
  5
17441
  8
0
 10
4107.2757713854462054
 20
154.1770673342344935
 30
0.0
 40
0.0121389854402521
 50
207.542974952005892
 51
249.3689468380715084
  0
ARC
  5
17442
  8
0
 10
4107.3655220062892113
 20
154.1962094722900929
 30
0.0
 40
0.0479063538786835
 50
278.7399797995498716
 51
330.4892646436705945
  0
LINE
  5
17443
  8
0
 10
4107.2598821742849395
 20
154.2302212291519083
 30
0.0
 11
4107.2638704668197533
 21
154.1753671663801128
 31
0.0
  0
LINE
  5
17444
  8
0
 10
4107.4150977344133935
 20
154.2485438001909017
 30
0.0
 11
4107.4105506777514165
 21
154.1851530018221013
 31
0.0
  0
ARC
  5
17445
  8
0
 10
4107.3915960877166071
 20
154.2302280370342089
 30
0.0
 40
0.0298991641249693
 50
313.6445525492836737
 51
29.4397043009608517
  0
ARC
  5
17446
  8
0
 10
4107.3783640988913248
 20
154.2201043379288024
 30
0.0
 40
0.046456032896381
 50
32.2933876110790266
 51
66.0454546281930703
  0
ARC
  5
17447
  8
0
 10
4107.3605948763806737
 20
154.1821367166508026
 30
0.0
 40
0.0883717709753257
 50
65.511583066990454
 51
96.2350411523188853
  0
ARC
  5
17448
  8
0
 10
4107.3648805984703358
 20
154.1361421323568095
 30
0.0
 40
0.1345617528983247
 50
95.9220890403663304
 51
109.1083567250720989
  0
ARC
  5
17449
  8
0
 10
4107.4285042761621298
 20
153.9978735917806887
 30
0.0
 40
0.2870868123638179
 50
117.8057925316804955
 51
126.4062208139545049
  0
ARC
  5
1744A
  8
0
 10
4107.2624802216960234
 20
154.2202256798906888
 30
0.0
 40
0.0097364656247001
 50
116.6275044893375963
 51
212.8366977873589008
  0
ARC
  5
1744B
  8
0
 10
4107.2692891960341512
 20
154.2237449137749934
 30
0.0
 40
0.0173813469685929
 50
210.4124204975015004
 51
243.3100436689105948
  0
ARC
  5
1744C
  8
0
 10
4107.3067190772462709
 20
154.2927976570341002
 30
0.0
 40
0.032273784035922
 50
308.9162633110861975
 51
7.6290876311467413
  0
ARC
  5
1744D
  8
0
 10
4107.2730864574814404
 20
154.3367166434429123
 30
0.0
 40
0.0875846015320171
 50
284.2091380040993158
 51
307.9867413839853043
  0
ARC
  5
1744E
  8
0
 10
4107.2285486154578393
 20
154.4960571745990876
 30
0.0
 40
0.2530152782915811
 50
274.710503835660802
 51
285.1293002941736745
  0
ARC
  5
1744F
  8
0
 10
4107.1986512494822819
 20
154.8324468390281083
 30
0.0
 40
0.590727935546232
 50
272.5603413689938179
 51
274.9211370259525893
  0
ARC
  5
17450
  8
0
 10
4107.2240053187615558
 20
154.254430736143803
 30
0.0
 40
0.0121662005401088
 50
183.6519154258629101
 51
274.8784647173304734
  0
ARC
  5
17451
  8
0
 10
4107.3027651028260152
 20
154.2872981294225951
 30
0.0
 40
0.0372500107655812
 50
15.2281058199894108
 51
70.8473548418316739
  0
ARC
  5
17452
  8
0
 10
4107.2882822196015695
 20
154.2601482280016114
 30
0.0
 40
0.067816961076418
 50
66.8108942836758501
 51
105.4774717731566938
  0
ARC
  5
17453
  8
0
 10
4107.2879858148016865
 20
154.2601960366592948
 30
0.0
 40
0.0676923378391929
 50
105.2464866297516011
 51
134.2632045922563861
  0
ARC
  5
17454
  8
0
 10
4107.3252339845566894
 20
154.229405038187906
 30
0.0
 40
0.1158566493270479
 50
136.8278557283420866
 51
164.2344969677913014
  0
ARC
  5
17455
  8
0
 10
4107.2600809122823193
 20
154.2450244711409937
 30
0.0
 40
0.0489835461016703
 50
161.1095264071446991
 51
169.8509783549988015
  0
LINE
  5
17456
  8
0
 10
4107.3437083857170364
 20
154.3554049923181992
 30
0.0
 11
4107.3389619037970988
 21
154.2913844083252002
 31
0.0
  0
LINE
  5
17457
  8
0
 10
4107.2118638226102121
 20
154.2536558124236876
 30
0.0
 11
4107.2072210979113152
 21
154.3181416957243073
 31
0.0
  0
ARC
  5
17458
  8
0
 10
4107.3189385940468128
 20
154.3367131903104053
 30
0.0
 40
0.0310310496390246
 50
296.9511260385791047
 51
37.0389666151299224
  0
ARC
  5
17459
  8
0
 10
4107.2974665508545513
 20
154.3150673408129023
 30
0.0
 40
0.0613631275306158
 50
41.0988234684093214
 51
78.9116707729494635
  0
ARC
  5
1745A
  8
0
 10
4107.2886430275812017
 20
154.2878596626584056
 30
0.0
 40
0.0898252125100453
 50
76.7257304510826117
 51
114.5991620409195946
  0
ARC
  5
1745B
  8
0
 10
4107.2942298121988642
 20
154.288152103251889
 30
0.0
 40
0.0920320162715626
 50
117.8391365680021039
 51
160.9822879268276949
  0
ARC
  5
1745C
  8
0
 10
4107.3932413183647441
 20
154.245282197264288
 30
0.0
 40
0.1997799512822349
 50
158.6109555705915
 51
164.1169226254702949
  0
ARC
  5
1745D
  8
0
 10
4107.2117906710300304
 20
154.2978665912631016
 30
0.0
 40
0.0109043874339646
 50
168.9477573365691114
 51
215.7763245435992872
  0
ARC
  5
1745E
  8
0
 10
4107.2177744862001418
 20
154.3016594815431972
 30
0.0
 40
0.0179814292995487
 50
214.4344774912117089
 51
242.8147650911739106
  0
ARC
  5
1745F
  8
0
 10
4107.1194497482129009
 20
154.301604424828497
 30
0.0
 40
0.0132736338665293
 50
212.7230527472567871
 51
296.5466577027693234
  0
ARC
  5
17460
  8
0
 10
4107.2132967227253175
 20
154.3606864551402964
 30
0.0
 40
0.1241692077938314
 50
187.3458097497399137
 51
212.2494458896472054
  0
ARC
  5
17461
  8
0
 10
4107.033417879294575
 20
154.4893554797488946
 30
0.0
 40
0.2197900347508443
 50
294.7347781583407027
 51
309.6601335649475004
  0
ARC
  5
17462
  8
0
 10
4107.1407284879542203
 20
154.3646103849058875
 30
0.0
 40
0.0553478458079006
 50
306.5571137037256904
 51
342.0310218256836947
  0
ARC
  5
17463
  8
0
 10
4107.1677882368639985
 20
154.3553336195629129
 30
0.0
 40
0.0267503113684709
 50
343.0512325996323284
 51
44.0870285999000728
  0
ARC
  5
17464
  8
0
 10
4107.1464849939347914
 20
154.3345784080347016
 30
0.0
 40
0.0564925949109321
 50
44.1746542909195625
 51
87.5836924122895084
  0
ARC
  5
17465
  8
0
 10
4107.1422084592750252
 20
154.3271582904365005
 30
0.0
 40
0.0642086384377728
 50
84.0478811595708066
 51
128.4617557469971132
  0
ARC
  5
17466
  8
0
 10
4107.1265885164957581
 20
154.3498326139269921
 30
0.0
 40
0.0367863153088166
 50
131.3794413679773072
 51
187.8466336637615086
  0
ARC
  5
17467
  8
0
 10
4107.1878606550935729
 20
154.4021046535825121
 30
0.0
 40
0.1098110981341274
 50
188.691017546505293
 51
206.4720966726158053
  0
ARC
  5
17468
  8
0
 10
4107.1229419556229914
 20
154.3928178057732055
 30
0.0
 40
0.0442390021759992
 50
148.8948374364688902
 51
189.5061849869503874
  0
ARC
  5
17469
  8
0
 10
4107.1344950543616505
 20
154.3780299760252888
 30
0.0
 40
0.0621321150075851
 50
100.5866587432251009
 51
142.7106402072517142
  0
ARC
  5
1746A
  8
0
 10
4107.1430407004036169
 20
154.3531436668417882
 30
0.0
 40
0.0882479051045618
 50
63.1200262996695827
 51
103.0728096762729962
  0
ARC
  5
1746B
  8
0
 10
4107.1649319923662915
 20
154.3940590203617091
 30
0.0
 40
0.0418682746239953
 50
19.2541998763568287
 51
64.5259894104839304
  0
ARC
  5
1746C
  8
0
 10
4107.1746507052794186
 20
154.3999265740567921
 30
0.0
 40
0.0308467614862216
 50
330.0239853987390006
 51
14.9138550884065797
  0
ARC
  5
1746D
  8
0
 10
4107.1431138554989957
 20
154.415594997091091
 30
0.0
 40
0.0660297476979646
 50
323.3397126409752218
 51
331.9198452124845744
  0
LINE
  5
1746E
  8
0
 10
4107.1991014561381235
 20
154.4182540645971926
 30
0.0
 11
4107.1948028650158449
 21
154.3583381229395002
 31
0.0
  0
LINE
  5
1746F
  8
0
 10
4107.0850636133100124
 20
154.4156721379056876
 30
0.0
 11
4107.089802201186103
 21
154.3498326139269921
 31
0.0
  0
ARC
  5
17470
  8
0
 10
4107.0999345260033806
 20
155.8065277929478043
 30
0.0
 40
2.68470501055765
 50
280.5756199549559256
 51
289.2885283271526191
  0
ARC
  5
17471
  8
0
 10
4107.1892203136621902
 20
155.5561837022900136
 30
0.0
 40
2.4189206077816721
 50
289.2511296670986098
 51
297.6660040679145141
  0
ARC
  5
17472
  8
0
 10
4107.0521027605400377
 20
155.9954888764071939
 30
0.0
 40
2.8775086091083559
 50
260.8779458735073149
 51
265.3673492867724804
  0
ARC
  5
17473
  8
0
 10
4107.0301454465597999
 20
155.8734203745484876
 30
0.0
 40
2.7534616047792269
 50
253.8810934729465885
 51
259.3508315292137922
  0
ARC
  5
17474
  8
0
 10
4106.9502436794937239
 20
155.6131340470639088
 30
0.0
 40
2.4812285727064669
 50
242.421957250663695
 51
253.9849347375213995
  0
ARC
  5
17475
  8
0
 10
4106.7892670260243904
 20
155.2990369974673968
 30
0.0
 40
2.1282954735378281
 50
232.0896767038142059
 51
242.3485551176815136
  0
ARC
  5
17476
  8
0
 10
4106.5038915228988117
 20
154.9500980424452052
 30
0.0
 40
1.6776838843504049
 50
211.0336682557162931
 51
232.4570163051203053
  0
ARC
  5
17477
  8
0
 10
4106.1390749087913719
 20
154.7312433303492867
 30
0.0
 40
1.252256872221972
 50
198.6168972436431091
 51
211.0588025016475058
  0
ARC
  5
17478
  8
0
 10
4105.9034705856265646
 20
154.6511367736854936
 30
0.0
 40
1.003407832745387
 50
176.8924875665900913
 51
198.5768759931690965
  0
ARC
  5
17479
  8
0
 10
4105.9518282829485543
 20
154.6473445084700984
 30
0.0
 40
1.0519006465980041
 50
156.5541852593003966
 51
176.8290188103547962
  0
ARC
  5
1747A
  8
0
 10
4106.0788926143686695
 20
154.5968092217823937
 30
0.0
 40
1.1885885954831661
 50
150.5311653525621978
 51
156.7563392182426867
  0
ARC
  5
1747B
  8
0
 10
4106.1751993099105675
 20
154.541661338798491
 30
0.0
 40
1.29956561953311
 50
143.7404982898765979
 51
150.5031712922132954
  0
ARC
  5
1747C
  8
0
 10
4106.3065410286617407
 20
154.444207579276906
 30
0.0
 40
1.463111216762339
 50
136.0309496631913078
 51
143.7052418856249005
  0
ARC
  5
1747D
  8
0
 10
4106.4418542598259592
 20
154.3151458317645961
 30
0.0
 40
1.650102168516963
 50
130.9850992414179132
 51
136.0676239773810039
  0
ARC
  5
1747E
  8
0
 10
4106.7464938410221293
 20
153.9252030750581923
 30
0.0
 40
2.1444189709843671
 50
120.7284083704451945
 51
130.2962103528350042
  0
ARC
  5
1747F
  8
0
 10
4106.8511591672404393
 20
153.7050937495617973
 30
0.0
 40
2.3872115154760589
 50
111.2518996436309067
 51
120.1884020125571055
  0
ARC
  5
17480
  8
0
 10
4106.9922813472130656
 20
153.3301999716101136
 30
0.0
 40
2.7877667810324609
 50
101.2948070438518045
 51
111.1622479798179057
  0
ARC
  5
17481
  8
0
 10
4107.1435383731532056
 20
152.3628967516648061
 30
0.0
 40
3.7661850088821232
 50
94.7846354966199982
 51
100.6691386702016047
  0
ARC
  5
17482
  8
0
 10
4107.0643290146517757
 20
152.6785069892289926
 30
0.0
 40
3.445469342349945
 50
89.019581217991572
 51
93.9097652502628222
  0
ARC
  5
17483
  8
0
 10
4107.0583225759937704
 20
152.9964580823327083
 30
0.0
 40
3.1276885147903291
 50
82.0777343490824052
 51
88.8099041114722638
  0
ARC
  5
17484
  8
0
 10
4107.0934844947387319
 20
153.2229298392834096
 30
0.0
 40
2.8985341118730901
 50
71.407818872213042
 51
82.1491304414773538
  0
ARC
  5
17485
  8
0
 10
4107.2340190869790604
 20
153.6461573225629991
 30
0.0
 40
2.452588030544939
 50
59.8470620677906879
 51
71.3672345262799581
  0
ARC
  5
17486
  8
0
 10
4107.646029687392911
 20
154.3102218493851012
 30
0.0
 40
1.671576683199129
 50
34.4284184210728128
 51
60.6249677353286103
  0
ARC
  5
17487
  8
0
 10
4108.0978355136776372
 20
154.6295451943045123
 30
0.0
 40
1.1184026771994779
 50
10.5825467247310296
 51
34.0212269005310404
  0
ARC
  5
17488
  8
0
 10
4108.296512983327375
 20
154.6580149086543088
 30
0.0
 40
0.9179153026374194
 50
354.8721226545573018
 51
11.1132456277768892
  0
ARC
  5
17489
  8
0
 10
4108.1344297415807887
 20
154.6653043328020942
 30
0.0
 40
1.0800255359388911
 50
332.1043195177837219
 51
355.2554981074889042
  0
ARC
  5
1748A
  8
0
 10
4107.6134270825850763
 20
154.9448840359785038
 30
0.0
 40
1.6712965350792011
 50
308.2665676101397025
 51
331.9899939959881863
  0
ARC
  5
1748B
  8
0
 10
4107.352792976937053
 20
155.2550619886337984
 30
0.0
 40
2.0762830045061311
 50
297.526496534131013
 51
308.612449639473823
  0
ARC
  5
1748C
  8
0
 10
4106.0356997041599243
 20
154.6782825407902919
 30
0.0
 40
1.1443722886519241
 50
147.7473155513933136
 51
170.4385644913508031
  0
ARC
  5
1748D
  8
0
 10
4106.3703667566451259
 20
154.4588203822912931
 30
0.0
 40
1.5445339254461901
 50
127.8970133228175001
 51
147.487521076761908
  0
ARC
  5
1748E
  8
0
 10
4106.738967640170813
 20
153.9968312809380961
 30
0.0
 40
2.1355196567482548
 50
111.4213323750018958
 51
128.0873672330367867
  0
ARC
  5
1748F
  8
0
 10
4107.0421026138592424
 20
153.2290949895156871
 30
0.0
 40
2.9609331839883062
 50
90.2873892235617035
 51
111.4561462629078932
  0
ARC
  5
17490
  8
0
 10
4107.0671496758950525
 20
153.1931464941071965
 30
0.0
 40
2.9968617748218032
 50
70.1361371075666682
 51
89.8050776465497762
  0
ARC
  5
17491
  8
0
 10
4107.3593897645050674
 20
153.9831474724130942
 30
0.0
 40
2.1545741346466492
 50
48.3476821973698918
 51
70.3068874193971851
  0
ARC
  5
17492
  8
0
 10
4107.8539910948766192
 20
154.5517954992766079
 30
0.0
 40
1.4009937455008921
 50
25.7889816724609204
 51
48.0055179596659229
  0
ARC
  5
17493
  8
0
 10
4108.123233131033885
 20
154.6912559080431038
 30
0.0
 40
1.097926594764266
 50
9.2832650090607025
 51
25.348813816471381
  0
ARC
  5
17494
  8
0
 10
4108.2091345972039562
 20
154.7076539341902048
 30
0.0
 40
1.0105076108453399
 50
356.083012542330323
 51
9.1513798497070749
  0
ARC
  5
17495
  8
0
 10
4108.4061443508089724
 20
154.6856404398826044
 30
0.0
 40
0.8124987985670147
 50
352.8839377505505013
 51
356.6827170311773898
  0
ARC
  5
17496
  8
0
 10
4108.8184785802450278
 20
154.6156236435614062
 30
0.0
 40
0.3950955964574719
 50
350.9352351603415059
 51
355.5528841937206721
  0
ARC
  5
17497
  8
0
 10
4107.3809572759337243
 20
154.1863134487500133
 30
0.0
 40
0.0296161453972622
 50
332.4415505052560889
 51
357.7544094427317987
  0
LINE
  5
17498
  8
0
 10
4106.949605750610317
 20
154.0283114418600974
 30
0.0
 11
4106.9533794614071667
 21
154.0812927189724064
 31
0.0
  0
ARC
  5
17499
  8
0
 10
4107.0618071198223333
 20
153.942557392878598
 30
0.0
 40
0.0569270364422768
 50
141.096289650378111
 51
174.0010406571066142
  0
ARC
  5
1749A
  8
0
 10
4107.1453628193312397
 20
153.8818894564074071
 30
0.0
 40
0.1601370511672645
 50
132.9989688561107073
 51
142.9793898749790912
  0
ARC
  5
1749B
  8
0
 10
4107.2234780628368753
 20
153.8012355554926103
 30
0.0
 40
0.2724063065048272
 50
130.3777488984846968
 51
133.4461474838172137
  0
ARC
  5
1749C
  8
0
 10
4107.0519860907043039
 20
153.94255739285191
 30
0.0
 40
0.0569270364422768
 50
5.464361493023512
 51
38.9037106614388506
  0
ARC
  5
1749D
  8
0
 10
4106.9684303915264536
 20
153.8818894559260002
 30
0.0
 40
0.1601370511672645
 50
37.0206104368233397
 51
47.0010314557103825
  0
ARC
  5
1749E
  8
0
 10
4106.8908074397777455
 20
153.8017694367817967
 30
0.0
 40
0.2716801617760727
 50
46.5518024634964789
 51
49.6283175559725294
  0
ARC
  5
1749F
  8
0
 10
4107.0568961460321589
 20
153.9954235939341913
 30
0.0
 40
0.0165965715820264
 50
53.4212898385516368
 51
126.5749171513684956
  0
LINE
  5
174A0
  8
0
 10
4107.5039318047611232
 20
148.174319458769105
 30
0.0
 11
4107.496862140515077
 21
148.0475805913316094
 31
0.0
  0
LINE
  5
174A1
  8
0
 10
4107.5254722385416244
 20
148.1863464759796045
 30
0.0
 11
4107.5300325990319834
 21
148.0420667813324087
 31
0.0
  0
ARC
  5
174A2
  8
0
 10
4105.9048704118849855
 20
154.7076539341902048
 30
0.0
 40
1.0105076108453399
 50
170.8486201502929021
 51
187.3886829381875998
  0
ARC
  5
174A3
  8
0
 10
4109.0685335923089951
 20
171.1914339480242973
 30
0.0
 40
0.0157
 50
0.0
 51
90.0
  0
ARC
  5
174A4
  8
0
 10
4109.0245335923100356
 20
170.7943930032242861
 30
0.0
 40
0.0597
 50
270.0
 51
0.0
  0
ARC
  5
174A5
  8
0
 10
4105.4988597847777783
 20
149.8463163001626128
 30
0.0
 40
1.7735218821582019
 50
235.9475394648748932
 51
246.1611218083691028
  0
ARC
  5
174A6
  8
0
 10
4105.1263721778523177
 20
149.0092550342656921
 30
0.0
 40
0.8573304767496781
 50
246.3213356492431103
 51
259.2091899155242913
  0
ARC
  5
174A7
  8
0
 10
4104.6781044058416228
 20
149.8463163001626128
 30
0.0
 40
1.7735218821582019
 50
293.8388781916310108
 51
304.049979494544516
  0
ARC
  5
174A8
  8
0
 10
4105.0505920127679929
 20
149.0092550342656921
 30
0.0
 40
0.8573304767496781
 50
280.7908100844757087
 51
293.6786643507570034
  0
ARC
  5
174A9
  8
0
 10
4105.0884820953097005
 20
148.816254408016988
 30
0.0
 40
0.6606495925927091
 50
259.3033558307558906
 51
280.6966441692441094
  0
ARC
  5
174AA
  8
0
 10
4105.4988597847777783
 20
145.2539577672860105
 30
0.0
 40
1.7735218821582019
 50
113.8388781916308972
 51
124.0524638835718036
  0
ARC
  5
174AB
  8
0
 10
4105.1263721778523177
 20
146.0910190331827891
 30
0.0
 40
0.8573304767496781
 50
100.7908100844756945
 51
113.6786643507569039
  0
ARC
  5
174AC
  8
0
 10
4104.6781044058416228
 20
145.2539577672860105
 30
0.0
 40
1.7735218821582019
 50
55.9500164156253135
 51
66.1611218083690602
  0
ARC
  5
174AD
  8
0
 10
4105.0505920127679929
 20
146.0910190331827891
 30
0.0
 40
0.8573304767496781
 50
66.3213356492430819
 51
79.2091899155242771
  0
ARC
  5
174AE
  8
0
 10
4105.0884820953097005
 20
146.2840196594316069
 30
0.0
 40
0.6606495925927091
 50
79.3033558307559332
 51
100.6966441692440952
  0
LINE
  5
174AF
  8
0
  6
CONTINUOUS
 62
     7
 10
4105.7577416191097655
 20
131.7312393959242911
 30
0.0
 11
4104.4191589419096999
 21
131.7312393959242911
 31
0.0
  0
LINE
  5
174B0
  8
0
  6
CONTINUOUS
 62
     7
 10
4105.2262455561412935
 20
131.3690346715243038
 30
0.0
 11
4104.9506550049491125
 21
131.3690346715243038
 31
0.0
  0
LINE
  5
174B1
  8
0
  6
CONTINUOUS
 62
     7
 10
4104.4388439813101286
 20
130.9950189234243112
 30
0.0
 11
4104.9309699655095756
 21
130.9950189234243112
 31
0.0
  0
LINE
  5
174B2
  8
0
  6
CONTINUOUS
 62
     7
 10
4105.2459305954098454
 20
130.9950189234243112
 30
0.0
 11
4105.7380565797102463
 21
130.9950189234243112
 31
0.0
  0
LINE
  5
174B3
  8
0
  6
CONTINUOUS
 62
     7
 10
4105.7774266584101497
 20
130.9359638053242918
 30
0.0
 11
4105.2459305954098454
 21
130.9359638053242918
 31
0.0
  0
LINE
  5
174B4
  8
0
  6
CONTINUOUS
 62
     7
 10
4104.9309699655095756
 20
130.9359638053242918
 30
0.0
 11
4104.3994739025101808
 21
130.9359638053242918
 31
0.0
  0
LINE
  5
174B5
  8
0
 10
4109.084233592309829
 20
171.1914339480242973
 30
0.0
 11
4109.084233592309829
 21
170.7943930032242861
 31
0.0
  0
LINE
  5
174B6
  8
0
 10
4101.0926669687087269
 20
171.1914339480242973
 30
0.0
 11
4101.0926669687087269
 21
170.7943930032242861
 31
0.0
  0
LINE
  5
174B7
  8
0
 10
4107.0773450904298443
 20
156.1899909263242989
 30
0.0
 11
4107.0272509663582241
 21
156.1899909263242989
 31
0.0
  0
ATTDEF
  5
174B9
  8
DEFPOINTS
 10
4105.0884910955819578
 20
129.8322876235257013
 30
0.0
 40
0.001
  1
K-24581T-E
  3

  2
MODELNUMBER
 70
     0
1001
ACDBATTR
1070
     0
1070
     1
  0
ATTDEF
  5
174BA
  8
DEFPOINTS
 10
4105.0884910955819578
 20
129.830620956859093
 30
0.0
 40
0.001
  1
RAIN DUET
  3

  2
TRADENAME
 70
     0
1001
ACDBATTR
1070
     0
1070
     1
  0
ATTDEF
  5
174BB
  8
DEFPOINTS
 10
4105.0884910955819578
 20
129.8289542901923994
 30
0.0
 40
0.001
  1
SHOWER AND BODY SPRAY
  3

  2
PRODUCT
 70
     0
1001
ACDBATTR
1070
     0
1070
     1
  0
ENDSEC
  0
EOF
