  0
SECTION
  2
HEADER
  9
$ACADVER
  1
AC1009
  9
$INSBASE
 10
4087.9415067210647976
 20
156.212378535190112
 30
0.0
  9
$EXTMIN
 10
4083.9037890827439696
 20
136.7552162505886884
 30
-0.0015258207003583
  9
$EXTMAX
 10
4097.3452874986860479
 20
156.2136841832057996
 30
0.0000000349246037
  9
$LIMMIN
 10
0.0
 20
0.0
  9
$LIMMAX
 10
11.6929133858000007
 20
8.2677165353999982
  9
$ORTHOMODE
 70
     0
  9
$REGENMODE
 70
     1
  9
$FILLMODE
 70
     1
  9
$QTEXTMODE
 70
     0
  9
$MIRRTEXT
 70
     0
  9
$DRAGMODE
 70
     2
  9
$LTSCALE
 40
0.6431102362
  9
$OSMODE
 70
  4095
  9
$ATTMODE
 70
     1
  9
$TEXTSIZE
 40
0.2
  9
$TRACEWID
 40
0.05
  9
$TEXTSTYLE
  7
STANDARD
  9
$CLAYER
  8
0
  9
$CELTYPE
  6
BYLAYER
  9
$CECOLOR
 62
   256
  9
$DIMSCALE
 40
1.0
  9
$DIMASZ
 40
0.1875
  9
$DIMEXO
 40
0.0625
  9
$DIMDLI
 40
0.4443307087
  9
$DIMRND
 40
0.0
  9
$DIMDLE
 40
0.0
  9
$DIMEXE
 40
0.125
  9
$DIMTP
 40
0.01
  9
$DIMTM
 40
0.01
  9
$DIMTXT
 40
2.0
  9
$DIMCEN
 40
0.1052362205
  9
$DIMTSZ
 40
0.0
  9
$DIMTOL
 70
     1
  9
$DIMLIM
 70
     0
  9
$DIMTIH
 70
     1
  9
$DIMTOH
 70
     1
  9
$DIMSE1
 70
     0
  9
$DIMSE2
 70
     0
  9
$DIMTAD
 70
     0
  9
$DIMZIN
 70
     0
  9
$DIMBLK
  1

  9
$DIMASO
 70
     1
  9
$DIMSHO
 70
     1
  9
$DIMPOST
  1
\X
  9
$DIMAPOST
  1

  9
$DIMALT
 70
     1
  9
$DIMALTD
 70
     2
  9
$DIMALTF
 40
25.3999999999999986
  9
$DIMLFAC
 40
1.0
  9
$DIMTOFL
 70
     0
  9
$DIMTVP
 40
0.0
  9
$DIMTIX
 70
     0
  9
$DIMSOXD
 70
     0
  9
$DIMSAH
 70
     0
  9
$DIMBLK1
  1

  9
$DIMBLK2
  1

  9
$DIMSTYLE
  2
STANDARD
  9
$DIMCLRD
 70
     0
  9
$DIMCLRE
 70
     0
  9
$DIMCLRT
 70
     0
  9
$DIMTFAC
 40
1.0
  9
$DIMGAP
 40
0.09
  9
$LUNITS
 70
     2
  9
$LUPREC
 70
     4
  9
$SKETCHINC
 40
0.1
  9
$FILLETRAD
 40
0.0
  9
$AUNITS
 70
     0
  9
$AUPREC
 70
     0
  9
$MENU
  1
.
  9
$ELEVATION
 40
0.0
  9
$PELEVATION
 40
0.0
  9
$THICKNESS
 40
0.0
  9
$LIMCHECK
 70
     0
  9
$BLIPMODE
 70
     0
  9
$CHAMFERA
 40
0.0
  9
$CHAMFERB
 40
0.0
  9
$SKPOLY
 70
     0
  9
$TDCREATE
 40
2458060.468368056230247
  9
$TDUPDATE
 40
2459104.4898032411001623
  9
$TDINDWG
 40
0.3791158565
  9
$TDUSRTIMER
 40
0.3791158565
  9
$USRTIMER
 70
     1
  9
$ANGBASE
 50
0.0
  9
$ANGDIR
 70
     0
  9
$PDMODE
 70
     0
  9
$PDSIZE
 40
0.3125
  9
$PLINEWID
 40
0.0
  9
$COORDS
 70
     1
  9
$SPLFRAME
 70
     0
  9
$SPLINETYPE
 70
     6
  9
$SPLINESEGS
 70
     8
  9
$ATTDIA
 70
     1
  9
$ATTREQ
 70
     1
  9
$HANDLING
 70
     1
  9
$HANDSEED
  5
146B3
  9
$SURFTAB1
 70
     6
  9
$SURFTAB2
 70
     6
  9
$SURFTYPE
 70
     6
  9
$SURFU
 70
     6
  9
$SURFV
 70
     6
  9
$UCSNAME
  2

  9
$UCSORG
 10
0.0
 20
0.0
 30
0.0
  9
$UCSXDIR
 10
1.0
 20
0.0
 30
0.0
  9
$UCSYDIR
 10
0.0
 20
1.0
 30
0.0
  9
$PUCSNAME
  2

  9
$PUCSORG
 10
0.0
 20
0.0
 30
0.0
  9
$PUCSXDIR
 10
1.0
 20
0.0
 30
0.0
  9
$PUCSYDIR
 10
0.0
 20
1.0
 30
0.0
  9
$USERI1
 70
     0
  9
$USERI2
 70
     0
  9
$USERI3
 70
     0
  9
$USERI4
 70
     0
  9
$USERI5
 70
     0
  9
$USERR1
 40
0.0
  9
$USERR2
 40
0.0
  9
$USERR3
 40
0.0
  9
$USERR4
 40
0.0
  9
$USERR5
 40
0.0
  9
$WORLDVIEW
 70
     1
  9
$SHADEDGE
 70
     3
  9
$SHADEDIF
 70
    70
  9
$TILEMODE
 70
     1
  9
$MAXACTVP
 70
    64
  9
$PLIMCHECK
 70
     0
  9
$PEXTMIN
 10
1.0000000000000000E+20
 20
1.0000000000000000E+20
 30
1.0000000000000000E+20
  9
$PEXTMAX
 10
-1.0000000000000000E+20
 20
-1.0000000000000000E+20
 30
-1.0000000000000000E+20
  9
$PLIMMIN
 10
0.0
 20
0.0
  9
$PLIMMAX
 10
12.0
 20
9.0
  9
$UNITMODE
 70
     0
  9
$VISRETAIN
 70
     1
  9
$PLINEGEN
 70
     0
  9
$PSLTSCALE
 70
     1
  0
ENDSEC
  0
SECTION
  2
TABLES
  0
TABLE
  2
VPORT
 70
     1
  0
VPORT
  2
*ACTIVE
 70
     0
 10
0.0
 20
0.0
 11
1.0
 21
1.0
 12
179.2591817846627862
 22
13.9048450775334604
 13
0.0
 23
0.0
 14
1.0
 24
1.0
 15
0.0
 25
0.0
 16
0.0
 26
0.0
 36
60.4960186965801583
 17
3911.3653564453120453
 27
132.5796051025390057
 37
0.0
 40
27.4228641338036816
 41
1.788248337028824
 42
50.0
 43
0.0
 44
0.0
 50
0.0
 51
0.0
 71
     0
 72
   100
 73
     1
 74
     1
 75
     0
 76
     0
 77
     0
 78
     0
  0
ENDTAB
  0
TABLE
  2
LTYPE
 70
     2
  0
LTYPE
  2
CONTINUOUS
 70
     0
  3
Solid line
 72
    65
 73
     0
 40
0.0
  0
LTYPE
  2
PHANTOM2
 70
     0
  3
___ _ _ ___ _ _ ___ _ _ ___ _ _
 72
    65
 73
     6
 40
1.25
 49
0.625
 49
-0.125
 49
0.125
 49
-0.125
 49
0.125
 49
-0.125
  0
ENDTAB
  0
TABLE
  2
LAYER
 70
     2
  0
LAYER
  2
0
 70
     0
 62
   255
  6
CONTINUOUS
  0
LAYER
  2
DEFPOINTS
 70
     0
 62
     7
  6
CONTINUOUS
  0
ENDTAB
  0
TABLE
  2
STYLE
 70
     1
  0
STYLE
  2
STANDARD
 70
     0
 40
0.0
 41
0.8
 50
0.0
 71
     0
 42
0.2
  3
txt
  4

  0
ENDTAB
  0
TABLE
  2
VIEW
 70
     0
  0
ENDTAB
  0
TABLE
  2
UCS
 70
     0
  0
ENDTAB
  0
TABLE
  2
APPID
 70
    10
  0
APPID
  2
ACAD
 70
     0
  0
APPID
  2
ACAD_MLEADERVER
 70
     0
  0
APPID
  2
ACAD_EXEMPT_FROM_CAD_STANDARDS
 70
     0
  0
APPID
  2
ACAD_NAV_VCDISPLAY
 70
     0
  0
APPID
  2
ACAECLAYERSTANDARD
 70
     0
  0
APPID
  2
ACCMTRANSPARENCY
 70
     0
  0
APPID
  2
ACAD_DSTYLE_DIMJAG
 70
     0
  0
APPID
  2
ACAD_DSTYLE_DIMTALN
 70
     0
  0
APPID
  2
ACDBATTR
 70
     0
  0
APPID
  2
ACADANNOTATIVE
 70
     0
  0
ENDTAB
  0
TABLE
  2
DIMSTYLE
 70
     1
  0
DIMSTYLE
  2
STANDARD
 70
     0
  3

  4

  5

  6

  7

 40
1.0
 41
0.1875
 42
0.0625
 43
0.38
 44
0.125
 45
0.0
 46
0.0
 47
0.01
 48
0.01
140
0.15625
141
0.09
142
0.0
143
25.3999999999999986
144
1.0
145
0.0
146
1.0
147
0.09
 71
     1
 72
     0
 73
     1
 74
     1
 75
     0
 76
     0
 77
     0
 78
     4
170
     0
171
     2
172
     0
173
     0
174
     0
175
     0
176
     0
177
     0
178
     0
  0
ENDTAB
  0
ENDSEC
  0
SECTION
  2
BLOCKS
  0
BLOCK
  8
0
  2
$MODEL_SPACE
 70
     0
 10
0.0
 20
0.0
 30
0.0
  3
$MODEL_SPACE
  1

  0
ENDBLK
  5
21
  8
0
  0
BLOCK
 67
     1
  8
0
  2
$PAPER_SPACE
 70
     0
 10
0.0
 20
0.0
 30
0.0
  3
$PAPER_SPACE
  1

  0
ENDBLK
  5
1D
 67
     1
  8
0
  0
ENDSEC
  0
SECTION
  2
ENTITIES
  0
LINE
  5
14426
  8
0
  6
CONTINUOUS
 62
     7
 10
4087.4749712880161496
 20
139.5391501886900869
 30
0.0
 11
4088.4080421542148542
 21
139.5391501886900869
 31
0.0
  0
LINE
  5
14427
  8
0
  6
CONTINUOUS
 62
     7
 10
4087.4808767998151779
 20
139.5537668433900933
 30
0.0
 11
4088.402136642314872
 21
139.5537668433900933
 31
0.0
  0
LINE
  5
14428
  8
0
  6
CONTINUOUS
 62
     7
 10
4088.402136642314872
 20
139.6178903461901086
 30
0.0
 11
4087.4808767998151779
 21
139.6178903461901086
 31
0.0
  0
LINE
  5
14429
  8
0
  6
CONTINUOUS
 62
     7
 10
4087.4493807368148737
 20
139.6572604248900973
 30
0.0
 11
4088.4336327054161302
 21
139.6572604248900973
 31
0.0
  0
LINE
  5
1442A
  8
0
  6
CONTINUOUS
 62
     7
 10
4087.4493807368148737
 20
140.7360005823900906
 30
0.0
 11
4087.408743599914942
 21
140.7360005823900906
 31
0.0
  0
LINE
  5
1442B
  8
0
  6
CONTINUOUS
 62
     7
 10
4087.4493807368148737
 20
140.7832476468900893
 30
0.0
 11
4087.4087221949162085
 21
140.7832446768900923
 31
0.0
  0
LINE
  5
1442C
  8
0
  6
CONTINUOUS
 62
     7
 10
4088.402136642314872
 20
139.5537668433900933
 30
0.0
 11
4088.4080421542148542
 21
139.5391501886900869
 31
0.0
  0
LINE
  5
1442D
  8
0
  6
CONTINUOUS
 62
     7
 10
4087.3115854612160547
 20
153.1021423146900986
 30
0.0
 11
4087.3115854612160547
 21
154.3816698737900879
 31
0.0
  0
LINE
  5
1442E
  8
0
  6
CONTINUOUS
 62
     7
 10
4087.350955540015093
 20
152.6336383776900902
 30
0.0
 11
4087.350955540015093
 21
152.6493864091901003
 31
0.0
  0
LINE
  5
1442F
  8
0
  6
CONTINUOUS
 62
     7
 10
4087.4808767998151779
 20
139.6178903461901086
 30
0.0
 11
4087.4808767998151779
 21
139.5537668433900933
 31
0.0
  0
LINE
  5
14430
  8
0
  6
CONTINUOUS
 62
     7
 10
4087.5281208943151796
 20
139.6178903461901086
 30
0.0
 11
4087.5281208943151796
 21
139.6572604248900973
 31
0.0
  0
LINE
  5
14431
  8
0
  6
CONTINUOUS
 62
     7
 10
4088.3548925479149148
 20
139.6178903461901086
 30
0.0
 11
4088.3548925479149148
 21
139.6572604248900973
 31
0.0
  0
LINE
  5
14432
  8
0
  6
CONTINUOUS
 62
     7
 10
4088.402136642314872
 20
139.6178903461901086
 30
0.0
 11
4088.402136642314872
 21
139.5537668433900933
 31
0.0
  0
LINE
  5
14433
  8
0
  6
CONTINUOUS
 62
     7
 10
4088.5320579022159109
 20
152.6336383776900902
 30
0.0
 11
4088.5320579022159109
 21
152.6493864091901003
 31
0.0
  0
LINE
  5
14434
  8
0
  6
CONTINUOUS
 62
     7
 10
4088.5714279809149048
 20
153.1021423146900986
 30
0.0
 11
4088.5714279809149048
 21
154.3816698737900879
 31
0.0
  0
LINE
  5
14435
  8
0
  6
CONTINUOUS
 62
     7
 10
4088.7682783746149653
 20
153.0430871965901076
 30
0.0
 11
4088.7682783746149653
 21
154.421039952490105
 31
0.0
  0
LINE
  5
14436
  8
0
  6
CONTINUOUS
 62
     7
 10
4088.8115067211160749
 20
154.6178903461901086
 30
0.0
 11
4088.8115067211160749
 21
153.0430871965901076
 31
0.0
  0
LINE
  5
14437
  8
0
  6
CONTINUOUS
 62
     7
 10
4089.3600091401149257
 20
153.5571481790900918
 30
0.0
 11
4089.3620157374161863
 21
152.7891937427901041
 31
0.0
  0
LINE
  5
14438
  8
0
  6
CONTINUOUS
 62
     7
 10
4090.4069088050218852
 20
153.9861353391308967
 30
0.0
 11
4090.4069088010151063
 21
154.5991661535900903
 31
0.0
  0
LINE
  5
14439
  8
0
  6
CONTINUOUS
 62
     7
 10
4087.4808767998151779
 20
139.5537668433900933
 30
0.0
 11
4087.4749712880161496
 21
139.5391501886900869
 31
0.0
  0
LINE
  5
1443A
  8
0
  6
CONTINUOUS
 62
     7
 10
4091.9214346495150494
 20
148.3438040919901084
 30
0.0
 11
4091.9214346495150494
 21
148.3438040919901084
 31
0.0
  0
LINE
  5
1443B
  8
0
  6
CONTINUOUS
 62
     7
 10
4090.3086596616149109
 20
153.9411445290901099
 30
0.0
 11
4090.314529562199823
 21
153.903235971877308
 31
0.0
  0
LINE
  5
1443C
  8
0
  6
CONTINUOUS
 62
     7
 10
4090.8775091592151512
 20
150.6007243321901115
 30
0.0
 11
4090.8746966906151101
 21
150.6036757923901064
 31
0.0
  0
LINE
  5
1443D
  8
0
  6
CONTINUOUS
 62
     7
 10
4090.8746991828152204
 20
150.6036731686901078
 30
0.0
 11
4090.8746966906151101
 21
150.6036757923901064
 31
0.0
  0
LINE
  5
1443E
  8
0
  6
CONTINUOUS
 62
     7
 10
4087.2131614333147809
 20
151.4525360154900966
 30
0.0
 11
4087.4493807368148737
 21
151.4525360154900966
 31
0.0
  0
LINE
  5
1443F
  8
0
  6
CONTINUOUS
 62
     7
 10
4088.4336327054161302
 20
151.4525360154900966
 30
0.0
 11
4088.6698531778151846
 21
151.4525360154900966
 31
0.0
  0
LINE
  5
14440
  8
0
  6
CONTINUOUS
 62
     7
 10
4088.689538217216068
 20
152.6336383776900902
 30
0.0
 11
4088.4336327054161302
 21
152.6336383776900902
 31
0.0
  0
LINE
  5
14441
  8
0
  6
CONTINUOUS
 62
     7
 10
4087.4493807368148737
 20
152.6336383776900902
 30
0.0
 11
4087.1934752250149359
 21
152.6336383776900902
 31
0.0
  0
LINE
  5
14442
  8
0
  6
CONTINUOUS
 62
     7
 10
4087.1934752250149359
 20
152.6493864091901003
 30
0.0
 11
4087.4493807368148737
 21
152.6493864091901003
 31
0.0
  0
LINE
  5
14443
  8
0
  6
CONTINUOUS
 62
     7
 10
4088.4336327054161302
 20
152.6493864091901003
 30
0.0
 11
4088.689538217216068
 21
152.6493864091901003
 31
0.0
  0
LINE
  5
14444
  8
0
  6
CONTINUOUS
 62
     7
 10
4089.3613523361827902
 20
153.0430871965901076
 30
0.0
 11
4088.8115067211160749
 21
153.0430871965901076
 31
0.0
  0
LINE
  5
14445
  8
0
  6
CONTINUOUS
 62
     7
 10
4086.1108130203151632
 20
153.0430871965901076
 30
0.0
 11
4087.4493807368148737
 21
153.0430871965901076
 31
0.0
  0
ARC
  5
14446
  8
0
 10
4086.1108130203151632
 20
153.0627871965901079
 30
0.0
 40
0.0197
 50
180.0
 51
270.0
  0
LINE
  5
14447
  8
0
  6
CONTINUOUS
 62
     7
 10
4088.4336327054161302
 20
153.0430871965901076
 30
0.0
 11
4088.7682783746149653
 21
153.0430871965901076
 31
0.0
  0
LINE
  5
14448
  8
0
  6
CONTINUOUS
 62
     7
 10
4087.3312705092162105
 20
153.0824572752900963
 30
0.0
 11
4087.4493807368148737
 21
153.0824572752900963
 31
0.0
  0
LINE
  5
14449
  8
0
  6
CONTINUOUS
 62
     7
 10
4088.4336327054161302
 20
153.0824572752900963
 30
0.0
 11
4088.5517429330161576
 21
153.0824572752900963
 31
0.0
  0
LINE
  5
1444A
  8
0
  6
CONTINUOUS
 62
     7
 10
4088.8076484534149131
 20
153.1493864091901003
 30
0.0
 11
4088.7682783746149653
 21
153.1493864091901003
 31
0.0
  0
LINE
  5
1444B
  8
0
  6
CONTINUOUS
 62
     7
 10
4086.9678376290198685
 20
153.5352131808901106
 30
0.0
 11
4086.8686956199148881
 21
153.5352131808901106
 31
0.0
  0
LINE
  5
1444C
  8
0
  6
CONTINUOUS
 62
     7
 10
4090.3097602248708426
 20
153.9340369529901125
 30
0.0
 11
4096.9283105464546679
 21
153.9340369529901125
 31
0.0
  0
LINE
  5
1444D
  8
0
  6
CONTINUOUS
 62
     7
 10
4087.4781975526148017
 20
154.0076543028901028
 30
0.0
 11
4087.4824231281149878
 21
154.0076543060901031
 31
0.0
  0
LINE
  5
1444E
  8
0
  6
CONTINUOUS
 62
     7
 10
4087.499630464214988
 20
154.0470242044900999
 30
0.0
 11
4087.4952332692150776
 21
154.0470242044900999
 31
0.0
  0
LINE
  5
1444F
  8
0
  6
CONTINUOUS
 62
     7
 10
4086.8686951483150551
 20
154.1257643619900932
 30
0.0
 11
4086.967837613814936
 21
154.1257643619900932
 31
0.0
  0
LINE
  5
14450
  8
0
  6
CONTINUOUS
 62
     7
 10
4087.1541051469162085
 20
154.3816698737900879
 30
0.0
 11
4088.7289082952152057
 21
154.3816698737900879
 31
0.0
  0
LINE
  5
14451
  8
0
  6
CONTINUOUS
 62
     7
 10
4096.9283105464519394
 20
154.5143421645900901
 30
0.0
 11
4090.4132835001678359
 21
154.5143421645900901
 31
0.0
  0
LINE
  5
14452
  8
0
  6
CONTINUOUS
 62
     7
 10
4088.8115067211160749
 20
154.5143421645900901
 30
0.0
 11
4088.7682783746149653
 21
154.5143421645900901
 31
0.0
  0
LINE
  5
14453
  8
0
  6
CONTINUOUS
 62
     7
 10
4090.3872472255161483
 20
154.6178903461901086
 30
0.0
 11
4088.8115067211160749
 21
154.6178903461901086
 31
0.0
  0
LINE
  5
14454
  8
0
  6
CONTINUOUS
 62
     7
 10
4087.1147350676151291
 20
154.6178903461901086
 30
0.0
 11
4086.1108130203151632
 21
154.6178903461901086
 31
0.0
  0
LINE
  5
14455
  8
0
  6
CONTINUOUS
 62
     7
 10
4088.8273689410611951
 20
156.0745832595900993
 30
0.0
 11
4087.0556529922318987
 21
156.0745832595900993
 31
0.0
  0
LINE
  5
14456
  8
0
  6
CONTINUOUS
 62
     7
 10
4087.0163177752151569
 20
156.212378535190112
 30
0.0
 11
4088.8666956669148931
 21
156.212378535190112
 31
0.0
  0
ARC
  5
14457
  8
0
  6
CONTINUOUS
 62
     7
 10
4086.9178846738150241
 20
153.8304887713900939
 30
0.0
 40
0.3188976378
 50
57.3217439461759426
 51
302.6396068436508244
  0
ARC
  5
14458
  8
0
  6
CONTINUOUS
 62
     7
 10
4086.8689753615349218
 20
153.829189451410997
 30
0.0
 40
0.2965750429561878
 50
90.0541348224145821
 51
114.5342159849046055
  0
ARC
  5
14459
  8
0
  6
CONTINUOUS
 62
     7
 10
4086.8689736749070107
 20
153.831773489711793
 30
0.0
 40
0.2965604391738407
 50
245.464069017033097
 51
269.9462794839112121
  0
ARC
  5
1445A
  8
0
  6
CONTINUOUS
 62
     7
 10
4087.0546770781947998
 20
156.1326359581030943
 30
0.0
 40
0.0580609008959883
 50
180.9892589418874138
 51
270.9630988810657186
  0
ARC
  5
1445B
  8
0
  6
CONTINUOUS
 62
     7
 10
4087.1541051463150325
 20
156.0352131808901106
 30
0.0
 40
0.0393700787
 50
89.9999990700933381
 51
180.0
  0
ARC
  5
1445C
  8
0
  6
CONTINUOUS
 62
     7
 10
4087.1541051463150325
 20
154.421039952490105
 30
0.0
 40
0.0393700787
 50
180.0
 51
270.0000009275877915
  0
ARC
  5
1445D
  8
0
  6
CONTINUOUS
 62
     7
 10
4087.2131602644740269
 20
151.4722210549145984
 30
0.0
 40
0.0196850394592296
 50
180.0
 51
270.0034020578374907
  0
ARC
  5
1445E
  8
0
  6
CONTINUOUS
 62
     7
 10
4087.0163098734228697
 20
156.1926934946687027
 30
0.0
 40
0.0196850421073853
 50
89.9770008427120302
 51
180.0
  0
ARC
  5
1445F
  8
0
  6
CONTINUOUS
 62
     7
 10
4087.3312705006151191
 20
153.1021423146900986
 30
0.0
 40
0.0196850394
 50
180.0
 51
270.0000249866882882
  0
ARC
  5
14460
  8
0
  6
CONTINUOUS
 62
     7
 10
4001.7106081046881627
 20
589.9126485029562446
 30
0.0
 40
444.8828493917408764
 50
281.4836199370253098
 51
281.4975745066763011
  0
ARC
  5
14461
  8
0
  6
CONTINUOUS
 62
     7
 10
4087.9415067211148198
 20
140.7596226296901136
 30
0.0
 40
3.995783311799999
 50
97.0745872387781787
 51
82.9254127612218213
  0
ARC
  5
14462
  8
0
  6
CONTINUOUS
 62
     7
 10
4087.9415067211148198
 20
140.7596226296901136
 30
0.0
 40
3.995783311799999
 50
82.9136431145519737
 51
82.925123395805187
  0
ARC
  5
14463
  8
0
  6
CONTINUOUS
 62
     7
 10
4087.9415067211148198
 20
140.7596226296901136
 30
0.0
 40
3.9465803081999988
 50
97.1632474229107999
 51
82.8367525770891859
  0
ARC
  5
14464
  8
0
  6
CONTINUOUS
 62
     7
 10
4087.9415067211148198
 20
140.7596226296901136
 30
0.0
 40
3.937007873999999
 50
97.1807557821935717
 51
82.8192442178064141
  0
ARC
  5
14465
  8
0
  6
CONTINUOUS
 62
     7
 10
4087.9415067211148198
 20
140.7596226296901136
 30
0.0
 40
0.8070866141999999
 50
127.5718693225202998
 51
232.428130677479686
  0
ARC
  5
14466
  8
0
  6
CONTINUOUS
 62
     7
 10
4087.9415067211148198
 20
140.7596226296901136
 30
0.0
 40
0.8070866141999999
 50
307.5718693135779063
 51
52.4281306864271102
  0
ARC
  5
14467
  8
0
  6
CONTINUOUS
 62
     7
 10
4087.9415067211148198
 20
140.7596226296901136
 30
0.0
 40
0.7874015748000001
 50
308.6821874488206845
 51
51.317812551181369
  0
ARC
  5
14468
  8
0
  6
CONTINUOUS
 62
     7
 10
4087.9415067211148198
 20
140.7596226296901136
 30
0.0
 40
0.7874015748000001
 50
128.682187458134905
 51
231.317812541865095
  0
ARC
  5
14469
  8
0
  6
CONTINUOUS
 62
     7
 10
4087.9415067211148198
 20
140.7596226296901136
 30
0.0
 40
0.7480314948000001
 50
131.1395105043023079
 51
228.8604894956976921
  0
ARC
  5
1446A
  8
0
  6
CONTINUOUS
 62
     7
 10
4087.9415067211148198
 20
140.7596226296901136
 30
0.0
 40
0.7480314948000001
 50
311.1395104941225895
 51
48.8604895058699071
  0
ARC
  5
1446B
  8
0
  6
CONTINUOUS
 62
     7
 10
4087.9415067211148198
 20
140.7596226296901136
 30
0.0
 40
0.7130220784
 50
133.645736779953495
 51
226.3542632200463913
  0
ARC
  5
1446C
  8
0
  6
CONTINUOUS
 62
     7
 10
4087.9415067211148198
 20
140.7596226296901136
 30
0.0
 40
0.7130220784
 50
313.6457367688304885
 51
46.354263231145012
  0
ARC
  5
1446D
  8
0
  6
CONTINUOUS
 62
     7
 10
4087.9415067211148198
 20
140.7596226296901136
 30
0.0
 40
0.5334645669000001
 50
337.3323015302025851
 51
22.6643547116955411
  0
ARC
  5
1446E
  8
0
  6
CONTINUOUS
 62
     7
 10
4087.9415067211148198
 20
140.7596226296901136
 30
0.0
 40
0.5334645669000001
 50
157.3323015302026135
 51
202.6643547116954949
  0
ARC
  5
1446F
  8
0
  6
CONTINUOUS
 62
     7
 10
4088.6698531778151846
 20
151.4722210548900989
 30
0.0
 40
0.0196850394
 50
270.0
 51
0.0
  0
ARC
  5
14470
  8
0
  6
CONTINUOUS
 62
     7
 10
4087.9415067211148198
 20
153.8304887713900939
 30
0.0
 40
0.4960629921
 50
148.9441735486936125
 51
154.1121904075951932
  0
ARC
  5
14471
  8
0
  6
CONTINUOUS
 62
     7
 10
4087.9415067211148198
 20
153.8304887713900939
 30
0.0
 40
0.4960629921
 50
352.7814834493981948
 51
187.2184018965986922
  0
ARC
  5
14472
  8
0
  6
CONTINUOUS
 62
     7
 10
4087.9415067211148198
 20
153.8304887713900939
 30
0.0
 40
0.4921259843
 50
0.0
 51
180.0
  0
CIRCLE
  5
14473
  8
0
  6
CONTINUOUS
 62
     7
 10
4087.9415067211148198
 20
154.854110818590101
 30
0.0
 40
0.0787401575
  0
ARC
  5
14474
  8
0
  6
CONTINUOUS
 62
     7
 10
4088.827433543540792
 20
156.1335383762807965
 30
0.0
 40
0.0589551520861072
 50
269.9372158301741251
 51
359.9028705265636177
  0
ARC
  5
14475
  8
0
  6
CONTINUOUS
 62
     7
 10
4088.7289082959150619
 20
156.0352131808901106
 30
0.0
 40
0.0393700787
 50
0.0
 51
90.0000009299066477
  0
ARC
  5
14476
  8
0
  6
CONTINUOUS
 62
     7
 10
4088.7289082959150619
 20
154.421039952490105
 30
0.0
 40
0.0393700787
 50
269.9999990724123222
 51
0.0
  0
ARC
  5
14477
  8
0
  6
CONTINUOUS
 62
     7
 10
4088.8076484534149131
 20
153.1887564878900889
 30
0.0
 40
0.0393700787
 50
270.0
 51
275.6268904998058815
  0
ARC
  5
14478
  8
0
  6
CONTINUOUS
 62
     7
 10
4088.8666911555019396
 20
156.1926352598891015
 30
0.0
 40
0.0197432758164796
 50
3.9042849643297091
 51
89.9869076988670145
  0
ARC
  5
14479
  8
0
  6
CONTINUOUS
 62
     7
 10
4088.5517429416859159
 20
153.1021423145193978
 30
0.0
 40
0.0196850392293035
 50
269.9999747628178852
 51
0.0000004968464057
  0
ARC
  5
1447A
  8
0
  6
CONTINUOUS
 62
     7
 10
4090.4095660021148433
 20
150.1521922509901117
 30
0.0
 40
0.6481911959000001
 50
43.7881690829066486
 51
44.3036164215940289
  0
ARC
  5
1447B
  8
0
  6
CONTINUOUS
 62
     7
 10
4090.3251579716152264
 20
153.9880654931901063
 30
0.0
 40
0.0817736159
 50
353.1614761015002273
 51
358.6474860921001095
  0
ARC
  5
1447C
  8
0
  6
CONTINUOUS
 62
     7
 10
4090.3872472255161483
 20
154.5982053067901063
 30
0.0
 40
0.0196850394
 50
2.7977767911000262
 51
90.0
  0
ARC
  5
1447D
  8
0
 10
4086.968978714081004
 20
153.8304887714695042
 30
0.0
 40
0.2952777954183562
 50
90.221419940769465
 51
269.7785830086643273
  0
ARC
  5
1447E
  8
0
 10
4086.9670988456200575
 20
153.830488771421102
 30
0.0
 40
0.2952765147524394
 50
270.1433544916952769
 51
89.8566484577256261
  0
ARC
  5
1447F
  8
0
 10
4096.9300827025454055
 20
154.2241895587901013
 30
0.0
 40
0.2901580176209971
 50
269.6500606916844731
 51
90.3499393083155269
  0
ARC
  5
14480
  8
0
 10
4090.3836347674618992
 20
153.9796153310265936
 30
0.0
 40
0.0227514722198267
 50
279.8521556217382908
 51
356.7578013406085233
  0
ARC
  5
14481
  8
0
 10
4086.8839640031092131
 20
154.2917579944127056
 30
0.0
 40
3.5363314077066761
 50
354.9785127830816123
 51
4.9869331807200652
  0
ARC
  5
14482
  8
0
 10
4089.8929374086142161
 20
153.5394113210849127
 30
0.0
 40
0.5332233448537572
 50
90.0
 51
178.0937920018807006
  0
ARC
  5
14483
  8
0
 10
4089.9227681788361224
 20
153.5349390506409009
 30
0.0
 40
0.5376984319178417
 50
2.355635665344094
 51
89.8145475502070383
  0
LINE
  5
14484
  8
0
 10
4090.4600122314159307
 20
153.5570395405900967
 30
0.0
 11
4090.4576342707150616
 21
152.6971868239901085
 31
0.0
  0
ARC
  5
14485
  8
0
 10
4080.075066507450174
 20
152.4545852350582038
 30
0.0
 40
9.2929752422677723
 50
353.5942909573618067
 51
2.06347265528162
  0
ARC
  5
14486
  8
0
 10
4087.9178512299049544
 20
151.552797060371887
 30
0.0
 40
1.3987038626152619
 50
317.1030296808831963
 51
354.4608943921094237
  0
ARC
  5
14487
  8
0
 10
4084.9736320240240275
 20
154.7985712117693993
 30
0.0
 40
5.7770172177730172
 50
306.7929021652861934
 51
313.3940454373012017
  0
ARC
  5
14488
  8
0
 10
4099.7445835006810739
 20
152.3625783162582934
 30
0.0
 40
9.2929752422677723
 50
177.9365273447199911
 51
186.4057090426381933
  0
ARC
  5
14489
  8
0
 10
4091.9081637173098898
 20
151.5772017331522079
 30
0.0
 40
1.4209575374254719
 50
190.1914677615748133
 51
212.5755883595562068
  0
ARC
  5
1448A
  8
0
 10
4092.1250313889167955
 20
151.7555212894156966
 30
0.0
 40
1.7000474921105491
 50
213.7047795562114061
 51
232.279514516392311
  0
ARC
  5
1448B
  8
0
 10
4088.2147206143481526
 20
146.4213974589995075
 30
0.0
 40
4.9145918754536888
 50
44.8494731525917985
 51
54.2664285020409167
  0
ARC
  5
1448C
  8
0
 10
4090.6695306162741872
 20
148.9325475809534112
 30
0.0
 40
1.404102056179497
 50
2.8131960430554162
 51
42.846976020651347
  0
ARC
  5
1448D
  8
0
 10
4089.905011600033049
 20
150.0883178055171072
 30
0.0
 40
2.72080740505963
 50
237.2627300028227921
 51
281.0842370628533899
  0
ARC
  5
1448E
  8
0
 10
4090.0368795833510376
 20
149.7811705490993859
 30
0.0
 40
2.395071574830919
 50
279.4008556435533137
 51
308.8905695296776912
  0
ARC
  5
1448F
  8
0
 10
4090.556633259442151
 20
149.1158588242344081
 30
0.0
 40
1.550964809998125
 50
309.3766402216969027
 51
335.5691742748850857
  0
ARC
  5
14490
  8
0
 10
4090.8907086212170725
 20
148.9591333956720121
 30
0.0
 40
1.1819900274366859
 50
335.7883140577840777
 51
2.052209442751439
  0
ARC
  5
14491
  8
0
 10
4089.8238447324629306
 20
149.7036927152099111
 30
0.0
 40
2.4053217792741828
 50
234.6918711398963922
 51
259.3589245901840741
  0
ARC
  5
14492
  8
0
 10
4089.9093252052011849
 20
150.0471463500468019
 30
0.0
 40
2.758730434263398
 50
258.9312949186879109
 51
284.7389793330472116
  0
ARC
  5
14493
  8
0
 10
4090.0789128835767769
 20
149.5269855759457869
 30
0.0
 40
2.2127664495008208
 50
283.9189063159662965
 51
313.6947267153751113
  0
ARC
  5
14494
  8
0
 10
4090.6325138279707971
 20
148.9881564477433074
 30
0.0
 40
1.441012925406602
 50
312.579812873204105
 51
349.5193171340088156
  0
LINE
  5
14495
  8
0
 10
4089.8929374086142161
 20
154.0726346659386081
 30
0.0
 11
4089.924508574345964
 21
154.0726346659386081
 31
0.0
  0
LINE
  5
14496
  8
0
 10
4086.0911130203148787
 20
154.5981903461901084
 30
0.0
 11
4086.0911130203148787
 21
153.0627871965901079
 31
0.0
  0
ARC
  5
14497
  8
0
 10
4086.1108130203151632
 20
154.5981903461901084
 30
0.0
 40
0.0197
 50
90.0
 51
180.0
  0
LINE
  5
14498
  8
0
  6
CONTINUOUS
 62
     7
 10
4088.689538217216068
 20
153.0430871965901076
 30
0.0
 11
4088.689538217216068
 21
152.6493864091901003
 31
0.0
  0
LINE
  5
14499
  8
0
  6
CONTINUOUS
 62
     7
 10
4088.689538217216068
 20
152.6336383776900902
 30
0.0
 11
4088.689538217216068
 21
151.4722210548900989
 31
0.0
  0
LINE
  5
1449A
  8
0
  6
CONTINUOUS
 62
     7
 10
4087.1934752250149359
 20
153.0430871965901076
 30
0.0
 11
4087.1934752250149359
 21
152.6493864091901003
 31
0.0
  0
LINE
  5
1449B
  8
0
  6
CONTINUOUS
 62
     7
 10
4087.1934752250149359
 20
152.6336383776900902
 30
0.0
 11
4087.1934752250149359
 21
151.4722210549145984
 31
0.0
  0
LINE
  5
1449C
  8
0
  6
CONTINUOUS
 62
     7
 10
4087.4493807368148737
 20
139.6572604248900973
 30
0.0
 11
4087.4493807368148737
 21
153.8304887713900939
 31
0.0
  0
LINE
  5
1449D
  8
0
  6
CONTINUOUS
 62
     7
 10
4088.4336327054161302
 20
139.6572604248900973
 30
0.0
 11
4088.4336327054161302
 21
153.8304887713900939
 31
0.0
  0
LINE
  5
1449E
  8
0
  6
CONTINUOUS
 62
     7
 10
4086.9966248313148753
 20
156.1926934946687027
 30
0.0
 11
4086.9966248313148753
 21
156.1316335385155014
 31
0.0
  0
LINE
  5
1449F
  8
0
  6
CONTINUOUS
 62
     7
 10
4088.886388610915219
 20
156.1939795776445976
 30
0.0
 11
4088.886388610915219
 21
156.1334384338385917
 31
0.0
  0
LINE
  5
144A0
  8
0
  6
CONTINUOUS
 62
     7
 10
4087.1147350676151291
 20
154.421039952490105
 30
0.0
 11
4087.1147350676151291
 21
156.0352131808901106
 31
0.0
  0
LINE
  5
144A1
  8
0
  6
CONTINUOUS
 62
     7
 10
4088.7682783746149653
 20
154.421039952490105
 30
0.0
 11
4088.7682783746149653
 21
156.0352131808901106
 31
0.0
  0
ATTDEF
  5
144A3
  8
DEFPOINTS
 10
4087.9416187671481566
 20
156.2109775747240974
 30
0.0
 40
0.001
  1
K-24581T-E
  3

  2
MODELNUMBER
 70
     0
1001
ACDBATTR
1070
     0
1070
     1
  0
ATTDEF
  5
144A4
  8
DEFPOINTS
 10
4087.9416187671481566
 20
156.2093109080574038
 30
0.0
 40
0.001
  1
RAIN DUET
  3

  2
TRADENAME
 70
     0
1001
ACDBATTR
1070
     0
1070
     1
  0
ATTDEF
  5
144A5
  8
DEFPOINTS
 10
4087.9416187671481566
 20
156.2076442413907955
 30
0.0
 40
0.001
  1
SHOWER AND BODY SPRAY
  3

  2
PRODUCT
 70
     0
1001
ACDBATTR
1070
     0
1070
     1
  0
ENDSEC
  0
EOF
