  0
SECTION
  2
HEADER
  9
$ACADVER
  1
AC1009
  9
$INSBASE
 10
4319.5975476677531333
 20
217.8347058327869945
 30
0.0
  9
$EXTMIN
 10
4297.0324447241046073
 20
217.8242098683502093
 30
-0.0000000000000058
  9
$EXTMAX
 10
4319.7722459623128088
 20
235.6995843329484899
 30
0.0000000000000104
  9
$LIMMIN
 10
0.0
 20
0.0
  9
$LIMMAX
 10
11.6929133858000007
 20
8.2677165353999982
  9
$ORTHOMODE
 70
     0
  9
$REGENMODE
 70
     1
  9
$FILLMODE
 70
     1
  9
$QTEXTMODE
 70
     0
  9
$MIRRTEXT
 70
     0
  9
$DRAGMODE
 70
     2
  9
$LTSCALE
 40
0.6431102362
  9
$OSMODE
 70
   575
  9
$ATTMODE
 70
     1
  9
$TEXTSIZE
 40
0.2
  9
$TRACEWID
 40
0.05
  9
$TEXTSTYLE
  7
STANDARD
  9
$CLAYER
  8
0
  9
$CELTYPE
  6
BYLAYER
  9
$CECOLOR
 62
   256
  9
$DIMSCALE
 40
1.0
  9
$DIMASZ
 40
0.1875
  9
$DIMEXO
 40
0.0625
  9
$DIMDLI
 40
0.4443307087
  9
$DIMRND
 40
0.0
  9
$DIMDLE
 40
0.0
  9
$DIMEXE
 40
0.125
  9
$DIMTP
 40
0.01
  9
$DIMTM
 40
0.01
  9
$DIMTXT
 40
2.0
  9
$DIMCEN
 40
0.1052362205
  9
$DIMTSZ
 40
0.0
  9
$DIMTOL
 70
     1
  9
$DIMLIM
 70
     0
  9
$DIMTIH
 70
     1
  9
$DIMTOH
 70
     1
  9
$DIMSE1
 70
     0
  9
$DIMSE2
 70
     0
  9
$DIMTAD
 70
     0
  9
$DIMZIN
 70
     0
  9
$DIMBLK
  1

  9
$DIMASO
 70
     1
  9
$DIMSHO
 70
     1
  9
$DIMPOST
  1
\X
  9
$DIMAPOST
  1

  9
$DIMALT
 70
     1
  9
$DIMALTD
 70
     2
  9
$DIMALTF
 40
25.3999999999999986
  9
$DIMLFAC
 40
1.0
  9
$DIMTOFL
 70
     0
  9
$DIMTVP
 40
0.0
  9
$DIMTIX
 70
     0
  9
$DIMSOXD
 70
     0
  9
$DIMSAH
 70
     0
  9
$DIMBLK1
  1

  9
$DIMBLK2
  1

  9
$DIMSTYLE
  2
STANDARD
  9
$DIMCLRD
 70
     0
  9
$DIMCLRE
 70
     0
  9
$DIMCLRT
 70
     0
  9
$DIMTFAC
 40
1.0
  9
$DIMGAP
 40
0.09
  9
$LUNITS
 70
     2
  9
$LUPREC
 70
     4
  9
$SKETCHINC
 40
0.1
  9
$FILLETRAD
 40
0.0
  9
$AUNITS
 70
     0
  9
$AUPREC
 70
     0
  9
$MENU
  1
.
  9
$ELEVATION
 40
0.0
  9
$PELEVATION
 40
0.0
  9
$THICKNESS
 40
0.0
  9
$LIMCHECK
 70
     0
  9
$BLIPMODE
 70
     0
  9
$CHAMFERA
 40
0.0
  9
$CHAMFERB
 40
0.0
  9
$SKPOLY
 70
     0
  9
$TDCREATE
 40
2458060.468368056230247
  9
$TDUPDATE
 40
2459391.1332638887688518
  9
$TDINDWG
 40
0.6619515046
  9
$TDUSRTIMER
 40
0.6619515046
  9
$USRTIMER
 70
     1
  9
$ANGBASE
 50
0.0
  9
$ANGDIR
 70
     0
  9
$PDMODE
 70
     0
  9
$PDSIZE
 40
0.3125
  9
$PLINEWID
 40
0.0
  9
$COORDS
 70
     2
  9
$SPLFRAME
 70
     0
  9
$SPLINETYPE
 70
     6
  9
$SPLINESEGS
 70
     8
  9
$ATTDIA
 70
     1
  9
$ATTREQ
 70
     1
  9
$HANDLING
 70
     1
  9
$HANDSEED
  5
13C90
  9
$SURFTAB1
 70
     6
  9
$SURFTAB2
 70
     6
  9
$SURFTYPE
 70
     6
  9
$SURFU
 70
     6
  9
$SURFV
 70
     6
  9
$UCSNAME
  2

  9
$UCSORG
 10
0.0
 20
0.0
 30
0.0
  9
$UCSXDIR
 10
1.0
 20
0.0
 30
0.0
  9
$UCSYDIR
 10
0.0
 20
1.0
 30
0.0
  9
$PUCSNAME
  2

  9
$PUCSORG
 10
0.0
 20
0.0
 30
0.0
  9
$PUCSXDIR
 10
1.0
 20
0.0
 30
0.0
  9
$PUCSYDIR
 10
0.0
 20
1.0
 30
0.0
  9
$USERI1
 70
     0
  9
$USERI2
 70
     0
  9
$USERI3
 70
     0
  9
$USERI4
 70
     0
  9
$USERI5
 70
     0
  9
$USERR1
 40
0.0
  9
$USERR2
 40
0.0
  9
$USERR3
 40
0.0
  9
$USERR4
 40
0.0
  9
$USERR5
 40
0.0
  9
$WORLDVIEW
 70
     1
  9
$SHADEDGE
 70
     3
  9
$SHADEDIF
 70
    70
  9
$TILEMODE
 70
     1
  9
$MAXACTVP
 70
    64
  9
$PLIMCHECK
 70
     0
  9
$PEXTMIN
 10
1.0000000000000000E+20
 20
1.0000000000000000E+20
 30
1.0000000000000000E+20
  9
$PEXTMAX
 10
-1.0000000000000000E+20
 20
-1.0000000000000000E+20
 30
-1.0000000000000000E+20
  9
$PLIMMIN
 10
0.0
 20
0.0
  9
$PLIMMAX
 10
12.0
 20
9.0
  9
$UNITMODE
 70
     0
  9
$VISRETAIN
 70
     1
  9
$PLINEGEN
 70
     0
  9
$PSLTSCALE
 70
     1
  0
ENDSEC
  0
SECTION
  2
TABLES
  0
TABLE
  2
VPORT
 70
     1
  0
VPORT
  2
*ACTIVE
 70
     0
 10
0.0
 20
0.0
 11
1.0
 21
1.0
 12
153.5440815554470078
 22
1.9466998153975861
 13
0.0
 23
0.0
 14
1.0
 24
1.0
 15
0.0
 25
0.0
 16
0.0
 26
0.0
 36
202.37134017897489
 17
4161.556396484375
 27
226.1108322143554972
 37
0.0
 40
9.4649049253606563
 41
2.5405405405405399
 42
50.0
 43
0.0
 44
0.0
 50
0.0
 51
0.0
 71
     0
 72
   100
 73
     1
 74
     1
 75
     0
 76
     0
 77
     0
 78
     0
  0
ENDTAB
  0
TABLE
  2
LTYPE
 70
     2
  0
LTYPE
  2
CONTINUOUS
 70
     0
  3
Solid line
 72
    65
 73
     0
 40
0.0
  0
LTYPE
  2
PHANTOM2
 70
     0
  3
___ _ _ ___ _ _ ___ _ _ ___ _ _
 72
    65
 73
     6
 40
1.25
 49
0.625
 49
-0.125
 49
0.125
 49
-0.125
 49
0.125
 49
-0.125
  0
ENDTAB
  0
TABLE
  2
LAYER
 70
     2
  0
LAYER
  2
0
 70
     0
 62
   255
  6
CONTINUOUS
  0
LAYER
  2
DEFPOINTS
 70
     0
 62
     7
  6
CONTINUOUS
  0
ENDTAB
  0
TABLE
  2
STYLE
 70
     1
  0
STYLE
  2
STANDARD
 70
     0
 40
0.0
 41
0.8
 50
0.0
 71
     0
 42
0.2
  3
txt
  4

  0
ENDTAB
  0
TABLE
  2
VIEW
 70
     1
  0
ENDTAB
  0
TABLE
  2
UCS
 70
     0
  0
ENDTAB
  0
TABLE
  2
APPID
 70
    10
  0
APPID
  2
ACAD
 70
     0
  0
APPID
  2
ACAD_MLEADERVER
 70
     0
  0
APPID
  2
ACAD_EXEMPT_FROM_CAD_STANDARDS
 70
     0
  0
APPID
  2
ACAD_NAV_VCDISPLAY
 70
     0
  0
APPID
  2
ACAECLAYERSTANDARD
 70
     0
  0
APPID
  2
ACCMTRANSPARENCY
 70
     0
  0
APPID
  2
ACAD_DSTYLE_DIMJAG
 70
     0
  0
APPID
  2
ACAD_DSTYLE_DIMTALN
 70
     0
  0
APPID
  2
ACDBATTR
 70
     0
  0
APPID
  2
DCO15
 70
     0
  0
ENDTAB
  0
TABLE
  2
DIMSTYLE
 70
     1
  0
DIMSTYLE
  2
STANDARD
 70
     0
  3

  4

  5

  6

  7

 40
1.0
 41
0.1875
 42
0.0625
 43
0.38
 44
0.125
 45
0.0
 46
0.0
 47
0.01
 48
0.01
140
0.15625
141
0.09
142
0.0
143
25.3999999999999986
144
1.0
145
0.0
146
1.0
147
0.09
 71
     1
 72
     0
 73
     1
 74
     1
 75
     0
 76
     0
 77
     0
 78
     4
170
     0
171
     2
172
     0
173
     0
174
     0
175
     0
176
     0
177
     0
178
     0
  0
ENDTAB
  0
ENDSEC
  0
SECTION
  2
BLOCKS
  0
BLOCK
  8
0
  2
$MODEL_SPACE
 70
     0
 10
0.0
 20
0.0
 30
0.0
  3
$MODEL_SPACE
  1

  0
ENDBLK
  5
21
  8
0
  0
BLOCK
 67
     1
  8
0
  2
$PAPER_SPACE
 70
     0
 10
0.0
 20
0.0
 30
0.0
  3
$PAPER_SPACE
  1

  0
ENDBLK
  5
1D
 67
     1
  8
0
  0
BLOCK
  8
0
  2
_FILLED
 70
     0
 10
0.0
 20
0.0
 30
0.0
  3
_FILLED
  1

  0
SOLID
  5
13B11
  8
0
  6
BYBLOCK
 62
     0
 10
0.0
 20
0.0
 30
0.0
 11
-1.0
 21
0.1666666667
 31
0.0
 12
-1.0
 22
-0.1666666667
 32
0.0
 13
-1.0
 23
-0.1666666667
 33
0.0
  0
ENDBLK
  5
13B12
  8
0
  6
BYBLOCK
 62
     0
  0
ENDSEC
  0
SECTION
  2
ENTITIES
  0
ATTDEF
  5
12CA7
  8
DEFPOINTS
 10
4319.5975384823686909
 20
217.838118416725905
 30
0.0
 40
0.001
  1
K-24699T-GS
  3

  2
MODELNUMBER
 70
     0
1001
ACDBATTR
1070
     0
1070
     1
  0
ATTDEF
  5
12CA8
  8
DEFPOINTS
 10
4319.5975384823686909
 20
217.8364517500592115
 30
0.0
 40
0.001
  1
REVE
  3

  2
TRADENAME
 70
     0
1001
ACDBATTR
1070
     0
1070
     1
  0
ATTDEF
  5
12CA9
  8
DEFPOINTS
 10
4319.5975384823686909
 20
217.8347850833924895
 30
0.0
 40
0.001
  1
TOILET
  3

  2
PRODUCT
 70
     0
1001
ACDBATTR
1070
     0
1070
     1
  0
LINE
  5
13B5A
  8
0
 10
4319.5975476677531333
 20
233.5827058327870134
 30
0.0
 11
4319.5975476677531333
 21
219.606327880087008
 31
0.0
  0
LINE
  5
13B5B
  8
0
 10
4297.8659629860912901
 20
233.5827058327870134
 30
0.0
 11
4319.5975476677531333
 21
233.5827058327870134
 31
0.0
  0
LINE
  5
13B5C
  8
0
 10
4297.4001404864366123
 20
233.7795560707870095
 30
0.0
 11
4314.9550913176226459
 21
233.7795560707870095
 31
0.0
  0
LINE
  5
13B5D
  8
0
 10
4319.5975476677531333
 20
221.9685326044869953
 30
0.0
 11
4300.9645906427522277
 21
221.9685326044869953
 31
0.0
  0
LINE
  5
13B5E
  8
0
 10
4319.5975476677531333
 20
219.606327880087008
 30
0.0
 11
4316.728070563154688
 21
219.606327880087008
 31
0.0
  0
LINE
  5
13B5F
  8
0
 10
4297.6393332524530706
 20
233.2798589732869914
 30
0.0
 11
4300.9645906427522277
 21
221.9685326044869953
 31
0.0
  0
ARC
  5
13B60
  8
0
 10
4297.8659629860912901
 20
233.3464853603111067
 30
0.0
 40
0.2362204724758409
 50
90.0000000091714156
 51
196.3826951144220061
  0
ARC
  5
13B61
  8
0
 10
4311.4505978469305774
 20
223.740871948109401
 30
0.0
 40
3.6146799735779291
 50
209.3614247041886074
 51
249.3374150456768916
  0
ARC
  5
13B62
  8
0
 10
4311.3176583079975899
 20
223.9499131866732
 30
0.0
 40
3.768577984662143
 50
252.3514084070015997
 51
278.2673700885414974
  0
ARC
  5
13B63
  8
0
 10
4311.5817024602110905
 20
222.6685261121056953
 30
0.0
 40
2.4637446702677068
 50
276.4753265134647222
 51
310.4474417838862905
  0
ARC
  5
13B64
  8
0
 10
4310.5012713369451376
 20
223.6360041473342051
 30
0.0
 40
3.9057755157607801
 50
313.3026919603336182
 51
334.7274564765236278
  0
ARC
  5
13B65
  8
0
 10
4316.1251712831171972
 20
221.8503633418893912
 30
0.0
 40
0.1181726241790457
 50
56.224133891942067
 51
89.5409507722569629
  0
ARC
  5
13B66
  8
0
 10
4316.125491006277116
 20
221.8508413740960066
 30
0.0
 40
0.1175975261965572
 50
2.906652550765954
 51
56.224133891942067
  0
LINE
  5
13B67
  8
0
 10
4316.2429372404531023
 20
221.8568046152869897
 30
0.0
 11
4316.3348408834526708
 21
219.9807655345869932
 31
0.0
  0
ARC
  5
13B68
  8
0
 10
4316.728070563154688
 20
220.0000291205496126
 30
0.0
 40
0.393701240463652
 50
182.804570922166306
 51
270.0
  0
ARC
  5
13B69
  8
0
 10
4317.392823145127295
 20
229.3107533287862054
 30
0.0
 40
0.5118410387832015
 50
62.2771231164304879
 51
117.7228768835694979
  0
ARC
  5
13B6A
  8
0
 10
4317.3928232578437019
 20
229.3053215798150859
 30
0.0
 40
0.5120929740718636
 50
63.5572062099103121
 51
116.442793790089695
  0
ARC
  5
13B6B
  8
0
 10
4317.3650883013388011
 20
229.349382271153587
 30
0.0
 40
0.4643982504606377
 50
157.5044682029414105
 51
202.4955317970585043
  0
ARC
  5
13B6C
  8
0
 10
4317.3650883013388011
 20
229.3442013676643967
 30
0.0
 40
0.4643982504606377
 50
157.5044682029414105
 51
179.6803977587022985
  0
ARC
  5
13B6D
  8
0
 10
4317.3771506148068511
 20
229.3390115265424924
 30
0.0
 40
0.479536418755403
 50
117.6359108113216934
 51
156.9110582255048882
  0
ARC
  5
13B6E
  8
0
 10
4317.377652472761838
 20
229.3334610197902066
 30
0.0
 40
0.4801430412963238
 50
116.3171382869306996
 51
156.8939714368133878
  0
ARC
  5
13B6F
  8
0
 10
4317.3928232578437019
 20
229.3880076687387941
 30
0.0
 40
0.5118379533518161
 50
242.2769273541765074
 51
297.7230726457676155
  0
ARC
  5
13B70
  8
0
 10
4317.3771506148068511
 20
229.3597530157647952
 30
0.0
 40
0.479536418755403
 50
203.0889417744949981
 51
242.3640891886782924
  0
ARC
  5
13B71
  8
0
 10
4317.4205582143467836
 20
229.349382271153587
 30
0.0
 40
0.4643982504606377
 50
337.5044682029414957
 51
22.4955317970585611
  0
ARC
  5
13B72
  8
0
 10
4317.4205582143467836
 20
229.3442013676643967
 30
0.0
 40
0.4643982504606377
 50
0.3196022412976745
 51
22.4955317970585611
  0
ARC
  5
13B73
  8
0
 10
4317.4084966667796834
 20
229.339012022171886
 30
0.0
 40
0.4795355198403956
 50
23.0889231863216686
 51
62.364166653021222
  0
ARC
  5
13B74
  8
0
 10
4317.4079940429255657
 20
229.3334610197902066
 30
0.0
 40
0.4801430412963238
 50
23.1060285631865199
 51
63.6828617130692081
  0
ARC
  5
13B75
  8
0
 10
4317.4084959008796432
 20
229.3597530157647952
 30
0.0
 40
0.479536418755403
 50
297.6359108113217076
 51
336.9110582255049735
  0
ARC
  5
13B76
  8
0
 10
4297.4001404864366123
 20
233.8189261494484867
 30
0.0
 40
0.0393700786615722
 50
177.4288365065158075
 51
270.0
  0
LINE
  5
13B77
  8
0
 10
4297.3608100426527017
 20
233.820692299386991
 30
0.0
 11
4297.4270855622544332
 21
235.2965825412869947
 31
0.0
  0
ARC
  5
13B78
  8
0
 10
4297.6630690694228178
 20
235.2859756580290025
 30
0.0
 40
0.2362217636648201
 50
91.6193998360338497
 51
177.4264265960067917
  0
ARC
  5
13B79
  8
0
 10
4310.0256291501673331
 20
-197.3727828390817081
 30
0.0
 40
433.0715648061445791
 50
91.058493298798183
 51
91.636684217022335
  0
ARC
  5
13B7A
  8
0
 10
4310.0256377909827279
 20
-197.378334122679604
 30
0.0
 40
433.0771153020878046
 50
89.421371856308383
 51
91.0584808745946503
  0
ARC
  5
13B7B
  8
0
 10
4314.3942762695633064
 20
235.2038343241657969
 30
0.0
 40
0.4728880438845698
 50
54.990594902282723
 51
89.4040750510407776
  0
ARC
  5
13B7C
  8
0
 10
4313.8757453236357833
 20
234.4635540483114085
 30
0.0
 40
1.376707289476885
 50
46.4799284572949318
 51
54.990594902282723
  0
ARC
  5
13B7D
  8
0
 10
4314.8163658165030938
 20
235.4412795689800078
 30
0.0
 40
0.021858472685725
 50
27.1477004632081602
 51
70.234119820030287
  0
ARC
  5
13B7E
  8
0
 10
4314.788242064086262
 20
235.4288233024678902
 30
0.0
 40
0.0525966112395894
 50
350.4051589038148791
 51
25.2426637877190814
  0
ARC
  5
13B7F
  8
0
 10
4315.0287678583772504
 20
235.3944900130719873
 30
0.0
 40
0.1903893651275271
 50
172.2827072407646085
 51
179.4807961337270115
  0
ARC
  5
13B80
  8
0
 10
4330.8663108460459625
 20
235.2540613960543112
 30
0.0
 40
16.0285549144945492
 50
179.4918491754795866
 51
179.5604184495570905
  0
ARC
  5
13B81
  8
0
 10
4313.6426053486557066
 20
234.4475003014885033
 30
0.0
 40
1.5144977637970509
 50
22.6384366816212683
 51
38.0462739998048178
  0
ARC
  5
13B82
  8
0
 10
4313.6426054574440059
 20
234.4475003468583907
 30
0.0
 40
1.5144976459270569
 50
4.0976072013460234
 51
22.6384366816212683
  0
LINE
  5
13B83
  8
0
 10
4315.1532316959537638
 20
234.5557199709868996
 30
0.0
 11
4315.169129536253422
 21
234.3338031607869993
 31
0.0
  0
ARC
  5
13B84
  8
0
 10
4313.9717629523602227
 20
234.2565585839913069
 30
0.0
 40
1.199855600006976
 50
359.3027650482965782
 51
3.6911534280935721
  0
ARC
  5
13B85
  8
0
 10
4317.4826733888849049
 20
234.1608567455917864
 30
0.0
 40
2.312566211020977
 50
177.990239665466305
 51
183.0539120033500922
  0
LINE
  5
13B86
  8
0
 10
4315.1733913743528319
 20
234.0376534269869921
 30
0.0
 11
4315.1779742964527031
 21
233.9724508832869105
 31
0.0
  0
ARC
  5
13B87
  8
0
 10
4315.0559800145647387
 20
233.9617673338250938
 30
0.0
 40
0.122461189943571
 50
340.5027811611449238
 51
5.0048625995080771
  0
ARC
  5
13B88
  8
0
 10
4314.9550913176226459
 20
234.0157770585034029
 30
0.0
 40
0.2362209877615339
 50
270.0
 51
336.3174802031147124
  0
LINE
  5
13B89
  8
0
 10
4315.9752742452528764
 20
233.917351502687012
 30
0.0
 11
4315.1698301474161781
 21
233.917351502687012
 31
0.0
  0
ARC
  5
13B8A
  8
0
 10
4315.9752896698582845
 20
233.8582963828660866
 30
0.0
 40
0.0590551218352704
 50
2.0000015446763459
 51
90.014965082525265
  0
LINE
  5
13B8B
  8
0
 10
4316.0343088168538088
 20
233.8603573784870093
 30
0.0
 11
4316.044004622473949
 21
233.5827058327870134
 31
0.0
  0
ARC
  5
13B8C
  8
0
 10
4298.760467902057826
 20
233.8003147353093993
 30
0.0
 40
0.082688171816993
 50
194.5395105748094124
 51
207.1625187380155921
  0
ARC
  5
13B8D
  8
0
 10
4298.9899122403157889
 20
233.9197856500514945
 30
0.0
 40
0.3413773300812458
 50
207.4225931221749875
 51
233.289979525963787
  0
ARC
  5
13B8E
  8
0
 10
4298.9791405183332245
 20
233.9090193178548134
 30
0.0
 40
0.3263147240853811
 50
233.6762045829107137
 51
269.842108716898224
  0
ARC
  5
13B8F
  8
0
 10
4299.1610301021737541
 20
233.7962441522238066
 30
0.0
 40
0.1023837297482901
 50
341.2700932383539794
 51
350.6191945457945849
  0
ARC
  5
13B90
  8
0
 10
4298.9851132732819678
 20
233.8454248888278926
 30
0.0
 40
0.2849492370510589
 50
311.3989343678908881
 51
343.2635225431639014
  0
ARC
  5
13B91
  8
0
 10
4299.0378249733857956
 20
233.7951979608889133
 30
0.0
 40
0.2125088645231965
 50
270.7190900083037945
 51
309.6932765256358948
  0
ARC
  5
13B92
  8
0
 10
4299.8028269383239603
 20
233.797927832478905
 30
0.0
 40
0.0760265495632103
 50
332.2819199141567879
 51
346.0160967698877812
  0
ARC
  5
13B93
  8
0
 10
4299.5585969945059333
 20
233.926249747320611
 30
0.0
 40
0.3519156201810195
 50
311.5547861246266166
 51
332.2819199141567879
  0
ARC
  5
13B94
  8
0
 10
4299.5837908997837076
 20
233.8978280257846052
 30
0.0
 40
0.3139350051487813
 50
289.2916443204650818
 51
311.5547861246266166
  0
ARC
  5
13B95
  8
0
 10
4299.5766901521983527
 20
233.9181140613439993
 30
0.0
 40
0.3354278843182304
 50
270.6202761797272274
 51
289.2916443204650818
  0
ARC
  5
13B96
  8
0
 10
4300.421703230453204
 20
202.283493156196613
 30
0.0
 40
31.4960629920904189
 50
88.2703065688241253
 51
89.9959806080830163
  0
ARC
  5
13B97
  8
0
 10
38953.6783711069219862
 20
1147736.3567539809737355
 30
0.0
 40
1148025.6878317259252071
 50
268.2703065688241963
 51
268.270608347963389
  0
ARC
  5
13B98
  8
0
 10
4314.2547026445172378
 20
230.9873339708898925
 30
0.0
 40
3.4557692372428428
 50
126.100126202529907
 51
131.3206857073172955
  0
LINE
  5
13B99
  8
0
 10
4314.3500913826419492
 20
233.7795560707870095
 30
0.0
 11
4314.3432172208322299
 21
233.5827058327870134
 31
0.0
  0
ENDSEC
  0
EOF
