  0
SECTION
  2
HEADER
  9
$ACADVER
  1
AC1009
  9
$INSBASE
 10
3268.7069988297548662
 20
143.8612723504780888
 30
0.0
  9
$EXTMIN
 10
3260.4632451275851963
 20
143.8534676392137044
 30
-0.0000000349181948
  9
$EXTMAX
 10
3269.9437980004859128
 20
156.4204765697861035
 30
0.0000000814935746
  9
$LIMMIN
 10
0.0
 20
0.0
  9
$LIMMAX
 10
11.6929133858000007
 20
8.2677165353999982
  9
$ORTHOMODE
 70
     0
  9
$REGENMODE
 70
     1
  9
$FILLMODE
 70
     1
  9
$QTEXTMODE
 70
     0
  9
$MIRRTEXT
 70
     0
  9
$DRAGMODE
 70
     2
  9
$LTSCALE
 40
0.6431102362
  9
$OSMODE
 70
  2039
  9
$ATTMODE
 70
     1
  9
$TEXTSIZE
 40
0.2
  9
$TRACEWID
 40
0.05
  9
$TEXTSTYLE
  7
STANDARD
  9
$CLAYER
  8
0
  9
$CELTYPE
  6
BYLAYER
  9
$CECOLOR
 62
   256
  9
$DIMSCALE
 40
1.0
  9
$DIMASZ
 40
0.1875
  9
$DIMEXO
 40
0.0625
  9
$DIMDLI
 40
0.4443307087
  9
$DIMRND
 40
0.0
  9
$DIMDLE
 40
0.0
  9
$DIMEXE
 40
0.125
  9
$DIMTP
 40
0.01
  9
$DIMTM
 40
0.01
  9
$DIMTXT
 40
2.0
  9
$DIMCEN
 40
0.1052362205
  9
$DIMTSZ
 40
0.0
  9
$DIMTOL
 70
     1
  9
$DIMLIM
 70
     0
  9
$DIMTIH
 70
     1
  9
$DIMTOH
 70
     1
  9
$DIMSE1
 70
     0
  9
$DIMSE2
 70
     0
  9
$DIMTAD
 70
     0
  9
$DIMZIN
 70
     0
  9
$DIMBLK
  1

  9
$DIMASO
 70
     1
  9
$DIMSHO
 70
     1
  9
$DIMPOST
  1
\X
  9
$DIMAPOST
  1

  9
$DIMALT
 70
     1
  9
$DIMALTD
 70
     2
  9
$DIMALTF
 40
25.3999999999999986
  9
$DIMLFAC
 40
1.0
  9
$DIMTOFL
 70
     0
  9
$DIMTVP
 40
0.0
  9
$DIMTIX
 70
     0
  9
$DIMSOXD
 70
     0
  9
$DIMSAH
 70
     0
  9
$DIMBLK1
  1

  9
$DIMBLK2
  1

  9
$DIMSTYLE
  2
STANDARD
  9
$DIMCLRD
 70
     0
  9
$DIMCLRE
 70
     0
  9
$DIMCLRT
 70
     0
  9
$DIMTFAC
 40
1.0
  9
$DIMGAP
 40
0.09
  9
$LUNITS
 70
     2
  9
$LUPREC
 70
     4
  9
$SKETCHINC
 40
0.1
  9
$FILLETRAD
 40
0.0
  9
$AUNITS
 70
     0
  9
$AUPREC
 70
     0
  9
$MENU
  1
.
  9
$ELEVATION
 40
0.0
  9
$PELEVATION
 40
0.0
  9
$THICKNESS
 40
0.0
  9
$LIMCHECK
 70
     0
  9
$BLIPMODE
 70
     0
  9
$CHAMFERA
 40
0.0
  9
$CHAMFERB
 40
0.0
  9
$SKPOLY
 70
     0
  9
$TDCREATE
 40
2458060.468368056230247
  9
$TDUPDATE
 40
2459243.700787038076669
  9
$TDINDWG
 40
0.5955047454
  9
$TDUSRTIMER
 40
0.5955047454
  9
$USRTIMER
 70
     1
  9
$ANGBASE
 50
0.0
  9
$ANGDIR
 70
     0
  9
$PDMODE
 70
     0
  9
$PDSIZE
 40
0.3125
  9
$PLINEWID
 40
0.0
  9
$COORDS
 70
     1
  9
$SPLFRAME
 70
     0
  9
$SPLINETYPE
 70
     6
  9
$SPLINESEGS
 70
     8
  9
$ATTDIA
 70
     1
  9
$ATTREQ
 70
     1
  9
$HANDLING
 70
     1
  9
$HANDSEED
  5
23F40
  9
$SURFTAB1
 70
     6
  9
$SURFTAB2
 70
     6
  9
$SURFTYPE
 70
     6
  9
$SURFU
 70
     6
  9
$SURFV
 70
     6
  9
$UCSNAME
  2

  9
$UCSORG
 10
0.0
 20
0.0
 30
0.0
  9
$UCSXDIR
 10
1.0
 20
0.0
 30
0.0
  9
$UCSYDIR
 10
0.0
 20
1.0
 30
0.0
  9
$PUCSNAME
  2

  9
$PUCSORG
 10
0.0
 20
0.0
 30
0.0
  9
$PUCSXDIR
 10
1.0
 20
0.0
 30
0.0
  9
$PUCSYDIR
 10
0.0
 20
1.0
 30
0.0
  9
$USERI1
 70
     0
  9
$USERI2
 70
     0
  9
$USERI3
 70
     0
  9
$USERI4
 70
     0
  9
$USERI5
 70
     0
  9
$USERR1
 40
0.0
  9
$USERR2
 40
0.0
  9
$USERR3
 40
0.0
  9
$USERR4
 40
0.0
  9
$USERR5
 40
0.0
  9
$WORLDVIEW
 70
     1
  9
$SHADEDGE
 70
     3
  9
$SHADEDIF
 70
    70
  9
$TILEMODE
 70
     1
  9
$MAXACTVP
 70
    64
  9
$PLIMCHECK
 70
     0
  9
$PEXTMIN
 10
1.0000000000000000E+20
 20
1.0000000000000000E+20
 30
1.0000000000000000E+20
  9
$PEXTMAX
 10
-1.0000000000000000E+20
 20
-1.0000000000000000E+20
 30
-1.0000000000000000E+20
  9
$PLIMMIN
 10
0.0
 20
0.0
  9
$PLIMMAX
 10
12.0
 20
9.0
  9
$UNITMODE
 70
     0
  9
$VISRETAIN
 70
     1
  9
$PLINEGEN
 70
     0
  9
$PSLTSCALE
 70
     1
  0
ENDSEC
  0
SECTION
  2
TABLES
  0
TABLE
  2
VPORT
 70
     1
  0
VPORT
  2
*ACTIVE
 70
     0
 10
0.0
 20
0.0
 11
1.0
 21
1.0
 12
-38.4895936703396728
 22
-45.1245394713878269
 13
0.0
 23
0.0
 14
1.0
 24
1.0
 15
0.0
 25
0.0
 16
0.0
 26
0.0
 36
96.5995694866707311
 17
3303.693115234375
 27
195.2615115758877096
 37
0.0
 40
12.6715887552374102
 41
2.6486111111111108
 42
50.0
 43
0.0
 44
0.0
 50
0.0
 51
0.0
 71
     0
 72
   100
 73
     1
 74
     1
 75
     0
 76
     0
 77
     0
 78
     0
  0
ENDTAB
  0
TABLE
  2
LTYPE
 70
     2
  0
LTYPE
  2
CONTINUOUS
 70
     0
  3
Solid line
 72
    65
 73
     0
 40
0.0
  0
LTYPE
  2
PHANTOM2
 70
     0
  3
___ _ _ ___ _ _ ___ _ _ ___ _ _
 72
    65
 73
     6
 40
1.25
 49
0.625
 49
-0.125
 49
0.125
 49
-0.125
 49
0.125
 49
-0.125
  0
ENDTAB
  0
TABLE
  2
LAYER
 70
     2
  0
LAYER
  2
0
 70
     0
 62
   255
  6
CONTINUOUS
  0
LAYER
  2
DEFPOINTS
 70
     0
 62
     7
  6
CONTINUOUS
  0
ENDTAB
  0
TABLE
  2
STYLE
 70
     1
  0
STYLE
  2
STANDARD
 70
     0
 40
0.0
 41
0.8
 50
0.0
 71
     0
 42
0.2
  3
txt
  4

  0
ENDTAB
  0
TABLE
  2
VIEW
 70
     0
  0
ENDTAB
  0
TABLE
  2
UCS
 70
     0
  0
ENDTAB
  0
TABLE
  2
APPID
 70
     9
  0
APPID
  2
ACAD
 70
     0
  0
APPID
  2
ACAD_MLEADERVER
 70
     0
  0
APPID
  2
ACAD_EXEMPT_FROM_CAD_STANDARDS
 70
     0
  0
APPID
  2
ACAD_NAV_VCDISPLAY
 70
     0
  0
APPID
  2
ACAECLAYERSTANDARD
 70
     0
  0
APPID
  2
ACCMTRANSPARENCY
 70
     0
  0
APPID
  2
ACAD_DSTYLE_DIMJAG
 70
     0
  0
APPID
  2
ACAD_DSTYLE_DIMTALN
 70
     0
  0
APPID
  2
ACDBATTR
 70
     0
  0
ENDTAB
  0
TABLE
  2
DIMSTYLE
 70
     1
  0
DIMSTYLE
  2
STANDARD
 70
     0
  3

  4

  5

  6

  7

 40
1.0
 41
0.1875
 42
0.0625
 43
0.38
 44
0.125
 45
0.0
 46
0.0
 47
0.01
 48
0.01
140
0.15625
141
0.09
142
0.0
143
25.3999999999999986
144
1.0
145
0.0
146
1.0
147
0.09
 71
     1
 72
     0
 73
     1
 74
     1
 75
     0
 76
     0
 77
     0
 78
     4
170
     0
171
     2
172
     0
173
     0
174
     0
175
     0
176
     0
177
     0
178
     0
  0
ENDTAB
  0
ENDSEC
  0
SECTION
  2
BLOCKS
  0
BLOCK
  8
0
  2
$MODEL_SPACE
 70
     0
 10
0.0
 20
0.0
 30
0.0
  3
$MODEL_SPACE
  1

  0
ENDBLK
  5
21
  8
0
  0
BLOCK
 67
     1
  8
0
  2
$PAPER_SPACE
 70
     0
 10
0.0
 20
0.0
 30
0.0
  3
$PAPER_SPACE
  1

  0
ENDBLK
  5
1D
 67
     1
  8
0
  0
BLOCK
  8
0
  2
_FILLED
 70
     0
 10
0.0
 20
0.0
 30
0.0
  3
_FILLED
  1

  0
SOLID
  5
211E5
  8
0
  6
BYBLOCK
 62
     0
 10
0.0
 20
0.0
 30
0.0
 11
-1.0
 21
0.1666666667
 31
0.0
 12
-1.0
 22
-0.1666666667
 32
0.0
 13
-1.0
 23
-0.1666666667
 33
0.0
  0
ENDBLK
  5
211E6
  8
0
  6
BYBLOCK
 62
     0
  0
ENDSEC
  0
SECTION
  2
ENTITIES
  0
ATTDEF
  5
23AB6
  8
DEFPOINTS
 10
3268.7073098780770124
 20
143.8654744331959989
 30
0.0
 40
0.001
  1
K-24711T-4
  3

  2
MODELNUMBER
 70
     0
1001
ACDBATTR
1070
     0
1070
     1
  0
ATTDEF
  5
23AB7
  8
DEFPOINTS
 10
3268.7073098780770124
 20
143.8638077665293054
 30
0.0
 40
0.001
  1
COMPONENTS
  3

  2
TRADENAME
 70
     0
1001
ACDBATTR
1070
     0
1070
     1
  0
ATTDEF
  5
23AB8
  8
DEFPOINTS
 10
3268.7073098780770124
 20
143.862141099862697
 30
0.0
 40
0.001
  1
BATHROOM SINK FAUCET
  3

  2
PRODUCT
 70
     0
1001
ACDBATTR
1070
     0
1070
     1
  0
LINE
  5
23D42
  8
0
 10
3269.8782637008180245
 20
143.8612723504780888
 30
0.0
 11
3267.5357339586921626
 21
143.8612723504780888
 31
0.0
  0
LINE
  5
23D43
  8
0
 10
3267.5410569130608565
 20
144.0223361597780922
 30
0.0
 11
3269.8729508070291558
 21
144.0223361597780922
 31
0.0
  0
LINE
  5
23D44
  8
0
 10
3268.1951928347180001
 20
144.1762329803781029
 30
0.0
 11
3269.2188148819318485
 21
144.1762329803781029
 31
0.0
  0
LINE
  5
23D45
  8
0
 10
3268.4605045186658572
 20
145.4432295665878883
 30
0.0
 11
3268.9539749574701091
 21
145.4432295665878883
 31
0.0
  0
LINE
  5
23D46
  8
0
 10
3268.1952005055181871
 20
144.2155810118781005
 30
0.0
 11
3269.2188056615182177
 21
144.2155810118781005
 31
0.0
  0
ARC
  5
23D47
  8
0
 10
3267.53574402460481
 20
143.871114873817703
 30
0.0
 40
0.0098425284867971
 50
180.0000211870822966
 51
269.9414038329043137
  0
ARC
  5
23D48
  8
0
 10
3267.5457391473942153
 20
144.0030586167106037
 30
0.0
 40
0.0198380186777445
 50
103.6519495776428954
 51
179.651293463639405
  0
LINE
  5
23D49
  8
0
 10
3267.5410569130608565
 20
144.0223361597780922
 30
0.0
 11
3268.169581652125089
 21
144.1709506679781043
 31
0.0
  0
ARC
  5
23D4A
  8
0
 10
3268.214877874117974
 20
143.9793825866780992
 30
0.0
 40
0.1968503937000574
 50
90.0
 51
103.3032422925531932
  0
ARC
  5
23D4B
  8
0
 10
3268.1951928347180001
 20
144.1959180197781052
 30
0.0
 40
0.0196850393999983
 50
179.9999999999951115
 51
270.0
  0
LINE
  5
23D4C
  8
0
 10
3268.1755077953180262
 20
144.1959180197781052
 30
0.0
 11
3268.1755077953189357
 21
152.2077290433780945
 31
0.0
  0
ARC
  5
23D4D
  8
0
 10
3265.0260645699559063
 20
152.2078915919325084
 30
0.0
 40
3.149443229557062
 50
359.9970428594958776
 51
170.0024796549460007
  0
LINE
  5
23D4E
  8
0
 10
3261.9244447941177896
 20
152.7546524375781019
 30
0.0
 11
3261.7227667924971684
 21
151.6108796535820034
 31
0.0
  0
ARC
  5
23D4F
  8
0
 10
3261.7033808148030403
 20
151.6142979237934867
 30
0.0
 40
0.0196850375250995
 50
269.9999950965337234
 51
350.0000020156095957
  0
ARC
  5
23D50
  8
0
 10
3261.7033807977650213
 20
151.6142978064137026
 30
0.0
 40
0.0196849201452412
 50
259.999984229187703
 51
270.0000446878382832
  0
LINE
  5
23D51
  8
0
 10
3261.699962541918012
 20
151.5949119453781009
 30
0.0
 11
3260.6918916136992266
 21
151.7726620484586135
 31
0.0
  0
ARC
  5
23D52
  8
0
 10
3260.6953098849180606
 20
151.7920480278781099
 30
0.0
 40
0.0196850393999993
 50
169.9999999994006998
 51
260.0000000006035066
  0
LINE
  5
23D53
  8
0
 10
3260.6759239054990758
 20
151.7954662990973986
 30
0.0
 11
3260.8776019071401606
 21
152.9392390831511079
 31
0.0
  0
ARC
  5
23D54
  8
0
 10
3264.9973083522440902
 20
152.1790701361896083
 30
0.0
 40
4.2412883960592911
 50
0.3871575733141832
 51
89.7807073423880269
  0
ARC
  5
23D55
  8
0
 10
3265.0868577569690387
 20
152.1356853443475075
 30
0.0
 40
4.2852693521491778
 50
90.9803180228545187
 51
169.1921823474453106
  0
LINE
  5
23D56
  8
0
 10
3269.23849992131818
 20
152.2077290433780945
 30
0.0
 11
3269.2384999213318224
 21
144.1959180197781052
 31
0.0
  0
ARC
  5
23D57
  8
0
 10
3269.2188148819318485
 20
144.1959180197781052
 30
0.0
 40
0.0196850393999633
 50
269.9999999598491058
 51
0.0000000000895644
  0
ARC
  5
23D58
  8
0
 10
3269.1991298425728019
 20
143.9793825853876967
 30
0.0
 40
0.1968503949906045
 50
76.6967577375938276
 51
89.7067256952333452
  0
LINE
  5
23D59
  8
0
 10
3269.2444260647630472
 20
144.170950667967503
 30
0.0
 11
3269.8729508037581581
 21
144.0223361605517027
 31
0.0
  0
ARC
  5
23D5A
  8
0
 10
3269.8684210732758402
 20
144.0031788944276911
 30
0.0
 40
0.0196855099902806
 50
359.6521693941371041
 51
76.6967577375938276
  0
ARC
  5
23D5B
  8
0
 10
3269.877950297406187
 20
143.8714282735901122
 30
0.0
 40
0.0101607576466906
 50
271.767539578826586
 51
358.2324604211698897
  0
LINE
  5
23D5C
  8
0
 10
3269.8881062205177841
 20
144.0030593885782082
 30
0.0
 11
3269.8881062205177841
 21
143.8711148701781042
 31
0.0
  0
LINE
  5
23D5D
  8
0
 10
3267.5259014961179673
 20
143.8711148701781042
 30
0.0
 11
3267.5259014961179673
 21
144.0031793516781136
 31
0.0
  0
ARC
  5
23D5E
  8
0
 10
3269.2188107884799138
 20
144.2352846803904924
 30
0.0
 40
0.019703669179434
 50
269.985091441862096
 51
357.7990096625154024
  0
ARC
  5
23D5F
  8
0
 10
3268.1951999607567814
 20
144.2352832594353913
 30
0.0
 40
0.0197022475648411
 50
181.8330500742115987
 51
270.0015842112633209
  0
ARC
  5
23D60
  8
0
 10
3268.2837755092641601
 20
144.2156030596457015
 30
0.0
 40
0.0393700812552881
 50
330.0000012772849232
 51
359.9679136020396868
  0
ARC
  5
23D61
  8
0
 10
3268.2837755131781705
 20
144.2156030573856924
 30
0.0
 40
0.0393700767352892
 50
283.6036094771495186
 51
330.0000012772849232
  0
ARC
  5
23D62
  8
0
 10
3268.2834240734209743
 20
144.2170553349160116
 30
0.0
 40
0.0408642721466928
 50
272.5953810409720859
 51
283.6036094771495186
  0
ARC
  5
23D63
  8
0
 10
3269.1302094370921623
 20
144.215594266271296
 30
0.0
 40
0.0393473070330637
 50
180.0193004517628026
 51
210.0043599863182919
  0
ARC
  5
23D64
  8
0
 10
3269.1302306538591438
 20
144.2156030573856924
 30
0.0
 40
0.0393700767352892
 50
209.9999987227151053
 51
256.3963905228504814
  0
ARC
  5
23D65
  8
0
 10
3269.1305820936158852
 20
144.2170553349160116
 30
0.0
 40
0.0408642721466928
 50
256.3963905228504814
 51
267.4046189590279141
  0
ARC
  5
23D66
  8
0
 10
3268.1952465589788517
 20
145.4167998693133939
 30
0.0
 40
0.0197389410923615
 50
95.0003229578980353
 51
179.7570641003775904
  0
ARC
  5
23D67
  8
0
 10
3267.5328399750487733
 20
176.7776372465995109
 30
0.0
 40
31.3481365660329594
 50
271.2076420761615054
 51
271.6957634334091267
  0
ARC
  5
23D68
  8
0
 10
3269.2187161180859221
 20
145.4167873633631132
 30
0.0
 40
0.019784037253307
 50
0.2786815666280733
 51
88.2300768540901004
  0
ARC
  5
23D69
  8
0
 10
3268.5087649751899335
 20
122.4416290139333938
 30
0.0
 40
23.0059088043093283
 50
88.2300768540901004
 51
88.891143765326305
  0
ARC
  5
23D6A
  8
0
 10
3268.5731483584418129
 20
144.2352669062815096
 30
0.0
 40
0.0196878072423361
 50
180.0024882448375934
 51
269.2013036917833801
  0
LINE
  5
23D6B
  8
0
 10
3268.5534605512179951
 20
144.2352660512781029
 30
0.0
 11
3268.5534605512179951
 21
145.423089338358011
 31
0.0
  0
ARC
  5
23D6C
  8
0
 10
3268.5737992725357799
 20
145.4228988209520992
 30
0.0
 40
0.0203396136077864
 50
91.6919760762660019
 51
179.4633131622856865
  0
ARC
  5
23D6D
  8
0
 10
3268.840185646764894
 20
145.4228821751671035
 30
0.0
 40
0.0203625725025363
 50
0.5829246503873798
 51
87.7874165804832955
  0
LINE
  5
23D6E
  8
0
 10
3268.8605471654191206
 20
145.4230893394781106
 30
0.0
 11
3268.8605471654191206
 21
144.235327526155487
 31
0.0
  0
ARC
  5
23D6F
  8
0
 10
3268.8408099675561971
 20
144.2352833376943977
 30
0.0
 40
0.0197372473279056
 50
273.4088266042347186
 51
0.1282759645973128
  0
ENDSEC
  0
EOF
