  0
SECTION
  2
HEADER
  9
$ACADVER
  1
AC1009
  9
$INSBASE
 10
4060.2528837060190199
 20
132.3050176149446884
 30
0.0
  9
$EXTMIN
 10
4059.2619225300818471
 20
132.3050176149446884
 30
0.0
  9
$EXTMAX
 10
4061.2438448815191805
 20
138.2337577731447027
 30
0.0
  9
$LIMMIN
 10
0.0
 20
0.0
  9
$LIMMAX
 10
11.6929133858000007
 20
8.2677165353999982
  9
$ORTHOMODE
 70
     0
  9
$REGENMODE
 70
     1
  9
$FILLMODE
 70
     1
  9
$QTEXTMODE
 70
     0
  9
$MIRRTEXT
 70
     0
  9
$DRAGMODE
 70
     2
  9
$LTSCALE
 40
0.6431102362
  9
$OSMODE
 70
  4095
  9
$ATTMODE
 70
     1
  9
$TEXTSIZE
 40
0.2
  9
$TRACEWID
 40
0.05
  9
$TEXTSTYLE
  7
STANDARD
  9
$CLAYER
  8
0
  9
$CELTYPE
  6
BYLAYER
  9
$CECOLOR
 62
   256
  9
$DIMSCALE
 40
1.0
  9
$DIMASZ
 40
0.1875
  9
$DIMEXO
 40
0.0625
  9
$DIMDLI
 40
0.4443307087
  9
$DIMRND
 40
0.0
  9
$DIMDLE
 40
0.0
  9
$DIMEXE
 40
0.125
  9
$DIMTP
 40
0.01
  9
$DIMTM
 40
0.01
  9
$DIMTXT
 40
2.0
  9
$DIMCEN
 40
0.1052362205
  9
$DIMTSZ
 40
0.0
  9
$DIMTOL
 70
     1
  9
$DIMLIM
 70
     0
  9
$DIMTIH
 70
     1
  9
$DIMTOH
 70
     1
  9
$DIMSE1
 70
     0
  9
$DIMSE2
 70
     0
  9
$DIMTAD
 70
     0
  9
$DIMZIN
 70
     0
  9
$DIMBLK
  1

  9
$DIMASO
 70
     1
  9
$DIMSHO
 70
     1
  9
$DIMPOST
  1
\X
  9
$DIMAPOST
  1

  9
$DIMALT
 70
     1
  9
$DIMALTD
 70
     2
  9
$DIMALTF
 40
25.3999999999999986
  9
$DIMLFAC
 40
1.0
  9
$DIMTOFL
 70
     0
  9
$DIMTVP
 40
0.0
  9
$DIMTIX
 70
     0
  9
$DIMSOXD
 70
     0
  9
$DIMSAH
 70
     0
  9
$DIMBLK1
  1

  9
$DIMBLK2
  1

  9
$DIMSTYLE
  2
STANDARD
  9
$DIMCLRD
 70
     0
  9
$DIMCLRE
 70
     0
  9
$DIMCLRT
 70
     0
  9
$DIMTFAC
 40
1.0
  9
$DIMGAP
 40
0.09
  9
$LUNITS
 70
     2
  9
$LUPREC
 70
     4
  9
$SKETCHINC
 40
0.1
  9
$FILLETRAD
 40
0.0
  9
$AUNITS
 70
     0
  9
$AUPREC
 70
     0
  9
$MENU
  1
.
  9
$ELEVATION
 40
0.0
  9
$PELEVATION
 40
0.0
  9
$THICKNESS
 40
0.0
  9
$LIMCHECK
 70
     0
  9
$BLIPMODE
 70
     0
  9
$CHAMFERA
 40
0.0
  9
$CHAMFERB
 40
0.0
  9
$SKPOLY
 70
     0
  9
$TDCREATE
 40
2458060.468368056230247
  9
$TDUPDATE
 40
2460115.3940393519587815
  9
$TDINDWG
 40
0.3136876157
  9
$TDUSRTIMER
 40
0.3136876157
  9
$USRTIMER
 70
     1
  9
$ANGBASE
 50
0.0
  9
$ANGDIR
 70
     0
  9
$PDMODE
 70
     0
  9
$PDSIZE
 40
0.3125
  9
$PLINEWID
 40
0.0
  9
$COORDS
 70
     1
  9
$SPLFRAME
 70
     0
  9
$SPLINETYPE
 70
     6
  9
$SPLINESEGS
 70
     8
  9
$ATTDIA
 70
     1
  9
$ATTREQ
 70
     1
  9
$HANDLING
 70
     1
  9
$HANDSEED
  5
9299
  9
$SURFTAB1
 70
     6
  9
$SURFTAB2
 70
     6
  9
$SURFTYPE
 70
     6
  9
$SURFU
 70
     6
  9
$SURFV
 70
     6
  9
$UCSNAME
  2

  9
$UCSORG
 10
0.0
 20
0.0
 30
0.0
  9
$UCSXDIR
 10
1.0
 20
0.0
 30
0.0
  9
$UCSYDIR
 10
0.0
 20
1.0
 30
0.0
  9
$PUCSNAME
  2

  9
$PUCSORG
 10
0.0
 20
0.0
 30
0.0
  9
$PUCSXDIR
 10
1.0
 20
0.0
 30
0.0
  9
$PUCSYDIR
 10
0.0
 20
1.0
 30
0.0
  9
$USERI1
 70
     0
  9
$USERI2
 70
     0
  9
$USERI3
 70
     0
  9
$USERI4
 70
     0
  9
$USERI5
 70
     0
  9
$USERR1
 40
0.0
  9
$USERR2
 40
0.0
  9
$USERR3
 40
0.0
  9
$USERR4
 40
0.0
  9
$USERR5
 40
0.0
  9
$WORLDVIEW
 70
     1
  9
$SHADEDGE
 70
     3
  9
$SHADEDIF
 70
    70
  9
$TILEMODE
 70
     1
  9
$MAXACTVP
 70
    64
  9
$PLIMCHECK
 70
     0
  9
$PEXTMIN
 10
1.0000000000000000E+20
 20
1.0000000000000000E+20
 30
1.0000000000000000E+20
  9
$PEXTMAX
 10
-1.0000000000000000E+20
 20
-1.0000000000000000E+20
 30
-1.0000000000000000E+20
  9
$PLIMMIN
 10
0.0
 20
0.0
  9
$PLIMMAX
 10
12.0
 20
9.0
  9
$UNITMODE
 70
     0
  9
$VISRETAIN
 70
     1
  9
$PLINEGEN
 70
     0
  9
$PSLTSCALE
 70
     1
  0
ENDSEC
  0
SECTION
  2
TABLES
  0
TABLE
  2
VPORT
 70
     1
  0
VPORT
  2
*ACTIVE
 70
     0
 10
0.0
 20
0.0
 11
1.0
 21
1.0
 12
18.0071561667380102
 22
-0.3227229991107947
 13
0.0
 23
0.0
 14
1.0
 24
1.0
 15
0.0
 25
0.0
 16
0.0
 26
0.0
 36
53.2874995227186403
 17
4042.2457275390629547
 27
135.5921106931554903
 37
0.0
 40
5.9722804775993366
 41
2.3419117647058818
 42
50.0
 43
0.0
 44
0.0
 50
0.0
 51
0.0
 71
     0
 72
   100
 73
     1
 74
     1
 75
     0
 76
     0
 77
     0
 78
     0
  0
ENDTAB
  0
TABLE
  2
LTYPE
 70
     2
  0
LTYPE
  2
CONTINUOUS
 70
     0
  3
Solid line
 72
    65
 73
     0
 40
0.0
  0
LTYPE
  2
PHANTOM2
 70
     0
  3
___ _ _ ___ _ _ ___ _ _ ___ _ _
 72
    65
 73
     6
 40
1.25
 49
0.625
 49
-0.125
 49
0.125
 49
-0.125
 49
0.125
 49
-0.125
  0
ENDTAB
  0
TABLE
  2
LAYER
 70
     2
  0
LAYER
  2
0
 70
     0
 62
   255
  6
CONTINUOUS
  0
LAYER
  2
DEFPOINTS
 70
     0
 62
     7
  6
CONTINUOUS
  0
ENDTAB
  0
TABLE
  2
STYLE
 70
     1
  0
STYLE
  2
STANDARD
 70
     0
 40
0.0
 41
0.8
 50
0.0
 71
     0
 42
0.2
  3
txt
  4

  0
ENDTAB
  0
TABLE
  2
VIEW
 70
     0
  0
ENDTAB
  0
TABLE
  2
UCS
 70
     0
  0
ENDTAB
  0
TABLE
  2
APPID
 70
     9
  0
APPID
  2
ACAD
 70
     0
  0
APPID
  2
ACAD_MLEADERVER
 70
     0
  0
APPID
  2
ACAD_EXEMPT_FROM_CAD_STANDARDS
 70
     0
  0
APPID
  2
ACAD_NAV_VCDISPLAY
 70
     0
  0
APPID
  2
ACAECLAYERSTANDARD
 70
     0
  0
APPID
  2
ACCMTRANSPARENCY
 70
     0
  0
APPID
  2
ACAD_DSTYLE_DIMJAG
 70
     0
  0
APPID
  2
ACAD_DSTYLE_DIMTALN
 70
     0
  0
APPID
  2
ACDBATTR
 70
     0
  0
ENDTAB
  0
TABLE
  2
DIMSTYLE
 70
     1
  0
DIMSTYLE
  2
STANDARD
 70
     0
  3

  4

  5

  6

  7

 40
1.0
 41
0.1875
 42
0.0625
 43
0.38
 44
0.125
 45
0.0
 46
0.0
 47
0.01
 48
0.01
140
0.15625
141
0.09
142
0.0
143
25.3999999999999986
144
1.0
145
0.0
146
1.0
147
0.09
 71
     1
 72
     0
 73
     1
 74
     1
 75
     0
 76
     0
 77
     0
 78
     4
170
     0
171
     2
172
     0
173
     0
174
     0
175
     0
176
     0
177
     0
178
     0
  0
ENDTAB
  0
ENDSEC
  0
SECTION
  2
BLOCKS
  0
BLOCK
  8
0
  2
$MODEL_SPACE
 70
     0
 10
0.0
 20
0.0
 30
0.0
  3
$MODEL_SPACE
  1

  0
ENDBLK
  5
21
  8
0
  0
BLOCK
 67
     1
  8
0
  2
$PAPER_SPACE
 70
     0
 10
0.0
 20
0.0
 30
0.0
  3
$PAPER_SPACE
  1

  0
ENDBLK
  5
1D
 67
     1
  8
0
  0
BLOCK
  8
0
  2
_FILLED
 70
     0
 10
0.0
 20
0.0
 30
0.0
  3
_FILLED
  1

  0
SOLID
  5
79C3
  8
0
  6
BYBLOCK
 62
     0
 10
0.0
 20
0.0
 30
0.0
 11
-1.0
 21
0.1666666667
 31
0.0
 12
-1.0
 22
-0.1666666667
 32
0.0
 13
-1.0
 23
-0.1666666667
 33
0.0
  0
ENDBLK
  5
79C4
  8
0
  6
BYBLOCK
 62
     0
  0
ENDSEC
  0
SECTION
  2
ENTITIES
  0
ATTDEF
  5
863F
  8
DEFPOINTS
 10
4060.2535763007858804
 20
132.3088652865818062
 30
0.0
 40
0.001
  1
K-24747X-4
  3

  2
MODELNUMBER
 70
     0
1001
ACDBATTR
1070
     0
1070
     1
  0
ATTDEF
  5
8640
  8
DEFPOINTS
 10
4060.2535763007858804
 20
132.3071986199151979
 30
0.0
 40
0.001
  1
HONESTY
  3

  2
TRADENAME
 70
     0
1001
ACDBATTR
1070
     0
1070
     1
  0
ATTDEF
  5
8641
  8
DEFPOINTS
 10
4060.2535763007858804
 20
132.3055319532485044
 30
0.0
 40
0.001
  1
BATHROOM SINK FAUCET
  3

  2
PRODUCT
 70
     0
1001
ACDBATTR
1070
     0
1070
     1
  0
LINE
  5
8C51
  8
0
 10
4059.2619225305188593
 20
132.3050176149446884
 30
0.0
 11
4060.2528837060190199
 21
132.3050176149446884
 31
0.0
  0
LINE
  5
8C53
  8
0
 10
4059.4778145256700554
 20
138.2337577731447027
 30
0.0
 11
4060.2528837060190199
 21
138.2337577731447027
 31
0.0
  0
LINE
  5
8C54
  8
0
 10
4059.4764678873189041
 20
137.170765647144691
 30
0.0
 11
4060.2528837060190199
 21
137.170765647144691
 31
0.0
  0
ARC
  5
8C55
  8
0
 10
4060.4868276288648303
 20
137.2788269582530916
 30
0.0
 40
1.0161220666313371
 50
182.2688538451463103
 51
186.1047659330600084
  0
ARC
  5
8C56
  8
0
 10
3940.1208942308430778
 20
129.676379046432686
 30
0.0
 40
119.5899443715268973
 50
3.625493998282701
 51
3.7208396140709898
  0
LINE
  5
8C57
  8
0
 10
4059.4587526363188772
 20
137.4372002645447139
 30
0.0
 11
4059.4587526362188328
 21
138.2140727337447004
 31
0.0
  0
ARC
  5
8C58
  8
0
 10
4059.478533761036033
 20
138.2139895532318121
 30
0.0
 40
0.0197812997054632
 50
92.0836970592503548
 51
179.7590701168277008
  0
LINE
  5
8C59
  8
0
 10
4059.5625077277468336
 20
138.1224315817291881
 30
0.0
 11
4059.5000562978189009
 21
138.0176335965446981
 31
0.0
  0
LINE
  5
8C5A
  8
0
 10
4059.5000562978189009
 20
138.0176335965446981
 30
0.0
 11
4059.4966269780188668
 21
137.170765647144691
 31
0.0
  0
LINE
  5
8C5B
  8
0
 10
4059.5625077277468336
 20
138.1224315817291881
 30
0.0
 11
4059.5625081453190433
 21
138.2140727337447004
 31
0.0
  0
ARC
  5
8C5C
  8
0
 10
4059.582193432790973
 20
138.2140727337447004
 30
0.0
 40
0.0196852874726039
 50
90.2876448539783354
 51
180.0
  0
ARC
  5
8C5D
  8
0
 10
4059.4785256833279163
 20
137.0096544492182034
 30
0.0
 40
0.0197728781139213
 50
90.0984982459846151
 51
179.7462328324864984
  0
LINE
  5
8C5E
  8
0
 10
4059.4587529991531483
 20
137.0097420244445914
 30
0.0
 11
4059.4587529991531483
 21
132.4624979299445897
 31
0.0
  0
LINE
  5
8C5F
  8
0
 10
4059.2619225305188593
 20
132.3050176149446884
 30
0.0
 11
4059.2619225300818471
 21
132.4428128905447011
 31
0.0
  0
ARC
  5
8C60
  8
0
 10
4059.2816773503632248
 20
132.4427433527123981
 30
0.0
 40
0.0197549426694606
 50
90.1045646868085157
 51
179.7983171806747862
  0
ARC
  5
8C61
  8
0
 10
4060.1950973831039846
 20
97315.7211137505655643
 30
0.0
 40
97179.1853967292263405
 50
269.9997189326244893
 51
270.0000340701749906
  0
ARC
  5
8C62
  8
0
 10
4059.7183724777701173
 20
135.0182641710310918
 30
0.0
 40
1.517454019631812
 50
89.9997189326244893
 51
92.679888229937589
  0
ARC
  5
8C63
  8
0
 10
4059.6600582379642219
 20
136.2641082874839924
 30
0.0
 40
0.2702458922270448
 50
92.679888229937589
 51
102.7729347635887933
  0
LINE
  5
8C64
  8
0
 10
4059.600310158919001
 20
136.5276666478447112
 30
0.0
 11
4059.5056777971881274
 21
136.224137266196891
 31
0.0
  0
ARC
  5
8C65
  8
0
 10
4059.6643596462417918
 20
136.1878893339186902
 30
0.0
 40
0.1627692867928784
 50
167.1326029467292074
 51
180.9504670837137041
  0
LINE
  5
8C66
  8
0
 10
4059.5016127549811245
 20
136.1851893138617129
 30
0.0
 11
4059.4968907767188284
 21
135.8777500828365987
 31
0.0
  0
LINE
  5
8C67
  8
0
 10
4059.4968907767188284
 20
135.8777500828365987
 30
0.0
 11
4059.4968907767188284
 21
132.4624979299445897
 31
0.0
  0
ARC
  5
8C68
  8
0
 10
4059.6199920602189195
 20
137.0097456309447068
 30
0.0
 40
0.0196816675000018
 50
90.2797506599197845
 51
179.9999999999951115
  0
LINE
  5
8C69
  8
0
 10
4059.6003103927200755
 20
137.0097456309447068
 30
0.0
 11
4059.600310158919001
 21
136.5276666478447112
 31
0.0
  0
LINE
  5
8C6A
  8
0
 10
4059.5835923674189871
 20
137.0294270638447074
 30
0.0
 11
4059.5835923674189871
 21
137.0310018676445907
 31
0.0
  0
ARC
  5
8C6B
  8
0
 10
4060.1741435485218972
 20
137.0310018676443065
 30
0.0
 40
0.5905511811031277
 50
166.3101125480770008
 51
179.9999999999674003
  0
ARC
  5
8C6C
  8
0
 10
4060.0353713208751287
 20
135.9163861048016031
 30
0.0
 40
0.425962792454811
 50
95.253245538733097
 51
103.1321777433581985
  0
ARC
  5
8C6D
  8
0
 10
4060.1844879674881668
 20
134.4284111221963087
 30
0.0
 40
1.921379801633935
 50
91.2403101770741927
 51
95.6186717158585253
  0
ARC
  5
8C6E
  8
0
 10
4060.308862079654773
 20
128.6838815096581072
 30
0.0
 40
7.6672556608138454
 50
90.4183182601213247
 51
91.2403101770741927
  0
ARC
  5
8C6F
  8
0
 10
4060.2707217747220056
 20
133.907750227246197
 30
0.0
 40
2.4432477108336719
 50
88.1012022430381876
 51
90.4183182601213247
  0
ARC
  5
8C70
  8
0
 10
4060.1978507964740857
 20
131.7096904992455961
 30
0.0
 40
4.6425150314040211
 50
86.8150109091443341
 51
88.1012022430381876
  0
ARC
  5
8C71
  8
0
 10
4060.4029524029551794
 20
135.3955271707829979
 30
0.0
 40
0.9509762413828781
 50
81.1613687130870147
 51
86.8150109091443341
  0
ARC
  5
8C72
  8
0
 10
4060.5280686039791362
 20
136.2001399346688117
 30
0.0
 40
0.1366938803025333
 50
70.4320410388756954
 51
81.1613687130870147
  0
ARC
  5
8C73
  8
0
 10
4060.5701085347700428
 20
136.3184110280049026
 30
0.0
 40
0.0111733349729643
 50
25.0526675311478506
 51
70.4320410388756954
  0
LINE
  5
8C74
  8
0
 10
4060.5802306703690192
 20
136.3231423898947128
 30
0.0
 11
4060.5648839795680942
 21
136.2851625007945984
 31
0.0
  0
ARC
  5
8C75
  8
0
 10
4060.5496403603087856
 20
136.2914934914869889
 30
0.0
 40
0.0165060404485636
 50
302.1506394472913826
 51
337.4458764015325869
  0
ARC
  5
8C76
  8
0
 10
4060.5094091171290529
 20
136.355501847231892
 30
0.0
 40
0.0921077767579576
 50
292.9998702633967014
 51
302.1506394472913826
  0
ARC
  5
8C77
  8
0
 10
4059.9488612325858412
 20
136.2908340190774084
 30
0.0
 40
0.0416604949075369
 50
104.2685191432178016
 51
120.536544252225994
  0
ARC
  5
8C78
  8
0
 10
4059.9302902411041032
 20
136.3223153735081041
 30
0.0
 40
0.0051097438697471
 50
120.5365442522269035
 51
151.6087024666011871
  0
ARC
  5
8C79
  8
0
 10
4059.9281020077892208
 20
136.3234981173511926
 30
0.0
 40
0.002622325924217
 50
151.6087024665939964
 51
224.9732386572902954
  0
ARC
  5
8C7A
  8
0
 10
4059.9358794760619276
 20
136.3312683237147951
 30
0.0
 40
0.013616193289612
 50
224.9732386572902954
 51
244.9925367928819071
  0
ARC
  5
8C7B
  8
0
 10
4059.9547967161238375
 20
136.3718226834517111
 30
0.0
 40
0.0583656968093552
 50
244.9925367928819071
 51
258.8672670175470785
  0
ARC
  5
8C7C
  8
0
 10
4060.0150709195731906
 20
136.6306420870332943
 30
0.0
 40
0.3240823275215123
 50
257.2464721605388718
 51
262.7327884951089914
  0
ARC
  5
8C7D
  8
0
 10
4060.002960302675092
 20
136.4335827812122091
 30
0.0
 40
0.1264945740902605
 50
235.8457788468489014
 51
248.7367541011161052
  0
ARC
  5
8C7E
  8
0
 10
4060.8188983895811361
 20
138.5303289637867863
 30
0.0
 40
2.3764055758425862
 50
248.7367541011161052
 51
249.1756322271542103
  0
ARC
  5
8C7F
  8
0
 10
4060.1755629676281387
 20
136.8976052382415105
 30
0.0
 40
0.6219817814451798
 50
251.0983696491568935
 51
257.1589770185012185
  0
ARC
  5
8C80
  8
0
 10
4060.3386757479179323
 20
137.6155579360045067
 30
0.0
 40
1.358230195427544
 50
257.181299300023511
 51
262.860085198539025
  0
ARC
  5
8C81
  8
0
 10
4060.3996501939759582
 20
138.0432475592805019
 30
0.0
 40
1.7901970792693009
 50
262.6250726903974169
 51
268.3066238504140983
  0
ARC
  5
8C82
  8
0
 10
4060.3841378209071991
 20
137.4514438582955052
 30
0.0
 40
1.198195067960556
 50
268.2118186868660814
 51
273.1073121163980204
  0
ARC
  5
8C83
  8
0
 10
4060.4247421764807768
 20
136.7558801142575078
 30
0.0
 40
0.5014610058827835
 50
272.782731934369906
 51
281.1618948940395057
  0
ARC
  5
8C84
  8
0
 10
4060.4781321572559136
 20
136.4593744795220118
 30
0.0
 40
0.2002915733912652
 50
282.5975225079167785
 51
289.6236932472227181
  0
ARC
  5
8C85
  8
0
 10
4060.2729365032200803
 20
135.5998025915494054
 30
0.0
 40
0.7644007406480997
 50
73.4543848047889156
 51
77.4486999469545054
  0
ARC
  5
8C86
  8
0
 10
4060.3858323249278328
 20
135.9798212385800014
 30
0.0
 40
0.3679670909031643
 50
66.0172882460719848
 51
73.4543848047889156
  0
ARC
  5
8C87
  8
0
 10
4060.4953817262721714
 20
136.2260731655354107
 30
0.0
 40
0.098446993574094
 50
49.5726315110365974
 51
66.0172882460719848
  0
ARC
  5
8C88
  8
0
 10
4060.5463619210067918
 20
136.2859167521318113
 30
0.0
 40
0.0198325221840245
 50
18.4479005475092706
 51
49.5726315110365974
  0
ARC
  5
8C89
  8
0
 10
4060.5551276378751027
 20
136.2890476522117069
 30
0.0
 40
0.010528338535192
 50
342.1030081791113275
 51
17.3802933235515198
  0
ARC
  5
8C8A
  8
0
 10
4060.2249781669052027
 20
135.4233262874529089
 30
0.0
 40
0.9447684585279651
 50
76.7370751371730648
 51
77.7649215314536946
  0
ARC
  5
8C8B
  8
0
 10
4060.2627485628631803
 20
135.5835693892319114
 30
0.0
 40
0.7801341532371905
 50
74.774701732108781
 51
76.7370751371730648
  0
ARC
  5
8C8C
  8
0
 10
4060.3237866501899589
 20
135.8078354604840001
 30
0.0
 40
0.5477101466899015
 50
72.44147947495712
 51
74.774701732108781
  0
ARC
  5
8C8D
  8
0
 10
4060.3766918405372053
 20
135.9750336307822067
 30
0.0
 40
0.3723414285081778
 50
67.9629620631753681
 51
72.44147947495712
  0
ARC
  5
8C8E
  8
0
 10
4060.4547031472548042
 20
136.1677596035187037
 30
0.0
 40
0.1644254249320013
 50
58.6824664343167797
 51
67.9629620631753681
  0
ARC
  5
8C8F
  8
0
 10
4060.5157255868111861
 20
136.2680547311464068
 30
0.0
 40
0.047025038411229
 50
40.1044111228238833
 51
58.6824664343167797
  0
ARC
  5
8C90
  8
0
 10
4060.5404325228478228
 20
136.288863154328709
 30
0.0
 40
0.0147229771198575
 50
14.3884587082844302
 51
40.1044111228238833
  0
ARC
  5
8C91
  8
0
 10
4060.5447686025568146
 20
136.2899755394093972
 30
0.0
 40
0.0102464843171468
 50
332.6205132429627724
 51
14.3884587082860094
  0
ARC
  5
8C92
  8
0
 10
4059.983087910085942
 20
136.3865539903831063
 30
0.0
 40
0.0710126302417475
 50
231.1976059574361955
 51
240.2779953040127907
  0
ARC
  5
8C93
  8
0
 10
4060.0313526297481985
 20
136.4710955919643141
 30
0.0
 40
0.1683613105718951
 50
240.2779953040127907
 51
248.4306634499749009
  0
ARC
  5
8C94
  8
0
 10
4060.1298172083988902
 20
136.7201781116598909
 30
0.0
 40
0.4361996477582334
 50
248.4306634499749009
 51
256.1169305190853152
  0
ARC
  5
8C95
  8
0
 10
4060.3312584219552264
 20
137.5351969733451085
 30
0.0
 40
1.2757437546529411
 50
256.1169305190853152
 51
259.6737194684051815
  0
ARC
  5
8C96
  8
0
 10
4060.3544147769139272
 20
137.6622867728314077
 30
0.0
 40
1.4049259279914481
 50
259.6737194684051815
 51
265.6050450209032761
  0
ARC
  5
8C97
  8
0
 10
4060.4595721531968593
 20
139.030503809175201
 30
0.0
 40
2.7771780667502401
 50
265.6050450209032761
 51
267.3116592527405828
  0
ARC
  5
8C98
  8
0
 10
4060.3793428078479337
 20
137.3218554291044029
 30
0.0
 40
1.0666471449093511
 50
267.3116592527405828
 51
273.2264208507178864
  0
ARC
  5
8C99
  8
0
 10
4060.4063355523148857
 20
136.8430166990067107
 30
0.0
 40
0.5870482106993494
 50
273.2264208507178864
 51
280.4241646047838117
  0
ARC
  5
8C9A
  8
0
 10
4060.4912781298799018
 20
136.3812978209348046
 30
0.0
 40
0.1175808914411658
 50
280.4241646047838117
 51
296.178245032594873
  0
ARC
  5
8C9B
  8
0
 10
4060.5312138180452166
 20
136.3000599358350939
 30
0.0
 40
0.0270576725158332
 50
296.178245032594873
 51
326.8486184728736248
  0
ARC
  5
8C9C
  8
0
 10
4060.2473355858119248
 20
136.4326348390492001
 30
0.0
 40
0.3655003237295675
 50
181.1133745486785074
 51
197.4317167439226921
  0
ARC
  5
8C9D
  8
0
 10
4060.7196545738711393
 20
136.4418141214445939
 30
0.0
 40
0.8379085007396021
 50
178.8866254513214926
 51
181.1133745486785074
  0
ARC
  5
8C9E
  8
0
 10
4059.8848939631070607
 20
136.4580372748060881
 30
0.0
 40
0.0029902604388242
 50
150.8745546769872021
 51
178.8866254513181957
  0
ARC
  5
8C9F
  8
0
 10
4059.8872184376032237
 20
136.4567421364494919
 30
0.0
 40
0.0056511935543076
 50
125.3151505387240974
 51
150.8745546769843884
  0
ARC
  5
8CA0
  8
0
 10
4059.8993100169827812
 20
136.4396741580816865
 30
0.0
 40
0.0265682243539219
 50
116.977497685501703
 51
125.3151505387250069
  0
ARC
  5
8CA1
  8
0
 10
4059.9196131623230031
 20
136.3894691990097101
 30
0.0
 40
0.0806564054783537
 50
102.5037305329302058
 51
113.6502854249661993
  0
ARC
  5
8CA2
  8
0
 10
4060.0516153633489012
 20
135.6985210975558118
 30
0.0
 40
0.7840714762771434
 50
93.3639490016856683
 51
100.985904480674094
  0
ARC
  5
8CA3
  8
0
 10
4060.235185645330148
 20
133.1165161081150075
 30
0.0
 40
3.3725485383427771
 50
90.2152172714956038
 51
93.9032926566808754
  0
ARC
  5
8CA4
  8
0
 10
4060.2560759991752093
 20
132.5962687968940088
 30
0.0
 40
3.8929167034382739
 50
86.945763029438595
 51
90.4939180713161164
  0
ARC
  5
8CA5
  8
0
 10
4060.4051353672889491
 20
135.2500652356644082
 30
0.0
 40
1.234970264376769
 50
81.4957530646626367
 51
87.2914060406428263
  0
ARC
  5
8CA6
  8
0
 10
4060.5593217369842023
 20
136.2937593277511041
 30
0.0
 40
0.1799597314784461
 50
72.3445738964300347
 51
80.9057044711979358
  0
ARC
  5
8CA7
  8
0
 10
4060.6011833639167889
 20
136.4294363992854926
 30
0.0
 40
0.0379979628438779
 50
57.0136361951521025
 51
70.4444683174840662
  0
ARC
  5
8CA8
  8
0
 10
4060.6194551991147819
 20
136.4575872235492966
 30
0.0
 40
0.0044371394294865
 50
6.5761128872938031
 51
57.0136361951529906
  0
LINE
  5
8CA9
  8
0
 10
4060.6238631448190972
 20
136.4580953780445896
 30
0.0
 11
4060.6238625555629369
 21
136.4254775260650092
 31
0.0
  0
ARC
  5
8CAA
  8
0
 10
4060.2528917248450853
 20
136.4333788866424868
 30
0.0
 40
0.3710549672792134
 50
342.654442255281424
 51
358.779833517553584
  0
ARC
  5
8CAB
  8
0
 10
4060.5531004811700768
 20
136.4504001576258077
 30
0.0
 40
0.1408702228080293
 50
279.1292558664047192
 51
283.5360533970858796
  0
ARC
  5
8CAC
  8
0
 10
4060.5459102199338304
 20
136.4802669452587054
 30
0.0
 40
0.171590327953623
 50
283.5360533970858796
 51
287.2132317990432853
  0
ARC
  5
8CAD
  8
0
 10
4060.5864225822251683
 20
136.3494995622777992
 30
0.0
 40
0.0346912412143695
 50
287.2132317990432853
 51
301.7209580862698886
  0
ARC
  5
8CAE
  8
0
 10
4060.6014016099247783
 20
136.3252662811347022
 30
0.0
 40
0.0062022400764871
 50
301.7209580862690927
 51
336.1132460499077865
  0
ARC
  5
8CAF
  8
0
 10
4059.9007375298560873
 20
136.3235983331327077
 30
0.0
 40
0.0021651112063854
 50
158.2554491481919001
 51
192.1596767916153965
  0
ARC
  5
8CB0
  8
0
 10
4059.9031022333410874
 20
136.3226551727871936
 30
0.0
 40
0.004710965484782
 50
146.79252497923801
 51
158.2554491482090953
  0
ARC
  5
8CB1
  8
0
 10
4059.903646179721818
 20
136.3222991228869887
 30
0.0
 40
0.0053610802416708
 50
122.814553145987702
 51
146.7925249792365889
  0
ARC
  5
8CB2
  8
0
 10
4059.9189128421357964
 20
136.2986231091232128
 30
0.0
 40
0.0335324239978589
 50
112.6213715138321021
 51
122.814553145987702
  0
ARC
  5
8CB3
  8
0
 10
4059.9264502119308418
 20
136.2805347613069102
 30
0.0
 40
0.0531283488330252
 50
103.5950768904520061
 51
112.6213715138321021
  0
ARC
  5
8CB4
  8
0
 10
4059.9961317744009648
 20
135.9923973790828882
 30
0.0
 40
0.3495717181013929
 50
98.7950136229230935
 51
103.5950768904520061
  0
ARC
  5
8CB5
  8
0
 10
4060.0388327988589481
 20
135.7164066716545108
 30
0.0
 40
0.62884622119208
 50
94.8602641581688886
 51
98.7950136229230935
  0
ARC
  5
8CB6
  8
0
 10
4060.3063787113869694
 20
132.5699798289317926
 30
0.0
 40
3.7866275137955481
 50
94.0167442605786334
 51
94.8602641581688886
  0
ARC
  5
8CB7
  8
0
 10
4060.2114715452889868
 20
133.8825587810329125
 30
0.0
 40
2.470626203506296
 50
90.0344805110985931
 51
93.9534216497696946
  0
ARC
  5
8CB8
  8
0
 10
4060.2227038323130728
 20
132.1356706330049917
 30
0.0
 40
4.218563130826043
 50
86.6740033145018458
 51
88.7220936822417627
  0
ARC
  5
8CB9
  8
0
 10
4060.3984842415597996
 20
135.1358996613543013
 30
0.0
 40
1.2131902816051019
 50
82.246629675996175
 51
86.7410684142966062
  0
ARC
  5
8CBA
  8
0
 10
4060.5391191620160498
 20
136.1458797746032019
 30
0.0
 40
0.1934952286501385
 50
72.0050437358218147
 51
83.1627147810601315
  0
ARC
  5
8CBB
  8
0
 10
4060.5921541413567866
 20
136.3091535614908025
 30
0.0
 40
0.0218239191125775
 50
52.1373642434164992
 51
72.0050437358218147
  0
ARC
  5
8CBC
  8
0
 10
4060.6026375307828857
 20
136.3226382007362929
 30
0.0
 40
0.0047436102904453
 50
22.0020787524702399
 51
52.1373642434164992
  0
ARC
  5
8CBD
  8
0
 10
4060.6047844323438767
 20
136.3235056958787936
 30
0.0
 40
0.0024280684251685
 50
350.0099037710984931
 51
22.0020787524883588
  0
ARC
  5
8CBE
  8
0
 10
4060.0870241716479541
 20
137.355567686768012
 30
0.0
 40
1.0563881948429481
 50
263.0000840355630203
 51
264.8057037888586933
  0
ARC
  5
8CBF
  8
0
 10
4060.0234723987027792
 20
136.8373543174182885
 30
0.0
 40
0.5342925017463973
 50
260.2861617781534846
 51
262.9919887731978747
  0
ARC
  5
8CC0
  8
0
 10
4059.9686836156029131
 20
136.5186191894497938
 30
0.0
 40
0.2108829076652642
 50
253.7877341538869871
 51
260.3469939267355926
  0
ARC
  5
8CC1
  8
0
 10
4059.9201532552110621
 20
136.351709972427301
 30
0.0
 40
0.0370614975719324
 50
242.40063111968621
 51
253.7877341538869871
  0
ARC
  5
8CC2
  8
0
 10
4059.9099576590911056
 20
136.3322070725546098
 30
0.0
 40
0.0150543786402051
 50
226.2673675368160957
 51
242.4006311196854142
  0
ARC
  5
8CC3
  8
0
 10
4059.9017006833460073
 20
136.3235764874818869
 30
0.0
 40
0.0031101479350453
 50
188.0252575732370133
 51
226.2673675367894077
  0
LINE
  5
8CC4
  8
0
 10
4060.2196405453642001
 20
136.3506180308970954
 30
0.0
 11
4060.2294300202188424
 21
136.3463124293446924
 31
0.0
  0
ARC
  5
8CC5
  8
0
 10
4060.2320495145750101
 20
136.3522682693883041
 30
0.0
 40
0.0065064415243248
 50
246.2591724160874094
 51
264.5401035988236913
  0
ARC
  5
8CC6
  8
0
 10
4060.2324097459240875
 20
136.3486615164823093
 30
0.0
 40
0.0030326431730248
 50
251.1601601889873905
 51
266.9087490036810095
  0
LINE
  5
8CC7
  8
0
 10
4060.232246206587206
 20
136.3456332860583871
 30
0.0
 11
4060.2598252905140725
 21
136.34292656939121
 31
0.0
  0
LINE
  5
8CC8
  8
0
 10
4060.2598252905140725
 20
136.34292656939121
 30
0.0
 11
4060.2641210683191275
 21
136.3425049653446877
 31
0.0
  0
ARC
  5
8CC9
  8
0
 10
4060.2881279181187892
 20
135.806493515760593
 30
0.0
 40
0.5365487889489446
 50
92.3112345779742753
 51
92.5644462497067622
  0
LINE
  5
8CCA
  8
0
 10
4060.2664901319189994
 20
136.3426058259447018
 30
0.0
 11
4060.2834801930621325
 21
136.3457489070054862
 31
0.0
  0
LINE
  5
8CCB
  8
0
 10
4060.2319000537190732
 20
136.3456157020447108
 30
0.0
 11
4060.2150840414187769
 21
136.3425070959447112
 31
0.0
  0
LINE
  5
8CCC
  8
0
 10
4060.2150840414187769
 20
136.3425070959447112
 30
0.0
 11
4060.2132548780191428
 21
136.3424312457445922
 31
0.0
  0
LINE
  5
8CCD
  8
0
 10
4060.2132548780191428
 20
136.3424312457445922
 30
0.0
 11
4060.2127154903191695
 21
136.3424064705446881
 31
0.0
  0
LINE
  5
8CCE
  8
0
 10
4060.2124332205899009
 20
136.3424338881108042
 30
0.0
 11
4060.2263094457189254
 21
136.336330854244693
 31
0.0
  0
LINE
  5
8CCF
  8
0
 10
4060.2263094457189254
 20
136.336330854244693
 30
0.0
 11
4060.2283098585558037
 21
136.3358097723410083
 31
0.0
  0
LINE
  5
8CD0
  8
0
 10
4060.2283098585558037
 20
136.3358097723410083
 30
0.0
 11
4060.261540394018084
 21
136.332548400644697
 31
0.0
  0
LINE
  5
8CD1
  8
0
 10
4060.261540394018084
 20
136.332548400644697
 30
0.0
 11
4060.2633695574190824
 21
136.3326242508445887
 31
0.0
  0
LINE
  5
8CD2
  8
0
 10
4060.2633695574190824
 20
136.3326242508445887
 30
0.0
 11
4060.2803583631530273
 21
136.3357647995188984
 31
0.0
  0
LINE
  5
8CD3
  8
0
 10
4060.2690503182247994
 20
136.340278375346287
 30
0.0
 11
4060.259420711518942
 21
136.3384981568447074
 31
0.0
  0
LINE
  5
8CD4
  8
0
 10
4060.259420711518942
 20
136.3384981568447074
 30
0.0
 11
4060.2318416276211792
 21
136.3412048735700068
 31
0.0
  0
LINE
  5
8CD5
  8
0
 10
4060.2318416276211792
 20
136.3412048735700068
 30
0.0
 11
4060.2247980760598693
 21
136.3443027645706991
 31
0.0
  0
LINE
  5
8CD6
  8
0
 10
4060.232246206587206
 20
136.3456332860583871
 30
0.0
 11
4060.2318416276211792
 21
136.3412048735700068
 31
0.0
  0
ARC
  5
8CD7
  8
0
 10
4060.225000192997868
 20
136.3418299058018022
 30
0.0
 40
0.0068699267098313
 50
298.8005056145685785
 51
354.7799589723088047
  0
LINE
  5
8CD8
  8
0
 10
4060.2598252905140725
 20
136.34292656939121
 30
0.0
 11
4060.2593909557908773
 21
136.3385010771856116
 31
0.0
  0
ARC
  5
8CD9
  8
0
 10
4060.2667171213770416
 20
136.3377820592878891
 30
0.0
 40
0.0073613646108358
 50
174.3947242325371008
 51
225.3133303452848111
  0
ARC
  5
8CDA
  8
0
 10
4060.2307562677838177
 20
136.3488122311553923
 30
0.0
 40
0.0030951958362414
 50
282.5804424868330784
 51
317.0787695150845025
  0
ARC
  5
8CDB
  8
0
 10
4060.2277060608280408
 20
136.3516487653004106
 30
0.0
 40
0.0072604915547683
 50
317.0787695150833088
 51
353.132206045958128
  0
LINE
  5
8CDC
  8
0
 10
4060.2387322961922109
 20
136.3508164371081079
 30
0.0
 11
4060.2625412860270444
 21
136.3484797320346047
 31
0.0
  0
LINE
  5
8CDD
  8
0
 10
4060.2625412860270444
 20
136.3484797320346047
 30
0.0
 11
4060.2721106074191084
 21
136.3502488054446928
 31
0.0
  0
LINE
  5
8CDE
  8
0
 10
4060.2627515240201319
 20
136.3509849379520062
 30
0.0
 11
4060.2625412857069023
 21
136.3484797319752886
 31
0.0
  0
ARC
  5
8CDF
  8
0
 10
4060.2701573243898565
 20
136.347840589668607
 30
0.0
 40
0.0076428102228498
 50
175.202945801910289
 51
224.0153408320570918
  0
LINE
  5
8CE0
  8
0
 10
4060.2101343036188155
 20
136.3324496706447064
 30
0.0
 11
4060.2251892841190966
 21
136.3258281972447037
 31
0.0
  0
LINE
  5
8CE1
  8
0
 10
4060.2251892841190966
 20
136.3258281972447037
 30
0.0
 11
4060.2584198195181671
 21
136.3225668255446976
 31
0.0
  0
LINE
  5
8CE2
  8
0
 10
4060.2584198195181671
 20
136.3225668255446976
 30
0.0
 11
4060.2765953745188199
 21
136.3259269272446943
 31
0.0
  0
LINE
  5
8CE3
  8
0
 10
4060.226042463585145
 20
136.3257444629524002
 30
0.0
 11
4060.2255954567040135
 21
136.3211887164368079
 31
0.0
  0
ARC
  5
8CE4
  8
0
 10
4060.2187720153769988
 20
136.3218582280553903
 30
0.0
 40
0.0068562086715358
 50
298.7398479328883809
 51
354.3961131268276858
  0
LINE
  5
8CE5
  8
0
 10
4060.2185569272201064
 20
136.3243396144002872
 30
0.0
 11
4060.2256004786190715
 21
136.321241723344599
 31
0.0
  0
LINE
  5
8CE6
  8
0
 10
4060.2256004786190715
 20
136.321241723344599
 30
0.0
 11
4060.2531795625181985
 21
136.3185350067446961
 31
0.0
  0
LINE
  5
8CE7
  8
0
 10
4060.2531795625181985
 20
136.3185350067446961
 30
0.0
 11
4060.263323151728855
 21
136.3204102446983086
 31
0.0
  0
LINE
  5
8CE8
  8
0
 10
4060.2060484272487884
 20
136.3225628339212108
 30
0.0
 11
4060.2200682967190914
 21
136.3163677041447102
 31
0.0
  0
LINE
  5
8CE9
  8
0
 10
4060.2200682967190914
 20
136.3163677041447102
 30
0.0
 11
4060.2220687096191796
 21
136.3158466222446918
 31
0.0
  0
LINE
  5
8CEA
  8
0
 10
4060.2220687096191796
 20
136.3158466222446918
 30
0.0
 11
4060.2228844830870003
 21
136.3156885608584048
 31
0.0
  0
LINE
  5
8CEB
  8
0
 10
4060.2228844830870003
 20
136.3156885608584048
 30
0.0
 11
4060.2547593448189218
 21
136.3125602401447054
 31
0.0
  0
LINE
  5
8CEC
  8
0
 10
4060.2547593448189218
 20
136.3125602401447054
 30
0.0
 11
4060.2552992450368947
 21
136.3125852505123135
 31
0.0
  0
ARC
  5
8CED
  8
0
 10
4060.2559435070688778
 20
136.3191483807565874
 30
0.0
 40
0.0065946760473923
 50
264.3935885775014754
 51
275.8285156926580157
  0
LINE
  5
8CEE
  8
0
 10
4060.2566132058500443
 20
136.312587797267696
 30
0.0
 11
4060.2743258321288522
 21
136.3158397317465074
 31
0.0
  0
LINE
  5
8CEF
  8
0
 10
4060.2150162013658701
 20
136.3145428300406934
 30
0.0
 11
4060.2224799041191545
 21
136.3112601483447008
 31
0.0
  0
LINE
  5
8CF0
  8
0
 10
4060.2224799041191545
 20
136.3112601483447008
 30
0.0
 11
4060.250058988019191
 21
136.3085534316446967
 31
0.0
  0
LINE
  5
8CF1
  8
0
 10
4060.250058988019191
 20
136.3085534316446967
 30
0.0
 11
4060.2596283095190302
 21
136.3103225051445975
 31
0.0
  0
LINE
  5
8CF2
  8
0
 10
4060.2028432159459044
 20
136.3125895654007991
 30
0.0
 11
4060.2169477222191745
 21
136.3063861290447107
 31
0.0
  0
LINE
  5
8CF3
  8
0
 10
4060.2169477222191745
 20
136.3063861290447107
 30
0.0
 11
4060.2189481351178983
 21
136.3058650471446924
 31
0.0
  0
LINE
  5
8CF4
  8
0
 10
4060.2189481351178983
 20
136.3058650471446924
 30
0.0
 11
4060.2194085403179997
 21
136.3057422455447067
 31
0.0
  0
LINE
  5
8CF5
  8
0
 10
4060.2194085403179997
 20
136.3057422455447067
 30
0.0
 11
4060.2516387703190048
 21
136.3025786651446936
 31
0.0
  0
LINE
  5
8CF6
  8
0
 10
4060.2516387703190048
 20
136.3025786651446936
 30
0.0
 11
4060.2521786705369777
 21
136.302603675412314
 31
0.0
  0
ARC
  5
8CF7
  8
0
 10
4060.252823616518981
 20
136.3091807888447988
 30
0.0
 40
0.0066086592001014
 50
264.3995308578967069
 51
270.5209713618907017
  0
ARC
  5
8CF8
  8
0
 10
4060.2528271510232116
 20
136.3090878738670142
 30
0.0
 40
0.0065157164807125
 50
270.4973210987780021
 51
280.4410515096939207
  0
LINE
  5
8CF9
  8
0
 10
4060.2540079540021907
 20
136.302680045406305
 30
0.0
 11
4060.2710474499358497
 21
136.3058294604859952
 31
0.0
  0
LINE
  5
8CFA
  8
0
 10
4060.2565077350191132
 20
136.3003409301446993
 30
0.0
 11
4060.2469384135188193
 21
136.2985718566447133
 31
0.0
  0
LINE
  5
8CFB
  8
0
 10
4060.2469384135188193
 20
136.2985718566447133
 30
0.0
 11
4060.2193593296187828
 21
136.3012785732447014
 31
0.0
  0
LINE
  5
8CFC
  8
0
 10
4060.2193593296187828
 20
136.3012785732447014
 30
0.0
 11
4060.2123157781188638
 21
136.3043764642447115
 31
0.0
  0
LINE
  5
8CFD
  8
0
 10
4060.1999509227648559
 20
136.3025075877316965
 30
0.0
 11
4060.2138271477188027
 21
136.2964045540446989
 31
0.0
  0
LINE
  5
8CFE
  8
0
 10
4060.2138271477188027
 20
136.2964045540446989
 30
0.0
 11
4060.2158275606188909
 21
136.295883472044693
 31
0.0
  0
LINE
  5
8CFF
  8
0
 10
4060.2158275606188909
 20
136.295883472044693
 30
0.0
 11
4060.2162874738191931
 21
136.2957603362447117
 31
0.0
  0
LINE
  5
8D00
  8
0
 10
4060.2162874738191931
 20
136.2957603362447117
 30
0.0
 11
4060.2485180077810583
 21
136.2925974191614955
 31
0.0
  0
LINE
  5
8D01
  8
0
 10
4060.2485180077810583
 20
136.2925974191614955
 30
0.0
 11
4060.2490580961180058
 21
136.2926221003446869
 31
0.0
  0
ARC
  5
8D02
  8
0
 10
4060.2497020380910726
 20
136.2991725952489901
 30
0.0
 40
0.0065820699445168
 50
264.3856160855780217
 51
278.0480949622121898
  0
LINE
  5
8D03
  8
0
 10
4060.250623556174105
 20
136.2926553527969986
 30
0.0
 11
4060.2678870264949182
 21
136.2958404593613864
 31
0.0
  0
LINE
  5
8D04
  8
0
 10
4060.2091952036189468
 20
136.2943948891445984
 30
0.0
 11
4060.2162387551188658
 21
136.291296998144702
 31
0.0
  0
LINE
  5
8D05
  8
0
 10
4060.2162387551188658
 20
136.291296998144702
 30
0.0
 11
4060.2438178390179928
 21
136.2885902815447139
 31
0.0
  0
LINE
  5
8D06
  8
0
 10
4060.2438178390179928
 20
136.2885902815447139
 30
0.0
 11
4060.2533871604478009
 21
136.2903593550317112
 31
0.0
  0
LINE
  5
8D07
  8
0
 10
4060.1968303058802121
 20
136.2925260202356128
 30
0.0
 11
4060.2107067686188202
 21
136.286423506244688
 31
0.0
  0
LINE
  5
8D08
  8
0
 10
4060.2107067686188202
 20
136.286423506244688
 30
0.0
 11
4060.2131673913190753
 21
136.2857790953445942
 31
0.0
  0
LINE
  5
8D09
  8
0
 10
4060.2131673913190753
 20
136.2857790953445942
 30
0.0
 11
4060.2453974332811413
 21
136.2826158441615121
 31
0.0
  0
LINE
  5
8D0A
  8
0
 10
4060.2453974332811413
 20
136.2826158441615121
 30
0.0
 11
4060.2459375216189983
 21
136.2826405253445898
 31
0.0
  0
ARC
  5
8D0B
  8
0
 10
4060.2465820564689238
 20
136.2892098892683066
 30
0.0
 40
0.0066009065691793
 50
264.3965179139627253
 51
274.6524854519095129
  0
LINE
  5
8D0C
  8
0
 10
4060.2471174690967928
 20
136.2826307327225095
 30
0.0
 11
4060.2647661499718197
 21
136.2858585336691135
 31
0.0
  0
LINE
  5
8D0D
  8
0
 10
4060.2638393112652011
 20
136.3425326180584136
 30
0.0
 11
4060.2777155362168742
 21
136.3364295842820013
 31
0.0
  0
ARC
  5
8D0E
  8
0
 10
4060.2803350305739514
 20
136.342385424325613
 30
0.0
 40
0.0065064415243248
 50
246.2591724160874094
 51
264.5401035988236913
  0
ARC
  5
8D0F
  8
0
 10
4060.2806952619230287
 20
136.3387786714195897
 30
0.0
 40
0.0030326431730248
 50
251.1601601889873905
 51
266.9087490036810095
  0
LINE
  5
8D10
  8
0
 10
4060.280531722584783
 20
136.335750440995696
 30
0.0
 11
4060.3081108065130138
 21
136.3330437243284905
 31
0.0
  0
LINE
  5
8D11
  8
0
 10
4060.3081108065130138
 20
136.3330437243284905
 30
0.0
 11
4060.3124065843180688
 21
136.3326221202819966
 31
0.0
  0
ARC
  5
8D12
  8
0
 10
4060.3364134341181853
 20
135.7966106706979019
 30
0.0
 40
0.5365487889489446
 50
92.3112345779742753
 51
92.5644462497067622
  0
LINE
  5
8D13
  8
0
 10
4060.3147756479179407
 20
136.3327229808820107
 30
0.0
 11
4060.3317757020008685
 21
136.3358679105895988
 31
0.0
  0
LINE
  5
8D14
  8
0
 10
4060.2803583630261528
 20
136.3357647995331092
 30
0.0
 11
4060.2633695574168087
 21
136.3326242508819917
 31
0.0
  0
LINE
  5
8D15
  8
0
 10
4060.2633695574168087
 20
136.3326242508819917
 30
0.0
 11
4060.261540394018084
 21
136.3325484006819863
 31
0.0
  0
LINE
  5
8D16
  8
0
 10
4060.261540394018084
 20
136.3325484006819863
 30
0.0
 11
4060.2615403856489138
 21
136.3325484002976111
 31
0.0
  0
LINE
  5
8D17
  8
0
 10
4060.2604904551831169
 20
136.3326514456529992
 30
0.0
 11
4060.2745949617169572
 21
136.3264480091820019
 31
0.0
  0
LINE
  5
8D18
  8
0
 10
4060.2745949617169572
 20
136.3264480091820019
 30
0.0
 11
4060.2765953745551997
 21
136.3259269272782888
 31
0.0
  0
LINE
  5
8D19
  8
0
 10
4060.2765953745551997
 20
136.3259269272782888
 30
0.0
 11
4060.3098259100170253
 21
136.3226655555820059
 31
0.0
  0
LINE
  5
8D1A
  8
0
 10
4060.3098259100170253
 20
136.3226655555820059
 30
0.0
 11
4060.3116550734180237
 21
136.3227414057820113
 31
0.0
  0
LINE
  5
8D1B
  8
0
 10
4060.3116550734180237
 20
136.3227414057820113
 30
0.0
 11
4060.3285826611740958
 21
136.3258706377081069
 31
0.0
  0
LINE
  5
8D1C
  8
0
 10
4060.3172755489172232
 20
136.3303843853819899
 30
0.0
 11
4060.3077062275178832
 21
136.3286153117819879
 31
0.0
  0
LINE
  5
8D1D
  8
0
 10
4060.3077062275178832
 20
136.3286153117819879
 30
0.0
 11
4060.280127143619211
 21
136.3313220285072873
 31
0.0
  0
LINE
  5
8D1E
  8
0
 10
4060.280127143619211
 20
136.3313220285072873
 30
0.0
 11
4060.2730835920588106
 21
136.334419919508008
 31
0.0
  0
LINE
  5
8D1F
  8
0
 10
4060.280531722584783
 20
136.335750440995696
 30
0.0
 11
4060.280127143619211
 21
136.3313220285072873
 31
0.0
  0
ARC
  5
8D20
  8
0
 10
4060.2732857089968093
 20
136.3319470607391111
 30
0.0
 40
0.0068699267098313
 50
298.8005056145685785
 51
354.7799589723088047
  0
LINE
  5
8D21
  8
0
 10
4060.3081108065130138
 20
136.3330437243284905
 30
0.0
 11
4060.3076764717889091
 21
136.3286182321228921
 31
0.0
  0
ARC
  5
8D22
  8
0
 10
4060.3150026373759829
 20
136.327899214225198
 30
0.0
 40
0.0073613646108358
 50
174.3947242325371008
 51
225.3133303452848111
  0
ARC
  5
8D23
  8
0
 10
4060.2790417837818495
 20
136.3389293860927012
 30
0.0
 40
0.0030951958362414
 50
282.5804424868330784
 51
317.0787695150845025
  0
ARC
  5
8D24
  8
0
 10
4060.275921428458787
 20
136.3418130719749115
 30
0.0
 40
0.0073439824522581
 50
317.1820779259264214
 51
356.0220690827862882
  0
LINE
  5
8D25
  8
0
 10
4060.283247718119128
 20
136.3413036035447021
 30
0.0
 11
4060.3108268020259857
 21
136.3385968869719136
 31
0.0
  0
LINE
  5
8D26
  8
0
 10
4060.3108268020259857
 20
136.3385968869719136
 30
0.0
 11
4060.3203961234180497
 21
136.3403659603820017
 31
0.0
  0
LINE
  5
8D27
  8
0
 10
4060.3111987057350234
 20
136.3430285063545
 30
0.0
 11
4060.3108268017058435
 21
136.3385968869125975
 31
0.0
  0
ARC
  5
8D28
  8
0
 10
4060.3184428403878883
 20
136.3379577446058875
 30
0.0
 40
0.0076428102228498
 50
175.202945801910289
 51
224.0153408320570918
  0
LINE
  5
8D29
  8
0
 10
4060.2584198196168472
 20
136.3225668255819869
 30
0.0
 11
4060.2734748001180378
 21
136.3159453521820126
 31
0.0
  0
LINE
  5
8D2A
  8
0
 10
4060.2734748001180378
 20
136.3159453521820126
 30
0.0
 11
4060.3067053355180178
 21
136.3126839804820065
 31
0.0
  0
LINE
  5
8D2B
  8
0
 10
4060.3067053355180178
 20
136.3126839804820065
 30
0.0
 11
4060.3248808905182159
 21
136.3160440821820032
 31
0.0
  0
LINE
  5
8D2C
  8
0
 10
4060.2743279795831768
 20
136.3158616178897091
 30
0.0
 11
4060.2738809727029548
 21
136.3113058713740884
 31
0.0
  0
ARC
  5
8D2D
  8
0
 10
4060.2670575313750305
 20
136.3119753829926992
 30
0.0
 40
0.0068562086715358
 50
298.7398479328883809
 51
354.3961131268276858
  0
LINE
  5
8D2E
  8
0
 10
4060.2668424432181382
 20
136.3144567693375961
 30
0.0
 11
4060.2738859946171033
 21
136.3113588782819932
 31
0.0
  0
LINE
  5
8D2F
  8
0
 10
4060.2738859946171033
 20
136.3113588782819932
 30
0.0
 11
4060.3014650785180493
 21
136.308652161682005
 31
0.0
  0
LINE
  5
8D30
  8
0
 10
4060.3014650785180493
 20
136.308652161682005
 30
0.0
 11
4060.3110344000501755
 21
136.3104212351879028
 31
0.0
  0
LINE
  5
8D31
  8
0
 10
4060.2545608546488438
 20
136.3125797207655125
 30
0.0
 11
4060.2683538127180327
 21
136.3064848590819906
 31
0.0
  0
LINE
  5
8D32
  8
0
 10
4060.2683538127180327
 20
136.3064848590819906
 30
0.0
 11
4060.2703542256172113
 21
136.3059637771820007
 31
0.0
  0
LINE
  5
8D33
  8
0
 10
4060.2703542256172113
 20
136.3059637771820007
 30
0.0
 11
4060.2711699990859415
 21
136.3058057157957137
 31
0.0
  0
LINE
  5
8D34
  8
0
 10
4060.2711699990859415
 20
136.3058057157957137
 30
0.0
 11
4060.3030448608178631
 21
136.3026773950819859
 31
0.0
  0
LINE
  5
8D35
  8
0
 10
4060.3030448608178631
 20
136.3026773950819859
 30
0.0
 11
4060.303584761035836
 21
136.3027024054497076
 31
0.0
  0
ARC
  5
8D36
  8
0
 10
4060.3042290230678191
 20
136.3092655356938963
 30
0.0
 40
0.0065946760473923
 50
264.3935885775014754
 51
275.8285156926318109
  0
LINE
  5
8D37
  8
0
 10
4060.3048987218480761
 20
136.3027049522050902
 30
0.0
 11
4060.3224284090451874
 21
136.3059233001391135
 31
0.0
  0
LINE
  5
8D38
  8
0
 10
4060.2637218686509186
 20
136.3044751942672974
 30
0.0
 11
4060.2707654201171863
 21
136.3013773032820097
 31
0.0
  0
LINE
  5
8D39
  8
0
 10
4060.2707654201171863
 20
136.3013773032820097
 30
0.0
 11
4060.2983445040181323
 21
136.2986705865820056
 31
0.0
  0
LINE
  5
8D3A
  8
0
 10
4060.2983445040181323
 20
136.2986705865820056
 30
0.0
 11
4060.3079138255179714
 21
136.3004396600819916
 31
0.0
  0
LINE
  5
8D3B
  8
0
 10
4060.2513570130099652
 20
136.3026063178826064
 30
0.0
 11
4060.2652332382181157
 21
136.2965032839819912
 31
0.0
  0
LINE
  5
8D3C
  8
0
 10
4060.2652332382181157
 20
136.2965032839819912
 30
0.0
 11
4060.2672336511168396
 21
136.2959822020820013
 31
0.0
  0
LINE
  5
8D3D
  8
0
 10
4060.2672336511168396
 20
136.2959822020820013
 30
0.0
 11
4060.267694056316941
 21
136.2958594004819872
 31
0.0
  0
LINE
  5
8D3E
  8
0
 10
4060.267694056316941
 20
136.2958594004819872
 30
0.0
 11
4060.2999242863179461
 21
136.2926958200820025
 31
0.0
  0
LINE
  5
8D3F
  8
0
 10
4060.2999242863179461
 20
136.2926958200820025
 30
0.0
 11
4060.3004641865350095
 21
136.2927208303497082
 31
0.0
  0
ARC
  5
8D40
  8
0
 10
4060.3011091325179223
 20
136.2992979437821077
 30
0.0
 40
0.0066086592001014
 50
264.3995308578967069
 51
270.5209713618907017
  0
ARC
  5
8D41
  8
0
 10
4060.3011126670221529
 20
136.2992050288042947
 30
0.0
 40
0.0065157164807125
 50
270.4973210987780021
 51
280.4410515096939207
  0
LINE
  5
8D42
  8
0
 10
4060.3022934700011319
 20
136.2927972003436139
 30
0.0
 11
4060.3192772174688798
 21
136.2959363114177052
 31
0.0
  0
LINE
  5
8D43
  8
0
 10
4060.3047932510180544
 20
136.2904580850820082
 30
0.0
 11
4060.2952239295168511
 21
136.2886890115819938
 31
0.0
  0
LINE
  5
8D44
  8
0
 10
4060.2952239295168511
 20
136.2886890115819938
 30
0.0
 11
4060.2676448456181788
 21
136.2913957281820103
 31
0.0
  0
LINE
  5
8D45
  8
0
 10
4060.2676448456181788
 20
136.2913957281820103
 30
0.0
 11
4060.2606012941178051
 21
136.294493619181992
 31
0.0
  0
LINE
  5
8D46
  8
0
 10
4060.248236438503227
 20
136.2926247427841986
 30
0.0
 11
4060.2621126637181987
 21
136.2865217089820078
 31
0.0
  0
LINE
  5
8D47
  8
0
 10
4060.2621126637181987
 20
136.2865217089820078
 30
0.0
 11
4060.2641130766178321
 21
136.2860006269820019
 31
0.0
  0
LINE
  5
8D48
  8
0
 10
4060.2641130766178321
 20
136.2860006269820019
 30
0.0
 11
4060.2645729898181344
 21
136.2858774911819921
 31
0.0
  0
LINE
  5
8D49
  8
0
 10
4060.2645691303559943
 20
136.2858778699363995
 30
0.0
 11
4060.29680352377909
 21
136.2827145740988044
 31
0.0
  0
LINE
  5
8D4A
  8
0
 10
4060.29680352377909
 20
136.2827145740988044
 30
0.0
 11
4060.2973436121178565
 21
136.2827392552819958
 31
0.0
  0
ARC
  5
8D4B
  8
0
 10
4060.2979875540891044
 20
136.289289750186299
 30
0.0
 40
0.0065820699445168
 50
264.3856160855780217
 51
278.0480949622121898
  0
LINE
  5
8D4C
  8
0
 10
4060.2989090721721368
 20
136.2827725077343075
 30
0.0
 11
4060.315988787716833
 21
136.2859237115820008
 31
0.0
  0
LINE
  5
8D4D
  8
0
 10
4060.2574807196169786
 20
136.2845120440819926
 30
0.0
 11
4060.2645242711178071
 21
136.2814141530820109
 31
0.0
  0
LINE
  5
8D4E
  8
0
 10
4060.2645242711178071
 20
136.2814141530820109
 30
0.0
 11
4060.2921033550178436
 21
136.2787074364819944
 31
0.0
  0
LINE
  5
8D4F
  8
0
 10
4060.2921033550178436
 20
136.2787074364819944
 30
0.0
 11
4060.3016726764471969
 21
136.2804765099689916
 31
0.0
  0
LINE
  5
8D50
  8
0
 10
4060.2451158316989677
 20
136.2826431708546977
 30
0.0
 11
4060.2589922846182162
 21
136.2765406611819969
 31
0.0
  0
LINE
  5
8D51
  8
0
 10
4060.2589922846182162
 20
136.2765406611819969
 30
0.0
 11
4060.2614529073180165
 21
136.2758962502819884
 31
0.0
  0
LINE
  5
8D52
  8
0
 10
4060.2614529073180165
 20
136.2758962502819884
 30
0.0
 11
4060.293682949279173
 21
136.2727329990989062
 31
0.0
  0
LINE
  5
8D53
  8
0
 10
4060.293682949279173
 20
136.2727329990989062
 30
0.0
 11
4060.2942230376179396
 21
136.2727576802820124
 31
0.0
  0
ARC
  5
8D54
  8
0
 10
4060.2948675724678651
 20
136.2793270442055871
 30
0.0
 40
0.0066009065691793
 50
264.3965179139627253
 51
274.6524854519095129
  0
LINE
  5
8D55
  8
0
 10
4060.2954029850948245
 20
136.27274788765979
 30
0.0
 11
4060.3128682132178255
 21
136.275942136581989
 31
0.0
  0
LINE
  5
8D56
  8
0
 10
4060.2762019548658827
 20
136.3444024673169963
 30
0.0
 11
4060.283247718119128
 21
136.3413036035447021
 31
0.0
  0
LINE
  5
8D57
  8
0
 10
4060.2832477175152235
 20
136.3413035969344946
 30
0.0
 11
4060.2836522971388149
 21
136.3457320160541997
 31
0.0
  0
LINE
  5
8D58
  8
0
 10
4060.2704748871528864
 20
136.3509979256060092
 30
0.0
 11
4060.2721106074191084
 21
136.3502488054446928
 31
0.0
  0
LINE
  5
8D59
  8
0
 10
4060.2721106074191084
 20
136.3502488054446928
 30
0.0
 11
4060.2814932575429339
 21
136.3461643820969869
 31
0.0
  0
ARC
  5
8D5A
  8
0
 10
4060.283484449619209
 20
136.3524890912675005
 30
0.0
 40
0.0066307459589059
 50
252.5245669595938978
 51
264.3923704076821082
  0
ARC
  5
8D5B
  8
0
 10
4060.2839503850509573
 20
136.3494307555575915
 30
0.0
 40
0.0037117501623326
 50
252.5369509765230021
 51
262.7224108338347719
  0
LINE
  5
8D5C
  8
0
 10
4060.2834801930621325
 20
136.3457489070054862
 30
0.0
 11
4060.2836522971388149
 21
136.3457320160541997
 31
0.0
  0
LINE
  5
8D5D
  8
0
 10
4060.2836522971388149
 20
136.3457320160541997
 30
0.0
 11
4060.3155271588188953
 21
136.3426036954446943
 31
0.0
  0
LINE
  5
8D5E
  8
0
 10
4060.3155271588188953
 20
136.3426036954446943
 30
0.0
 11
4060.3178962224192219
 21
136.3427045559446924
 31
0.0
  0
LINE
  5
8D5F
  8
0
 10
4060.3178962224192219
 20
136.3427045559446924
 30
0.0
 11
4060.3347122347190634
 21
136.345813162044692
 31
0.0
  0
LINE
  5
8D60
  8
0
 10
4060.3232254079089216
 20
136.3504337403105069
 30
0.0
 11
4060.3139473765218099
 21
136.3485784619803951
 31
0.0
  0
LINE
  5
8D61
  8
0
 10
4060.3139473765218099
 20
136.3485784619803951
 30
0.0
 11
4060.290370195360083
 21
136.3509189312165972
 31
0.0
  0
ARC
  5
8D62
  8
0
 10
4060.2798718764338446
 20
136.3516888410302101
 30
0.0
 40
0.0065126639295384
 50
297.0786181189648119
 51
353.4682780206030088
  0
LINE
  5
8D63
  8
0
 10
4060.3141564498259868
 20
136.3506118290347047
 30
0.0
 11
4060.3139473765218099
 21
136.3485784619803951
 31
0.0
  0
ARC
  5
8D64
  8
0
 10
4060.3204127452358989
 20
136.3475293724787036
 30
0.0
 40
0.0065499254340933
 50
170.7839055909952037
 51
228.4348611174929999
  0
LINE
  5
8D65
  8
0
 10
4060.269595907745952
 20
136.3246329408875113
 30
0.0
 11
4060.2770065691179298
 21
136.3213404533445896
 31
0.0
  0
LINE
  5
8D66
  8
0
 10
4060.2770065691179298
 20
136.3213404533445896
 30
0.0
 11
4060.3045856530179663
 21
136.3186337367446868
 31
0.0
  0
LINE
  5
8D67
  8
0
 10
4060.3045856530179663
 20
136.3186337367446868
 30
0.0
 11
4060.3141549744191252
 21
136.3204028102447012
 31
0.0
  0
LINE
  5
8D68
  8
0
 10
4060.3049910615268345
 20
136.3231400660828001
 30
0.0
 11
4060.3045491448128814
 21
136.3186373197993078
 31
0.0
  0
ARC
  5
8D69
  8
0
 10
4060.3118638299970371
 20
136.3179194286655047
 30
0.0
 40
0.0073498290467963
 50
174.3947244909973051
 51
225.4241907540128977
  0
ARC
  5
8D6A
  8
0
 10
4060.2676770425741779
 20
136.3236289025458063
 30
0.0
 40
0.0096255359176988
 50
307.037019532046827
 51
346.1972050473140143
  0
LINE
  5
8D6B
  8
0
 10
4060.277024618453197
 20
136.3213324341942894
 30
0.0
 11
4060.277403193659211
 21
136.3258476448253873
 31
0.0
  0
LINE
  5
8D6C
  8
0
 10
4060.2372259073190435
 20
136.2834175182447041
 30
0.0
 11
4060.236839222504841
 21
136.2778954730422072
 31
0.0
  0
ARC
  5
8D6D
  8
0
 10
4060.2431022562877843
 20
136.2790814351654092
 30
0.0
 40
0.0063743312059441
 50
190.7225186963675867
 51
269.7790763814446109
  0
ARC
  5
8D6E
  8
0
 10
4060.2437869303857951
 20
136.2777090629458883
 30
0.0
 40
0.0050519460338079
 50
261.929473674014389
 51
282.773364170066202
  0
LINE
  5
8D6F
  8
0
 10
4060.2449038911190655
 20
136.2727821412445905
 30
0.0
 11
4060.2615672245078713
 21
136.2758846482325055
 31
0.0
  0
ARC
  5
8D70
  8
0
 10
4060.2599109291340937
 20
136.2798382673705078
 30
0.0
 40
0.0039694088488847
 50
285.8117217152897069
 51
335.9990522087841214
  0
ARC
  5
8D71
  8
0
 10
4060.2506700963349431
 20
136.2839527343743953
 30
0.0
 40
0.0140848341757003
 50
335.9990522087811087
 51
349.6165468336783988
  0
LINE
  5
8D72
  8
0
 10
4060.2645242711128049
 20
136.2814141530824088
 30
0.0
 11
4060.2649288500861076
 21
136.2858425656584132
 31
0.0
  0
ARC
  5
8D73
  8
0
 10
4060.2635762939457891
 20
136.2886560611246125
 30
0.0
 40
0.0027091494854721
 50
281.4282531331065798
 51
308.973283844327625
  0
ARC
  5
8D74
  8
0
 10
4060.2618065977321749
 20
136.2908435387093107
 30
0.0
 40
0.0055228450752697
 50
308.9732838443266019
 51
332.0648380172693805
  0
ARC
  5
8D75
  8
0
 10
4060.2590521391648508
 20
136.2923041144294132
 30
0.0
 40
0.0086405884002172
 50
332.0648380172680163
 51
353.965335677175915
  0
LINE
  5
8D76
  8
0
 10
4060.2676448455090394
 20
136.2913957281924979
 30
0.0
 11
4060.2680496433190456
 21
136.2958265349446947
 31
0.0
  0
ARC
  5
8D77
  8
0
 10
4060.2666982328360064
 20
136.2986182901009045
 30
0.0
 40
0.0026899160194571
 50
281.4813398294822946
 51
306.5519871264962148
  0
ARC
  5
8D78
  8
0
 10
4060.2652851703651322
 20
136.3005243151077082
 30
0.0
 40
0.0050626100311257
 50
306.5519871264962148
 51
331.635508643387027
  0
ARC
  5
8D79
  8
0
 10
4060.2617883004750183
 20
136.3024122658038095
 30
0.0
 40
0.009036582459466
 50
331.6355086433912902
 51
353.423465706153479
  0
LINE
  5
8D7A
  8
0
 10
4060.2707654200098659
 20
136.301377303292611
 30
0.0
 11
4060.2711699990859415
 21
136.3058057157957137
 31
0.0
  0
LINE
  5
8D7B
  8
0
 10
4060.3018832817829207
 20
136.3131572352579894
 30
0.0
 11
4060.30146507852578
 21
136.3086521617190954
 31
0.0
  0
ARC
  5
8D7C
  8
0
 10
4060.3089300357951288
 20
136.3079591942423008
 30
0.0
 40
0.0074970521513574
 50
174.6964665677944026
 51
224.5218141629505908
  0
LINE
  5
8D7D
  8
0
 10
4060.2987490830169008
 20
136.3030989991281103
 30
0.0
 11
4060.2983445042391395
 21
136.2986705866229897
 31
0.0
  0
ARC
  5
8D7E
  8
0
 10
4060.3058339696558505
 20
136.2979863507347034
 30
0.0
 40
0.0075206562862048
 50
174.7799613979472042
 51
224.4383234429764116
  0
LINE
  5
8D7F
  8
0
 10
4060.2956285131331242
 20
136.2931174746543945
 30
0.0
 11
4060.295194173470918
 21
136.2886919319167873
 31
0.0
  0
ARC
  5
8D80
  8
0
 10
4060.3025203431261616
 20
136.2879729136531068
 30
0.0
 40
0.0073613686959652
 50
174.3947244909988967
 51
225.3132963656761092
  0
LINE
  5
8D81
  8
0
 10
4060.2925079340138836
 20
136.2831358489912077
 30
0.0
 11
4060.2920735992947812
 21
136.2787103567850977
 31
0.0
  0
ARC
  5
8D82
  8
0
 10
4060.2993972635390492
 20
136.2779915843854894
 30
0.0
 40
0.0073588512504948
 50
174.3947242852050863
 51
225.3374290509422053
  0
LINE
  5
8D83
  8
0
 10
4060.2935510073680234
 20
136.2727456376825046
 30
0.0
 11
4060.3025481700187811
 21
136.2687373864447125
 31
0.0
  0
ARC
  5
8D84
  8
0
 10
4060.3048312201431145
 20
136.2738620585500939
 30
0.0
 40
0.0056102212129671
 50
245.9869466603400099
 51
347.3442745549428992
  0
LINE
  5
8D85
  8
0
 10
4060.3103051361840699
 20
136.272632902239593
 30
0.0
 11
4060.3106886633731847
 21
136.2755392047409089
 31
0.0
  0
LINE
  5
8D86
  8
0
 10
4060.3103051362181759
 20
136.2726329022445952
 30
0.0
 11
4060.3057471515407997
 21
136.2746397520137123
 31
0.0
  0
LINE
  5
8D87
  8
0
 10
4060.1206703366387956
 20
136.3487307966568096
 30
0.0
 11
4060.1266178392152142
 21
136.3461149692811034
 31
0.0
  0
ARC
  5
8D88
  8
0
 10
4060.1292373335718366
 20
136.3520708093246867
 30
0.0
 40
0.0065064415243248
 50
246.2591724160874094
 51
264.5401035988236913
  0
ARC
  5
8D89
  8
0
 10
4060.1295975649200045
 20
136.3484640564186066
 30
0.0
 40
0.0030326431730248
 50
251.1601601889873905
 51
266.9087490036810095
  0
LINE
  5
8D8A
  8
0
 10
4060.129434025583123
 20
136.3454358259947981
 30
0.0
 11
4060.1570131095108991
 21
136.3427291093275926
 31
0.0
  0
LINE
  5
8D8B
  8
0
 10
4060.1570131095108991
 20
136.3427291093275926
 30
0.0
 11
4060.1613088873150446
 21
136.3423075052810987
 31
0.0
  0
ARC
  5
8D8C
  8
0
 10
4060.1853157371160705
 20
135.806296055697004
 30
0.0
 40
0.5365487889489446
 50
92.3112345779742753
 51
92.5644462497067622
  0
LINE
  5
8D8D
  8
0
 10
4060.1636779509158259
 20
136.3424083658811128
 30
0.0
 11
4060.1806680120580495
 21
136.3455514469418972
 31
0.0
  0
LINE
  5
8D8E
  8
0
 10
4060.1290878727158997
 20
136.3454182419810934
 30
0.0
 11
4060.1122718604160582
 21
136.3423096358810938
 31
0.0
  0
LINE
  5
8D8F
  8
0
 10
4060.1122718604160582
 20
136.3423096358810938
 30
0.0
 11
4060.1104426970150598
 21
136.3422337856810884
 31
0.0
  0
LINE
  5
8D90
  8
0
 10
4060.1104426970150598
 20
136.3422337856810884
 30
0.0
 11
4060.1099033093150865
 21
136.3422090104810991
 31
0.0
  0
LINE
  5
8D91
  8
0
 10
4060.1096210395021444
 20
136.3422364280843908
 30
0.0
 11
4060.1234972647148425
 21
136.336133394181104
 31
0.0
  0
LINE
  5
8D92
  8
0
 10
4060.1234972647148425
 20
136.336133394181104
 30
0.0
 11
4060.1254976775521754
 21
136.3356123122773909
 31
0.0
  0
LINE
  5
8D93
  8
0
 10
4060.1254976775521754
 20
136.3356123122773909
 30
0.0
 11
4060.1587282130149106
 21
136.332350940581108
 31
0.0
  0
LINE
  5
8D94
  8
0
 10
4060.1587282130149106
 20
136.332350940581108
 30
0.0
 11
4060.1605573764149995
 21
136.3324267907811134
 31
0.0
  0
LINE
  5
8D95
  8
0
 10
4060.1605573764149995
 20
136.3324267907811134
 30
0.0
 11
4060.1775461821480349
 21
136.3355673394553094
 31
0.0
  0
LINE
  5
8D96
  8
0
 10
4060.1662381372229902
 20
136.3400809152826128
 30
0.0
 11
4060.1566085305139495
 21
136.33830069678109
 31
0.0
  0
LINE
  5
8D97
  8
0
 10
4060.1566085305139495
 20
136.33830069678109
 30
0.0
 11
4060.1290294466180057
 21
136.3410074135063894
 31
0.0
  0
LINE
  5
8D98
  8
0
 10
4060.1290294466180057
 20
136.3410074135063894
 30
0.0
 11
4060.1219858950557864
 21
136.3441053045071101
 31
0.0
  0
LINE
  5
8D99
  8
0
 10
4060.129434025583123
 20
136.3454358259947981
 30
0.0
 11
4060.1290294466180057
 21
136.3410074135063894
 31
0.0
  0
ARC
  5
8D9A
  8
0
 10
4060.122188011993785
 20
136.3416324457382132
 30
0.0
 40
0.0068699267098313
 50
298.8005056145685785
 51
354.7799589723088047
  0
LINE
  5
8D9B
  8
0
 10
4060.1570131095108991
 20
136.3427291093275926
 30
0.0
 11
4060.1565787747867944
 21
136.3383036171219942
 31
0.0
  0
ARC
  5
8D9C
  8
0
 10
4060.1639049403729587
 20
136.3375845992241864
 30
0.0
 40
0.0073613646108358
 50
174.3947242325371008
 51
225.3133303452848111
  0
ARC
  5
8D9D
  8
0
 10
4060.1279440867788253
 20
136.3486147710918033
 30
0.0
 40
0.0030951958362414
 50
282.5804424868330784
 51
317.0787695150845025
  0
ARC
  5
8D9E
  8
0
 10
4060.1248938798257768
 20
136.3514513052367931
 30
0.0
 40
0.0072604915547683
 50
317.0787695150833088
 51
340.8291462893373023
  0
LINE
  5
8D9F
  8
0
 10
4060.147905950079803
 20
136.3494426414924874
 30
0.0
 11
4060.1597291050229614
 21
136.348282271970902
 31
0.0
  0
LINE
  5
8DA0
  8
0
 10
4060.1597291050229614
 20
136.348282271970902
 30
0.0
 11
4060.1681909999128948
 21
136.3498466162579064
 31
0.0
  0
LINE
  5
8DA1
  8
0
 10
4060.1598471550692011
 20
136.3496889635752893
 30
0.0
 11
4060.1597291047028193
 21
136.3482822719116996
 31
0.0
  0
ARC
  5
8DA2
  8
0
 10
4060.1673451433857736
 20
136.3476431296049896
 30
0.0
 40
0.0076428102228498
 50
175.202945801910289
 51
224.0153408320570918
  0
LINE
  5
8DA3
  8
0
 10
4060.1073221226160967
 20
136.332252210581089
 30
0.0
 11
4060.1223771031150136
 21
136.3256307371810863
 31
0.0
  0
LINE
  5
8DA4
  8
0
 10
4060.1223771031150136
 20
136.3256307371810863
 30
0.0
 11
4060.1556076385159031
 21
136.3223693654809949
 31
0.0
  0
LINE
  5
8DA5
  8
0
 10
4060.1556076385159031
 20
136.3223693654809949
 30
0.0
 11
4060.1737831935161012
 21
136.3257294671811053
 31
0.0
  0
LINE
  5
8DA6
  8
0
 10
4060.1232302825810621
 20
136.3255470028888112
 30
0.0
 11
4060.1227832756999305
 21
136.3209912563731052
 31
0.0
  0
ARC
  5
8DA7
  8
0
 10
4060.1159598343738253
 20
136.3216607679918013
 30
0.0
 40
0.0068562086715358
 50
298.7398479328883809
 51
354.3961131268276858
  0
LINE
  5
8DA8
  8
0
 10
4060.1153245949308257
 20
136.3243269450526043
 30
0.0
 11
4060.1227882976149886
 21
136.3210442632810953
 31
0.0
  0
LINE
  5
8DA9
  8
0
 10
4060.1227882976149886
 20
136.3210442632810953
 30
0.0
 11
4060.150367381515025
 21
136.3183375466811071
 31
0.0
  0
LINE
  5
8DAA
  8
0
 10
4060.150367381515025
 20
136.3183375466811071
 30
0.0
 11
4060.1605109707261363
 21
136.3202127846346912
 31
0.0
  0
LINE
  5
8DAB
  8
0
 10
4060.1034631576471838
 20
136.3222651057645862
 30
0.0
 11
4060.117256115715918
 21
136.3161702440810927
 31
0.0
  0
LINE
  5
8DAC
  8
0
 10
4060.117256115715918
 20
136.3161702440810927
 30
0.0
 11
4060.1192565286150966
 21
136.3156491621811028
 31
0.0
  0
LINE
  5
8DAD
  8
0
 10
4060.1192565286150966
 20
136.3156491621811028
 30
0.0
 11
4060.1200723020820078
 21
136.3154911007947874
 31
0.0
  0
LINE
  5
8DAE
  8
0
 10
4060.1200723020820078
 20
136.3154911007947874
 30
0.0
 11
4060.1519471638162031
 21
136.312362780081088
 31
0.0
  0
LINE
  5
8DAF
  8
0
 10
4060.1519471638162031
 20
136.312362780081088
 30
0.0
 11
4060.1524870640328118
 21
136.312387790448696
 31
0.0
  0
ARC
  5
8DB0
  8
0
 10
4060.1531313260670686
 20
136.3189509206929984
 30
0.0
 40
0.0065946760473923
 50
264.3935885775014754
 51
275.8285156926580157
  0
LINE
  5
8DB1
  8
0
 10
4060.1538010248459614
 20
136.312390337204107
 30
0.0
 11
4060.1715136511261335
 21
136.3156422716828899
 31
0.0
  0
LINE
  5
8DB2
  8
0
 10
4060.1122040202508288
 20
136.3143453700263024
 30
0.0
 11
4060.1196677231159811
 21
136.3110626882811118
 31
0.0
  0
LINE
  5
8DB3
  8
0
 10
4060.1196677231159811
 20
136.3110626882811118
 30
0.0
 11
4060.1472468070151081
 21
136.3083559715811077
 31
0.0
  0
LINE
  5
8DB4
  8
0
 10
4060.1472468070151081
 20
136.3083559715811077
 30
0.0
 11
4060.1568161285149472
 21
136.3101250450810937
 31
0.0
  0
LINE
  5
8DB5
  8
0
 10
4060.1010809736189913
 20
136.312289060444698
 30
0.0
 11
4060.1141355412150915
 21
136.3061886689810933
 31
0.0
  0
LINE
  5
8DB6
  8
0
 10
4060.1141355412150915
 20
136.3061886689810933
 30
0.0
 11
4060.1161359541160891
 21
136.3056675870811034
 31
0.0
  0
LINE
  5
8DB7
  8
0
 10
4060.1161359541160891
 20
136.3056675870811034
 30
0.0
 11
4060.1165963593148263
 21
136.3055447854810893
 31
0.0
  0
LINE
  5
8DB8
  8
0
 10
4060.1165963593148263
 20
136.3055447854810893
 30
0.0
 11
4060.1488265893149219
 21
136.3023812050811046
 31
0.0
  0
LINE
  5
8DB9
  8
0
 10
4060.1488265893149219
 20
136.3023812050811046
 30
0.0
 11
4060.1493664895328948
 21
136.3024062153486966
 31
0.0
  0
ARC
  5
8DBA
  8
0
 10
4060.150011435514898
 20
136.3089833287812098
 30
0.0
 40
0.0066086592001014
 50
264.3995308578967069
 51
270.5209713618907017
  0
ARC
  5
8DBB
  8
0
 10
4060.1500149700191287
 20
136.3088904138033968
 30
0.0
 40
0.0065157164807125
 50
270.4973210987780021
 51
280.4410515096939207
  0
LINE
  5
8DBC
  8
0
 10
4060.1511957729981077
 20
136.3024825853426876
 30
0.0
 11
4060.168235268933131
 21
136.3056320004224062
 31
0.0
  0
LINE
  5
8DBD
  8
0
 10
4060.1536955540150302
 20
136.3001434700811103
 30
0.0
 11
4060.1441262325161006
 21
136.2983743965810959
 31
0.0
  0
LINE
  5
8DBE
  8
0
 10
4060.1441262325161006
 20
136.2983743965810959
 30
0.0
 11
4060.1165471486160641
 21
136.3010811131811124
 31
0.0
  0
LINE
  5
8DBF
  8
0
 10
4060.1165471486160641
 20
136.3010811131811124
 30
0.0
 11
4060.1095035971147809
 21
136.3041790041810941
 31
0.0
  0
LINE
  5
8DC0
  8
0
 10
4060.0972553883480032
 20
136.3022986796268015
 30
0.0
 11
4060.1110149667151745
 21
136.2962070939811099
 31
0.0
  0
LINE
  5
8DC1
  8
0
 10
4060.1110149667151745
 20
136.2962070939811099
 30
0.0
 11
4060.1130153796161721
 21
136.295686011981104
 31
0.0
  0
LINE
  5
8DC2
  8
0
 10
4060.1130153796161721
 20
136.295686011981104
 30
0.0
 11
4060.1134752928151102
 21
136.2955628761810942
 31
0.0
  0
LINE
  5
8DC3
  8
0
 10
4060.1134752928151102
 20
136.2955628761810942
 30
0.0
 11
4060.1457058267769753
 21
136.2923999590979065
 31
0.0
  0
LINE
  5
8DC4
  8
0
 10
4060.1457058267769753
 20
136.2923999590979065
 30
0.0
 11
4060.1462459151148323
 21
136.2924246402810979
 31
0.0
  0
ARC
  5
8DC5
  8
0
 10
4060.1468898570878991
 20
136.2989751351854011
 30
0.0
 40
0.0065820699445168
 50
264.3856160855780217
 51
278.0480949622121898
  0
LINE
  5
8DC6
  8
0
 10
4060.1478113751700221
 20
136.2924578927334096
 30
0.0
 11
4060.1650748454921995
 21
136.2956429992977974
 31
0.0
  0
LINE
  5
8DC7
  8
0
 10
4060.1505832872830979
 20
136.283581467918907
 30
0.0
 11
4060.161953968969101
 21
136.2856610736056098
 31
0.0
  0
LINE
  5
8DC8
  8
0
 10
4060.1610271302620276
 20
136.3423351579947962
 30
0.0
 11
4060.1749033552141555
 21
136.3362321242184123
 31
0.0
  0
ARC
  5
8DC9
  8
0
 10
4060.1775228495707779
 20
136.3421879642619956
 30
0.0
 40
0.0065064415243248
 50
246.2591724160874094
 51
264.5401035988236913
  0
ARC
  5
8DCA
  8
0
 10
4060.1778830809189458
 20
136.3385812113560007
 30
0.0
 40
0.0030326431730248
 50
251.1601601889873905
 51
266.9087490036810095
  0
LINE
  5
8DCB
  8
0
 10
4060.1777195415820643
 20
136.3355529809321069
 30
0.0
 11
4060.2052986255089309
 21
136.3328462642649015
 31
0.0
  0
LINE
  5
8DCC
  8
0
 10
4060.2052986255089309
 20
136.3328462642649015
 30
0.0
 11
4060.2095944033139858
 21
136.3324246602184076
 31
0.0
  0
ARC
  5
8DCD
  8
0
 10
4060.2336012531150118
 20
135.7964132106343129
 30
0.0
 40
0.5365487889489446
 50
92.3112345779742753
 51
92.5644462497067622
  0
LINE
  5
8DCE
  8
0
 10
4060.2119634669138577
 20
136.3325255208183933
 30
0.0
 11
4060.2289635209967855
 21
136.3356704505258961
 31
0.0
  0
LINE
  5
8DCF
  8
0
 10
4060.1775461820220698
 20
136.3355673394694918
 30
0.0
 11
4060.1605573764149995
 21
136.3324267908184027
 31
0.0
  0
LINE
  5
8DD0
  8
0
 10
4060.1605573764149995
 20
136.3324267908184027
 30
0.0
 11
4060.1587282130140011
 21
136.3323509406183973
 31
0.0
  0
LINE
  5
8DD1
  8
0
 10
4060.1587282130140011
 20
136.3323509406183973
 30
0.0
 11
4060.1587282046461951
 21
136.3323509402339937
 31
0.0
  0
LINE
  5
8DD2
  8
0
 10
4060.1576782741790339
 20
136.3324539855892965
 30
0.0
 11
4060.1717827807137837
 21
136.3262505491184129
 31
0.0
  0
LINE
  5
8DD3
  8
0
 10
4060.1717827807137837
 20
136.3262505491184129
 30
0.0
 11
4060.1737831935520262
 21
136.3257294672146998
 31
0.0
  0
LINE
  5
8DD4
  8
0
 10
4060.1737831935520262
 20
136.3257294672146998
 30
0.0
 11
4060.2070137290138518
 21
136.3224680955183885
 31
0.0
  0
LINE
  5
8DD5
  8
0
 10
4060.2070137290138518
 20
136.3224680955183885
 30
0.0
 11
4060.2088428924139407
 21
136.3225439457183938
 31
0.0
  0
LINE
  5
8DD6
  8
0
 10
4060.2088428924139407
 20
136.3225439457183938
 30
0.0
 11
4060.2257704801709224
 21
136.3256731776444894
 31
0.0
  0
LINE
  5
8DD7
  8
0
 10
4060.2150376356698871
 20
136.3302930897874887
 30
0.0
 11
4060.2048940465138003
 21
136.3284178517183989
 31
0.0
  0
LINE
  5
8DD8
  8
0
 10
4060.2048940465138003
 20
136.3284178517183989
 30
0.0
 11
4060.177314962616947
 21
136.331124568443812
 31
0.0
  0
LINE
  5
8DD9
  8
0
 10
4060.177314962616947
 20
136.331124568443812
 30
0.0
 11
4060.1702714110551824
 21
136.3342224594443906
 31
0.0
  0
LINE
  5
8DDA
  8
0
 10
4060.1777195415820643
 20
136.3355529809321069
 30
0.0
 11
4060.177314962616947
 21
136.331124568443812
 31
0.0
  0
ARC
  5
8DDB
  8
0
 10
4060.1704735279931811
 20
136.3317496006756073
 30
0.0
 40
0.0068699267098313
 50
298.8005056145685785
 51
354.7799589723088047
  0
LINE
  5
8DDC
  8
0
 10
4060.2052986255089309
 20
136.3328462642649015
 30
0.0
 11
4060.2048642907861904
 21
136.3284207720593031
 31
0.0
  0
ARC
  5
8DDD
  8
0
 10
4060.2121904563718999
 20
136.327701754161609
 30
0.0
 40
0.0073613646108358
 50
174.3947242325371008
 51
225.3133303452848111
  0
ARC
  5
8DDE
  8
0
 10
4060.1762296027782213
 20
136.3387319260291122
 30
0.0
 40
0.0030951958362414
 50
282.5804424868330784
 51
317.0787695150845025
  0
ARC
  5
8DDF
  8
0
 10
4060.1731092474560683
 20
136.3416156119112941
 30
0.0
 40
0.0073439824522581
 50
317.1820779259252276
 51
356.0220690827862882
  0
LINE
  5
8DE0
  8
0
 10
4060.180435537115045
 20
136.3411061434811131
 30
0.0
 11
4060.2080146210219027
 21
136.3383994269082962
 31
0.0
  0
LINE
  5
8DE1
  8
0
 10
4060.2080146210219027
 20
136.3383994269082962
 30
0.0
 11
4060.2175839424139667
 21
136.3401685003184127
 31
0.0
  0
LINE
  5
8DE2
  8
0
 10
4060.2083865247309404
 20
136.342831046290911
 30
0.0
 11
4060.2080146207022153
 21
136.3383994268490085
 31
0.0
  0
ARC
  5
8DE3
  8
0
 10
4060.2156306593838053
 20
136.3377602845422985
 30
0.0
 40
0.0076428102228498
 50
175.202945801910289
 51
224.0153408320570918
  0
LINE
  5
8DE4
  8
0
 10
4060.1556076386141285
 20
136.3223693655183979
 30
0.0
 11
4060.1706626191139549
 21
136.3157478921183952
 31
0.0
  0
LINE
  5
8DE5
  8
0
 10
4060.1706626191139549
 20
136.3157478921183952
 30
0.0
 11
4060.2038931545139349
 21
136.3124865204183891
 31
0.0
  0
LINE
  5
8DE6
  8
0
 10
4060.2038931545139349
 20
136.3124865204183891
 30
0.0
 11
4060.2220687095141329
 21
136.3158466221184142
 31
0.0
  0
LINE
  5
8DE7
  8
0
 10
4060.1715157985800033
 20
136.3156641578260917
 30
0.0
 11
4060.1710687916979623
 21
136.3111084113104994
 31
0.0
  0
ARC
  5
8DE8
  8
0
 10
4060.1642453503732213
 20
136.3117779229291102
 30
0.0
 40
0.0068562086715358
 50
298.7398479328883809
 51
354.3961131268276858
  0
LINE
  5
8DE9
  8
0
 10
4060.1640302622158742
 20
136.3142593092740071
 30
0.0
 11
4060.1710738136139298
 21
136.3111614182184042
 31
0.0
  0
LINE
  5
8DEA
  8
0
 10
4060.1710738136139298
 20
136.3111614182184042
 30
0.0
 11
4060.1986528975139663
 21
136.3084547016183876
 31
0.0
  0
LINE
  5
8DEB
  8
0
 10
4060.1986528975139663
 20
136.3084547016183876
 30
0.0
 11
4060.2082222190460925
 21
136.3102237751243138
 31
0.0
  0
LINE
  5
8DEC
  8
0
 10
4060.1517486736461251
 20
136.3123822607018951
 30
0.0
 11
4060.1655416317139498
 21
136.3062873990184016
 31
0.0
  0
LINE
  5
8DED
  8
0
 10
4060.1655416317139498
 20
136.3062873990184016
 30
0.0
 11
4060.1675420446149474
 21
136.3057663171184117
 31
0.0
  0
LINE
  5
8DEE
  8
0
 10
4060.1675420446149474
 20
136.3057663171184117
 30
0.0
 11
4060.1683578180809491
 21
136.3056082557320963
 31
0.0
  0
LINE
  5
8DEF
  8
0
 10
4060.1683578180809491
 20
136.3056082557320963
 30
0.0
 11
4060.2002326798137801
 21
136.3024799350183969
 31
0.0
  0
LINE
  5
8DF0
  8
0
 10
4060.2002326798137801
 20
136.3024799350183969
 30
0.0
 11
4060.2007725800308435
 21
136.3025049453860049
 31
0.0
  0
ARC
  5
8DF1
  8
0
 10
4060.2014168420651004
 20
136.3090680756303072
 30
0.0
 40
0.0065946760473923
 50
264.3935885775014754
 51
275.8285156926580157
  0
LINE
  5
8DF2
  8
0
 10
4060.2020865408449026
 20
136.3025074921415012
 30
0.0
 11
4060.2196007513070981
 21
136.3057229986378047
 31
0.0
  0
LINE
  5
8DF3
  8
0
 10
4060.1609096876481999
 20
136.3042777342037084
 30
0.0
 11
4060.1679532391149223
 21
136.3011798432183923
 31
0.0
  0
LINE
  5
8DF4
  8
0
 10
4060.1679532391149223
 20
136.3011798432183923
 30
0.0
 11
4060.1955323230140493
 21
136.2984731265183882
 31
0.0
  0
LINE
  5
8DF5
  8
0
 10
4060.1955323230140493
 20
136.2984731265183882
 30
0.0
 11
4060.2051016445138885
 21
136.3002422000184026
 31
0.0
  0
LINE
  5
8DF6
  8
0
 10
4060.1485448222179002
 20
136.3024088621243948
 30
0.0
 11
4060.1624210572140328
 21
136.2963058239184022
 31
0.0
  0
LINE
  5
8DF7
  8
0
 10
4060.1624210572140328
 20
136.2963058239184022
 30
0.0
 11
4060.1644214701141209
 21
136.2957847420184123
 31
0.0
  0
LINE
  5
8DF8
  8
0
 10
4060.1644214701141209
 20
136.2957847420184123
 30
0.0
 11
4060.1648818753142223
 21
136.2956619404183982
 31
0.0
  0
LINE
  5
8DF9
  8
0
 10
4060.1648818753142223
 20
136.2956619404183982
 30
0.0
 11
4060.1971121053138631
 21
136.2924983600184135
 31
0.0
  0
LINE
  5
8DFA
  8
0
 10
4060.1971121053138631
 20
136.2924983600184135
 30
0.0
 11
4060.197652005531836
 21
136.2925233702860055
 31
0.0
  0
ARC
  5
8DFB
  8
0
 10
4060.1982969515138393
 20
136.2991004837184903
 30
0.0
 40
0.0066086592001014
 50
264.3995308578967069
 51
270.5209713618907017
  0
ARC
  5
8DFC
  8
0
 10
4060.1983004860180699
 20
136.2990075687407057
 30
0.0
 40
0.0065157164807125
 50
270.4973210987780021
 51
280.4410515096939207
  0
LINE
  5
8DFD
  8
0
 10
4060.1994812889961395
 20
136.2925997402799965
 30
0.0
 11
4060.216479377756059
 21
136.2957415020590872
 31
0.0
  0
LINE
  5
8DFE
  8
0
 10
4060.2019810700139715
 20
136.2902606250183908
 30
0.0
 11
4060.1924117485141323
 21
136.2884915515184048
 31
0.0
  0
LINE
  5
8DFF
  8
0
 10
4060.1924117485141323
 20
136.2884915515184048
 30
0.0
 11
4060.1648326646140958
 21
136.2911982681183929
 31
0.0
  0
LINE
  5
8E00
  8
0
 10
4060.1648326646140958
 20
136.2911982681183929
 30
0.0
 11
4060.1577891131141769
 21
136.294296159118403
 31
0.0
  0
LINE
  5
8E01
  8
0
 10
4060.145424257284958
 20
136.2924272828144865
 30
0.0
 11
4060.1593004827141158
 21
136.2863242489183904
 31
0.0
  0
LINE
  5
8E02
  8
0
 10
4060.1593004827141158
 20
136.2863242489183904
 30
0.0
 11
4060.1613008956142039
 21
136.2858031669184129
 31
0.0
  0
LINE
  5
8E03
  8
0
 10
4060.1613008956142039
 20
136.2858031669184129
 30
0.0
 11
4060.1617608088140514
 21
136.2856800311184031
 31
0.0
  0
LINE
  5
8E04
  8
0
 10
4060.1617569493519113
 20
136.2856804098728105
 30
0.0
 11
4060.1939913427759166
 21
136.282517114035187
 31
0.0
  0
LINE
  5
8E05
  8
0
 10
4060.1939913427759166
 20
136.282517114035187
 30
0.0
 11
4060.1945314311137736
 21
136.2825417952184068
 31
0.0
  0
ARC
  5
8E06
  8
0
 10
4060.1951753730859309
 20
136.28909229012271
 30
0.0
 40
0.0065820699445168
 50
264.3856160855780217
 51
278.0480949622121898
  0
LINE
  5
8E07
  8
0
 10
4060.1960968911689633
 20
136.2825750476708038
 30
0.0
 11
4060.2133590163430199
 21
136.2857599060556879
 31
0.0
  0
LINE
  5
8E08
  8
0
 10
4060.1733897738608903
 20
136.3442050072534073
 30
0.0
 11
4060.180435537115045
 21
136.3411061434811131
 31
0.0
  0
LINE
  5
8E09
  8
0
 10
4060.1804355365111405
 20
136.3411061368709056
 30
0.0
 11
4060.1808401161360962
 21
136.3455345559906107
 31
0.0
  0
LINE
  5
8E0A
  8
0
 10
4060.1697052390982208
 20
136.3498742530676111
 30
0.0
 11
4060.1786810765388509
 21
136.3459669220333979
 31
0.0
  0
ARC
  5
8E0B
  8
0
 10
4060.1806722686142166
 20
136.3522916312039115
 30
0.0
 40
0.0066307459589059
 50
252.5245669595938978
 51
264.3923704076821082
  0
ARC
  5
8E0C
  8
0
 10
4060.1811382040468743
 20
136.3492332954940025
 30
0.0
 40
0.0037117501623326
 50
252.5369509765230021
 51
262.7224108338347719
  0
LINE
  5
8E0D
  8
0
 10
4060.1806680120580495
 20
136.3455514469418972
 30
0.0
 11
4060.1808401161360962
 21
136.3455345559906107
 31
0.0
  0
LINE
  5
8E0E
  8
0
 10
4060.1808401161360962
 20
136.3455345559906107
 30
0.0
 11
4060.2127149778148123
 21
136.3424062353811053
 31
0.0
  0
LINE
  5
8E0F
  8
0
 10
4060.2127149778148123
 20
136.3424062353811053
 30
0.0
 11
4060.2150840414151389
 21
136.3425070958811034
 31
0.0
  0
LINE
  5
8E10
  8
0
 10
4060.2150840414151389
 20
136.3425070958811034
 30
0.0
 11
4060.2319000537149805
 21
136.345615701981103
 31
0.0
  0
LINE
  5
8E11
  8
0
 10
4060.2207045170712263
 20
136.3501500754341862
 30
0.0
 11
4060.2111351955181817
 21
136.3483810019166924
 31
0.0
  0
LINE
  5
8E12
  8
0
 10
4060.2111351955181817
 20
136.3483810019166924
 30
0.0
 11
4060.1922968968951864
 21
136.3502510498283016
 31
0.0
  0
ARC
  5
8E13
  8
0
 10
4060.1770596954311259
 20
136.3514913809665927
 30
0.0
 40
0.0065126639295384
 50
297.0786181189648119
 51
347.7632433616636831
  0
LINE
  5
8E14
  8
0
 10
4060.2113548346392236
 20
136.3505171280667128
 30
0.0
 11
4060.2111351955181817
 21
136.3483810019166924
 31
0.0
  0
ARC
  5
8E15
  8
0
 10
4060.217600564231816
 20
136.3473319124150862
 30
0.0
 40
0.0065499254340933
 50
170.7839055909952037
 51
228.4348611174929999
  0
LINE
  5
8E16
  8
0
 10
4060.1667837267409595
 20
136.3244354808240075
 30
0.0
 11
4060.1741943881161205
 21
136.3211429932810859
 31
0.0
  0
LINE
  5
8E17
  8
0
 10
4060.1741943881161205
 20
136.3211429932810859
 30
0.0
 11
4060.2017734720147928
 21
136.3184362766810978
 31
0.0
  0
LINE
  5
8E18
  8
0
 10
4060.2017734720147928
 20
136.3184362766810978
 30
0.0
 11
4060.2113427934150423
 21
136.3202053501811122
 31
0.0
  0
LINE
  5
8E19
  8
0
 10
4060.2021788805241158
 20
136.3229426060192111
 30
0.0
 11
4060.2017369638110722
 21
136.3184398597356903
 31
0.0
  0
ARC
  5
8E1A
  8
0
 10
4060.2090516489929541
 20
136.3177219686018873
 30
0.0
 40
0.0073498290467963
 50
174.3947244909973051
 51
225.4241907540128977
  0
ARC
  5
8E1B
  8
0
 10
4060.1648648615710044
 20
136.3234314424821889
 30
0.0
 40
0.0096255359176988
 50
307.037019532046827
 51
346.1972050473140143
  0
LINE
  5
8E1C
  8
0
 10
4060.1742124374491141
 20
136.3211349741307004
 30
0.0
 11
4060.1745910126560375
 21
136.325650184761912
 31
0.0
  0
ARC
  5
8E1D
  8
0
 10
4060.1607641129430704
 20
136.2884586010609951
 30
0.0
 40
0.0027091494854721
 50
281.4282531331065798
 51
308.973283844327625
  0
ARC
  5
8E1E
  8
0
 10
4060.1589944167290014
 20
136.2906460786458069
 30
0.0
 40
0.0055228450752697
 50
308.9732838443266019
 51
332.0648380172693805
  0
ARC
  5
8E1F
  8
0
 10
4060.1562399581598584
 20
136.2921066543659094
 30
0.0
 40
0.0086405884002172
 50
332.0648380172680163
 51
353.965335677175915
  0
LINE
  5
8E20
  8
0
 10
4060.1648326645067755
 20
136.2911982681289089
 30
0.0
 11
4060.1652374623158721
 21
136.2956290748811057
 31
0.0
  0
ARC
  5
8E21
  8
0
 10
4060.1638860518319234
 20
136.298420830037287
 30
0.0
 40
0.0026899160194571
 50
281.4813398294822946
 51
306.5519871264962148
  0
ARC
  5
8E22
  8
0
 10
4060.1624729893619588
 20
136.3003268550442044
 30
0.0
 40
0.0050626100311257
 50
306.5519871264962148
 51
331.635508643387027
  0
ARC
  5
8E23
  8
0
 10
4060.1589761194709354
 20
136.3022148057401921
 30
0.0
 40
0.009036582459466
 50
331.6355086433912902
 51
353.423465706153479
  0
LINE
  5
8E24
  8
0
 10
4060.167953239005783
 20
136.3011798432289083
 30
0.0
 11
4060.1683578180809491
 21
136.3056082557320963
 31
0.0
  0
LINE
  5
8E25
  8
0
 10
4060.1990711007788377
 20
136.3129597751944004
 30
0.0
 11
4060.1986528975221518
 21
136.3084547016555064
 31
0.0
  0
ARC
  5
8E26
  8
0
 10
4060.2061178547919553
 20
136.307761734178797
 30
0.0
 40
0.0074970521513574
 50
174.6964665677944026
 51
224.5218141629505908
  0
LINE
  5
8E27
  8
0
 10
4060.1959369020141821
 20
136.3029015390644076
 30
0.0
 11
4060.1955323232368755
 21
136.2984731265594007
 31
0.0
  0
ARC
  5
8E28
  8
0
 10
4060.2030217886531318
 20
136.2977888906710859
 30
0.0
 40
0.0075206562862048
 50
174.7799613979456126
 51
224.4383234429764116
  0
LINE
  5
8E29
  8
0
 10
4060.1928163321290413
 20
136.2929200145908055
 30
0.0
 11
4060.1923819924668351
 21
136.2884944718531983
 31
0.0
  0
ARC
  5
8E2A
  8
0
 10
4060.1997081621220786
 20
136.2877754535896031
 30
0.0
 40
0.0073613686959652
 50
174.3947244909988967
 51
225.3132963656761092
  0
LINE
  5
8E2B
  8
0
 10
4060.1263194923840274
 20
136.3355316562303869
 30
0.0
 11
4060.1259088722190427
 21
136.3310258384447025
 31
0.0
  0
ARC
  5
8E2C
  8
0
 10
4060.1190702145950127
 20
136.3316490528872009
 30
0.0
 40
0.0068669960201162
 50
298.7875067314578814
 51
354.7929550034285739
  0
LINE
  5
8E2D
  8
0
 10
4060.1188290200580013
 20
136.3341396951375941
 30
0.0
 11
4060.1259088722190427
 21
136.3310258384456972
 31
0.0
  0
LINE
  5
8E2E
  8
0
 10
4060.1259088722190427
 20
136.3310258384456972
 30
0.0
 11
4060.1534879560281297
 21
136.3283191218397974
 31
0.0
  0
LINE
  5
8E2F
  8
0
 10
4060.1534879560281297
 20
136.3283191218397974
 30
0.0
 11
4060.1630572775188739
 21
136.3300881953447004
 31
0.0
  0
LINE
  5
8E30
  8
0
 10
4060.1539159896528872
 20
136.3328232305653103
 30
0.0
 11
4060.1534879563578215
 21
136.3283191218073966
 31
0.0
  0
ARC
  5
8E31
  8
0
 10
4060.1609164840328958
 20
136.3276131758933047
 30
0.0
 40
0.007461995916308
 50
174.5713851776164915
 51
224.6468973942209004
  0
LINE
  5
8E32
  8
0
 10
4060.1507640941408681
 20
136.3228447294304999
 30
0.0
 11
4060.1503221774351005
 21
136.3183419832460004
 31
0.0
  0
ARC
  5
8E33
  8
0
 10
4060.1596572347120855
 20
136.3174258050773062
 30
0.0
 40
0.0093799081433708
 50
174.3947244707775042
 51
212.5269715366295884
  0
LINE
  5
8E34
  8
0
 10
4060.1445308115139596
 20
136.3028028090924977
 30
0.0
 11
4060.1440964767930382
 21
136.2983773168853077
 31
0.0
  0
ARC
  5
8E35
  8
0
 10
4060.1514226421259082
 20
136.2976582990166889
 30
0.0
 40
0.0073613643549609
 50
174.3947242650274063
 51
225.3133333295436103
  0
ARC
  5
8E36
  8
0
 10
4060.1498545706549521
 20
136.2893763811187
 30
0.0
 40
0.0058405519359919
 50
184.1685072036459871
 51
277.1673844206430886
  0
LINE
  5
8E37
  8
0
 10
4060.1440294694189106
 20
136.2889518313446899
 30
0.0
 11
4060.1442539456597842
 21
136.2925421416651091
 31
0.0
  0
LINE
  5
8E38
  8
0
 10
4060.1440294694539261
 20
136.2889518312985047
 30
0.0
 11
4060.1505749794027906
 21
136.2901618950232887
 31
0.0
  0
LINE
  5
8E39
  8
0
 10
4060.2228847018182023
 20
136.3156909550446869
 30
0.0
 11
4060.2224799041191545
 21
136.3112601483447008
 31
0.0
  0
ARC
  5
8E3A
  8
0
 10
4060.2156384694822009
 20
136.3118851805776046
 30
0.0
 40
0.0068699267226211
 50
298.8005062919738748
 51
354.7799589724450016
  0
LINE
  5
8E3B
  8
0
 10
4060.2197639429459741
 20
136.3057073607552923
 30
0.0
 11
4060.2193593295892242
 21
136.3012785729069094
 31
0.0
  0
ARC
  5
8E3C
  8
0
 10
4060.2125178953137947
 20
136.3019036052612023
 30
0.0
 40
0.0068699263736829
 50
298.8005047452925282
 51
354.7799576900289935
  0
LINE
  5
8E3D
  8
0
 10
4060.2166433341940319
 20
136.2957254107477922
 30
0.0
 11
4060.2162387551188658
 21
136.291296998144702
 31
0.0
  0
ARC
  5
8E3E
  8
0
 10
4060.2098249746231886
 20
136.2916420772162951
 30
0.0
 40
0.0064230568899693
 50
296.6601667992018747
 51
356.9202984652176269
  0
LINE
  5
8E3F
  8
0
 10
4060.2169196077188644
 20
136.2854104560447013
 30
0.0
 11
4060.2163138326250191
 21
136.2799099131709113
 31
0.0
  0
ARC
  5
8E40
  8
0
 10
4060.2102291763071662
 20
136.2824995657987017
 30
0.0
 40
0.0066128165885617
 50
244.483001313669007
 51
336.9452136982689012
  0
LINE
  5
8E41
  8
0
 10
4060.2073805147188068
 20
136.2765317797446869
 30
0.0
 11
4060.193484828640976
 21
136.2825665146324923
 31
0.0
  0
LINE
  5
8E42
  8
0
 10
4060.2060746292358999
 20
136.2844133140928022
 30
0.0
 11
4060.2163138326250191
 21
136.2799099131709113
 31
0.0
  0
LINE
  5
8E43
  8
0
 10
4060.2166031177421246
 20
136.2825366721839941
 30
0.0
 11
4060.2370325649121696
 21
136.2806564956433988
 31
0.0
  0
LINE
  5
8E44
  8
0
 10
4060.236839222504841
 20
136.2778954729865859
 30
0.0
 11
4060.2502665860511115
 21
136.2803777799506122
 31
0.0
  0
LINE
  5
8E45
  8
0
 10
4060.2442224180190351
 20
136.2930186940446902
 30
0.0
 11
4060.2438177745470966
 21
136.2885895758579125
 31
0.0
  0
ARC
  5
8E46
  8
0
 10
4060.2513046911949459
 20
136.2879055724478974
 30
0.0
 40
0.0075180969377257
 50
174.7799585402972866
 51
224.4529879587173014
  0
LINE
  5
8E47
  8
0
 10
4060.2473429971391852
 20
136.3030003197166025
 30
0.0
 11
4060.2469383490729342
 21
136.2985711512278897
 31
0.0
  0
ARC
  5
8E48
  8
0
 10
4060.2544262895489737
 20
136.297887054281091
 30
0.0
 40
0.0075191250305244
 50
174.7799585402842979
 51
224.4437194996480969
  0
LINE
  5
8E49
  8
0
 10
4060.2504635670179596
 20
136.312981844244689
 30
0.0
 11
4060.250058988019191
 21
136.3085534316446967
 31
0.0
  0
ARC
  5
8E4A
  8
0
 10
4060.257548452716037
 20
136.3078691954609099
 30
0.0
 40
0.0075206555965339
 50
174.7799586575135891
 51
224.438325149232611
  0
LINE
  5
8E4B
  8
0
 10
4060.2536090687740398
 20
136.3230389710020063
 30
0.0
 11
4060.2531795625181985
 21
136.3185350067446961
 31
0.0
  0
ARC
  5
8E4C
  8
0
 10
4060.2606026606417799
 20
136.317827126554505
 30
0.0
 40
0.0074567741089812
 50
174.5526425352682054
 51
224.6656412713992097
  0
ARC
  5
8E4D
  8
0
 10
4060.3284426164141223
 20
136.3325200420208034
 30
0.0
 40
0.0065064415243248
 50
246.2591724160874094
 51
264.5401035988236913
  0
ARC
  5
8E4E
  8
0
 10
4060.3288028477618354
 20
136.3289132891148085
 30
0.0
 40
0.0030326431730248
 50
251.1601601889873905
 51
266.9087490036810095
  0
LINE
  5
8E4F
  8
0
 10
4060.3286393084249539
 20
136.3258850586908864
 30
0.0
 11
4060.3562183923518205
 21
136.3231783420237093
 31
0.0
  0
LINE
  5
8E50
  8
0
 10
4060.3562183923518205
 20
136.3231783420237093
 30
0.0
 11
4060.3605141701568755
 21
136.322756737977187
 31
0.0
  0
ARC
  5
8E51
  8
0
 10
4060.3845210199569919
 20
135.7867452883930923
 30
0.0
 40
0.5365487889489446
 50
92.3112345779742753
 51
92.5644462497067622
  0
LINE
  5
8E52
  8
0
 10
4060.3628832337558379
 20
136.3228575985772011
 30
0.0
 11
4060.3798832878401299
 21
136.3260025282847039
 31
0.0
  0
LINE
  5
8E53
  8
0
 10
4060.3227025475571281
 20
136.3165826268771923
 30
0.0
 11
4060.3247029603949159
 21
136.3160615449735076
 31
0.0
  0
LINE
  5
8E54
  8
0
 10
4060.3247029603949159
 20
136.3160615449735076
 30
0.0
 11
4060.3579334958571962
 21
136.3128001732771963
 31
0.0
  0
LINE
  5
8E55
  8
0
 10
4060.3579334958571962
 20
136.3128001732771963
 30
0.0
 11
4060.3597626592568304
 21
136.3128760234772017
 31
0.0
  0
LINE
  5
8E56
  8
0
 10
4060.3597626592568304
 20
136.3128760234772017
 30
0.0
 11
4060.3766902470129025
 21
136.3160052554032973
 31
0.0
  0
LINE
  5
8E57
  8
0
 10
4060.3655822387217995
 20
136.3205146483730061
 30
0.0
 11
4060.3558138133571447
 21
136.3187499294772067
 31
0.0
  0
LINE
  5
8E58
  8
0
 10
4060.3558138133571447
 20
136.3187499294772067
 30
0.0
 11
4060.3282347294598367
 21
136.3214566462025914
 31
0.0
  0
LINE
  5
8E59
  8
0
 10
4060.3282347294598367
 20
136.3214566462025914
 30
0.0
 11
4060.3211911778980721
 21
136.3245545372031984
 31
0.0
  0
LINE
  5
8E5A
  8
0
 10
4060.3286393084249539
 20
136.3258850586908864
 30
0.0
 11
4060.3282347294598367
 21
136.3214566462025914
 31
0.0
  0
ARC
  5
8E5B
  8
0
 10
4060.3213932948360707
 20
136.3220816784343867
 30
0.0
 40
0.0068699267098313
 50
298.8005056145685785
 51
354.7799589723088047
  0
LINE
  5
8E5C
  8
0
 10
4060.3562183923518205
 20
136.3231783420237093
 30
0.0
 11
4060.3557840576290801
 21
136.3187528498181109
 31
0.0
  0
ARC
  5
8E5D
  8
0
 10
4060.3631102232147896
 20
136.3180338319203884
 30
0.0
 40
0.0073613646108358
 50
174.3947242325371008
 51
225.3133303452848111
  0
ARC
  5
8E5E
  8
0
 10
4060.3271493696220205
 20
136.3290640037878916
 30
0.0
 40
0.0030951958362414
 50
282.5804424868330784
 51
317.0787695150845025
  0
ARC
  5
8E5F
  8
0
 10
4060.3240290142989579
 20
136.3319476896701019
 30
0.0
 40
0.0073439824522581
 50
317.1820779259264214
 51
356.0220690827862882
  0
LINE
  5
8E60
  8
0
 10
4060.3313553039579347
 20
136.3314382212398925
 30
0.0
 11
4060.3589343878661566
 21
136.328731504667104
 31
0.0
  0
LINE
  5
8E61
  8
0
 10
4060.3589343878661566
 20
136.328731504667104
 30
0.0
 11
4060.368681639496117
 21
136.3304831153589021
 31
0.0
  0
LINE
  5
8E62
  8
0
 10
4060.3593062915738301
 20
136.3331631240496904
 30
0.0
 11
4060.358934387545105
 21
136.3287315046077879
 31
0.0
  0
ARC
  5
8E63
  8
0
 10
4060.3665504262271497
 20
136.3280923623011063
 30
0.0
 40
0.0076428102228498
 50
175.202945801910289
 51
224.0153408320570918
  0
LINE
  5
8E64
  8
0
 10
4060.3215823859568445
 20
136.306079969877203
 30
0.0
 11
4060.3548129213568245
 21
136.3028185981771969
 31
0.0
  0
LINE
  5
8E65
  8
0
 10
4060.3548129213568245
 20
136.3028185981771969
 30
0.0
 11
4060.3729884763570226
 21
136.3061786998771936
 31
0.0
  0
LINE
  5
8E66
  8
0
 10
4060.322435565422893
 20
136.3059962355848995
 30
0.0
 11
4060.3219885585422162
 21
136.3014404890693072
 31
0.0
  0
ARC
  5
8E67
  8
0
 10
4060.315165117216111
 20
136.3021100006878896
 30
0.0
 40
0.0068562086715358
 50
298.7398479328883809
 51
354.3961131268276858
  0
LINE
  5
8E68
  8
0
 10
4060.3149500290578544
 20
136.3045913870327865
 30
0.0
 11
4060.3219935804568195
 21
136.301493495977212
 31
0.0
  0
LINE
  5
8E69
  8
0
 10
4060.3219935804568195
 20
136.301493495977212
 30
0.0
 11
4060.349572664356856
 21
136.2987867793771954
 31
0.0
  0
LINE
  5
8E6A
  8
0
 10
4060.349572664356856
 20
136.2987867793771954
 30
0.0
 11
4060.3592813759091769
 21
136.3005312652809948
 31
0.0
  0
LINE
  5
8E6B
  8
0
 10
4060.3164613985568394
 20
136.2966194767772095
 30
0.0
 11
4060.318461811457837
 21
136.2960983948771911
 31
0.0
  0
LINE
  5
8E6C
  8
0
 10
4060.318461811457837
 20
136.2960983948771911
 30
0.0
 11
4060.319277584925203
 21
136.2959403334909041
 31
0.0
  0
LINE
  5
8E6D
  8
0
 10
4060.319277584925203
 20
136.2959403334909041
 30
0.0
 11
4060.351152446656215
 21
136.2928120127772047
 31
0.0
  0
LINE
  5
8E6E
  8
0
 10
4060.351152446656215
 20
136.2928120127772047
 30
0.0
 11
4060.3516923468750974
 21
136.292837023144898
 31
0.0
  0
ARC
  5
8E6F
  8
0
 10
4060.3523366089070805
 20
136.2994001533890867
 30
0.0
 40
0.0065946760473923
 50
264.3935885775014754
 51
275.8285156926580157
  0
LINE
  5
8E70
  8
0
 10
4060.3530063076877923
 20
136.292839569900309
 30
0.0
 11
4060.370457196308962
 21
136.2960434508775052
 31
0.0
  0
LINE
  5
8E71
  8
0
 10
4060.3119096158629873
 20
136.2945745554310975
 30
0.0
 11
4060.318873005955993
 21
136.2915119209772001
 31
0.0
  0
LINE
  5
8E72
  8
0
 10
4060.318873005955993
 20
136.2915119209772001
 30
0.0
 11
4060.3464520898578485
 21
136.288805204277196
 31
0.0
  0
LINE
  5
8E73
  8
0
 10
4060.3464520898578485
 20
136.288805204277196
 30
0.0
 11
4060.3562543105581426
 21
136.2905326386112108
 31
0.0
  0
LINE
  5
8E74
  8
0
 10
4060.3133408240569224
 20
136.28663790167721
 30
0.0
 11
4060.3153412369570106
 21
136.2861168197771917
 31
0.0
  0
LINE
  5
8E75
  8
0
 10
4060.3153412369570106
 20
136.2861168197771917
 30
0.0
 11
4060.3158016421571119
 21
136.285994018177206
 31
0.0
  0
LINE
  5
8E76
  8
0
 10
4060.3158016421571119
 20
136.285994018177206
 30
0.0
 11
4060.3480318721572075
 21
136.2828304377771929
 31
0.0
  0
LINE
  5
8E77
  8
0
 10
4060.3480318721572075
 20
136.2828304377771929
 30
0.0
 11
4060.3485717723751804
 21
136.2828554480448986
 31
0.0
  0
ARC
  5
8E78
  8
0
 10
4060.3492167183571837
 20
136.2894325614772981
 30
0.0
 40
0.0066086592001014
 50
264.3995308578967069
 51
270.5209713618907017
  0
ARC
  5
8E79
  8
0
 10
4060.3492202528609596
 20
136.2893396464995135
 30
0.0
 40
0.0065157164807125
 50
270.4973210987780021
 51
280.4410515096939207
  0
LINE
  5
8E7A
  8
0
 10
4060.3504010558399386
 20
136.2829318180388043
 30
0.0
 11
4060.3672072406079678
 21
136.2860924139272072
 31
0.0
  0
LINE
  5
8E7B
  8
0
 10
4060.3530877585158123
 20
136.2805935026393058
 30
0.0
 11
4060.343331515357022
 21
136.2788236292772126
 31
0.0
  0
LINE
  5
8E7C
  8
0
 10
4060.343331515357022
 20
136.2788236292772126
 30
0.0
 11
4060.3157524314569855
 21
136.2815303458772007
 31
0.0
  0
LINE
  5
8E7D
  8
0
 10
4060.3157524314569855
 20
136.2815303458772007
 30
0.0
 11
4060.3087852298581311
 21
136.2845946567049964
 31
0.0
  0
LINE
  5
8E7E
  8
0
 10
4060.3102202495570054
 20
136.2766563266771982
 30
0.0
 11
4060.3122206624561841
 21
136.2761352446771923
 31
0.0
  0
LINE
  5
8E7F
  8
0
 10
4060.3122206624561841
 20
136.2761352446771923
 30
0.0
 11
4060.3126805756569411
 21
136.2760121088772109
 31
0.0
  0
LINE
  5
8E80
  8
0
 10
4060.312676716194801
 20
136.2760124876315899
 30
0.0
 11
4060.3449111096188062
 21
136.2728491917939948
 31
0.0
  0
LINE
  5
8E81
  8
0
 10
4060.3449111096188062
 20
136.2728491917939948
 30
0.0
 11
4060.345451197957118
 21
136.2728738729771862
 31
0.0
  0
ARC
  5
8E82
  8
0
 10
4060.3460951399288206
 20
136.2794243678814894
 30
0.0
 40
0.0065820699445168
 50
264.3856160855780217
 51
278.0480949622121898
  0
LINE
  5
8E83
  8
0
 10
4060.347016658011853
 20
136.2729071254296116
 30
0.0
 11
4060.364096373557004
 21
136.2760583292771912
 31
0.0
  0
LINE
  5
8E84
  8
0
 10
4060.3243095407037799
 20
136.3345370850121867
 30
0.0
 11
4060.3313553039579347
 21
136.3314382212398925
 31
0.0
  0
LINE
  5
8E85
  8
0
 10
4060.3313553033540302
 20
136.3314382146297135
 30
0.0
 11
4060.3317598829798953
 21
136.3358666337495038
 31
0.0
  0
LINE
  5
8E86
  8
0
 10
4060.3153835318380516
 20
136.3425975806704002
 30
0.0
 11
4060.3202181932579151
 21
136.3403834231399117
 31
0.0
  0
LINE
  5
8E87
  8
0
 10
4060.3202181932579151
 20
136.3403834231399117
 30
0.0
 11
4060.3296008433831048
 21
136.3362989997922057
 31
0.0
  0
ARC
  5
8E88
  8
0
 10
4060.3315920354580157
 20
136.3426237089626909
 30
0.0
 40
0.0066307459589059
 50
252.5245669595938978
 51
264.3923704076821082
  0
ARC
  5
8E89
  8
0
 10
4060.3320579708911282
 20
136.3395653732528103
 30
0.0
 40
0.0037117501623326
 50
252.5369509765230021
 51
262.7224108338347719
  0
LINE
  5
8E8A
  8
0
 10
4060.3315877789009392
 20
136.335883524700705
 30
0.0
 11
4060.3317598829798953
 21
136.3358666337495038
 31
0.0
  0
LINE
  5
8E8B
  8
0
 10
4060.3317598829798953
 20
136.3358666337495038
 30
0.0
 11
4060.3636347446590662
 21
136.3327383131399131
 31
0.0
  0
LINE
  5
8E8C
  8
0
 10
4060.3636347446590662
 20
136.3327383131399131
 30
0.0
 11
4060.3660038082580286
 21
136.3328391736399112
 31
0.0
  0
LINE
  5
8E8D
  8
0
 10
4060.3660038082580286
 20
136.3328391736399112
 30
0.0
 11
4060.3828198205578701
 21
136.3359477797399109
 31
0.0
  0
LINE
  5
8E8E
  8
0
 10
4060.3730072054481752
 20
136.3407378128912057
 30
0.0
 11
4060.3620549623610714
 21
136.3387130796755002
 31
0.0
  0
LINE
  5
8E8F
  8
0
 10
4060.3620549623610714
 20
136.3387130796755002
 30
0.0
 11
4060.3346538605142086
 21
136.3414029015764015
 31
0.0
  0
ARC
  5
8E90
  8
0
 10
4060.3275059584111659
 20
136.3423647945595008
 30
0.0
 40
0.0072123326731234
 50
298.4703835261320251
 51
352.3357514148286214
  0
LINE
  5
8E91
  8
0
 10
4060.3626374714222038
 20
136.3431240294868019
 30
0.0
 11
4060.3620549623610714
 21
136.3387130796755002
 31
0.0
  0
ARC
  5
8E92
  8
0
 10
4060.3685203310751604
 20
136.337663990173894
 30
0.0
 40
0.0065499254340933
 50
170.7839055909952037
 51
228.4348611174929999
  0
LINE
  5
8E93
  8
0
 10
4060.3177034935852134
 20
136.3147675585827869
 30
0.0
 11
4060.3251141549590102
 21
136.3114750710398937
 31
0.0
  0
LINE
  5
8E94
  8
0
 10
4060.3251141549590102
 20
136.3114750710398937
 30
0.0
 11
4060.3526932388590467
 21
136.3087683544399056
 31
0.0
  0
LINE
  5
8E95
  8
0
 10
4060.3526932388590467
 20
136.3087683544399056
 30
0.0
 11
4060.3624153422038034
 21
136.3105153161122018
 31
0.0
  0
LINE
  5
8E96
  8
0
 10
4060.353098647366096
 20
136.3132746837779905
 30
0.0
 11
4060.3526567306521429
 21
136.3087719374944982
 31
0.0
  0
ARC
  5
8E97
  8
0
 10
4060.359971415837208
 20
136.3080540463606951
 30
0.0
 40
0.0073498290467963
 50
174.3947244909973051
 51
225.4241907540128977
  0
ARC
  5
8E98
  8
0
 10
4060.3157846284129846
 20
136.3137635202409967
 30
0.0
 40
0.0096255359176988
 50
307.037019532046827
 51
346.1972050473140143
  0
LINE
  5
8E99
  8
0
 10
4060.3251322042920037
 20
136.3114670518895082
 30
0.0
 11
4060.3255107794980177
 21
136.3159822625206914
 31
0.0
  0
ARC
  5
8E9A
  8
0
 10
4060.31168387978596
 20
136.2787906788198029
 30
0.0
 40
0.0027091494854721
 50
281.4282531331065798
 51
308.973283844327625
  0
ARC
  5
8E9B
  8
0
 10
4060.309914183571891
 20
136.2809781564045863
 30
0.0
 40
0.0055228450752697
 50
308.9732838443266019
 51
332.0648380172693805
  0
ARC
  5
8E9C
  8
0
 10
4060.3071597250032028
 20
136.2824387321246888
 30
0.0
 40
0.0086405884002172
 50
332.0648380172680163
 51
353.965335677175915
  0
LINE
  5
8E9D
  8
0
 10
4060.3157524313492104
 20
136.281530345887802
 30
0.0
 11
4060.3161572291578523
 21
136.2859611526399135
 31
0.0
  0
ARC
  5
8E9E
  8
0
 10
4060.3148058186761773
 20
136.2887529077960949
 30
0.0
 40
0.0026899160194571
 50
281.4813398294822946
 51
306.5519871264962148
  0
ARC
  5
8E9F
  8
0
 10
4060.3133927562048484
 20
136.2906589328030122
 30
0.0
 40
0.0050626100311257
 50
306.5519871264962148
 51
331.635508643387027
  0
ARC
  5
8EA0
  8
0
 10
4060.3098958863151893
 20
136.2925468834989999
 30
0.0
 40
0.009036582459466
 50
331.6355086433912902
 51
353.423465706153479
  0
LINE
  5
8EA1
  8
0
 10
4060.3188730058500369
 20
136.2915119209878014
 30
0.0
 11
4060.319277584925203
 21
136.2959403334909041
 31
0.0
  0
LINE
  5
8EA2
  8
0
 10
4060.3499908676221821
 20
136.3032918529532083
 30
0.0
 11
4060.3495726643659509
 21
136.2987867794143142
 31
0.0
  0
ARC
  5
8EA3
  8
0
 10
4060.3570376216339355
 20
136.2980938119376049
 30
0.0
 40
0.0074970521513574
 50
174.6964665677944026
 51
224.5218141629505908
  0
LINE
  5
8EA4
  8
0
 10
4060.3468566688561623
 20
136.2932336168233007
 30
0.0
 11
4060.3464520900788557
 21
136.2888052043182086
 31
0.0
  0
ARC
  5
8EA5
  8
0
 10
4060.353941555495112
 20
136.2881209684298938
 30
0.0
 40
0.0075206562862048
 50
174.7799613979472042
 51
224.4383234429764116
  0
LINE
  5
8EA6
  8
0
 10
4060.3437360989728404
 20
136.2832520923496133
 30
0.0
 11
4060.3433017593101795
 21
136.2788265496120061
 31
0.0
  0
ARC
  5
8EA7
  8
0
 10
4060.3506279289649683
 20
136.2781075313484109
 30
0.0
 40
0.0073613686959652
 50
174.3947244909988967
 51
225.3132963656761092
  0
LINE
  5
8EA8
  8
0
 10
4060.3102202495570054
 20
136.2766563266771982
 30
0.0
 11
4060.296626101990114
 21
136.2827319852410142
 31
0.0
  0
LINE
  5
8EA9
  8
0
 10
4060.3133408240569224
 20
136.28663790167721
 30
0.0
 11
4060.2997475564379783
 21
136.2927131671247878
 31
0.0
  0
LINE
  5
8EAA
  8
0
 10
4060.3164613985568394
 20
136.2966194767772095
 30
0.0
 11
4060.3028681369469268
 21
136.3026947394378965
 31
0.0
  0
LINE
  5
8EAB
  8
0
 10
4060.3215823859568445
 20
136.306079969877203
 30
0.0
 11
4060.3051706356709474
 21
136.3128346017882109
 31
0.0
  0
LINE
  5
8EAC
  8
0
 10
4060.3227025475571281
 20
136.3165826268771923
 30
0.0
 11
4060.3088856594317804
 21
136.3227578353663887
 31
0.0
  0
LINE
  5
8EAD
  8
0
 10
4060.3258231220579546
 20
136.3265642019771917
 30
0.0
 11
4060.3122812600199723
 21
136.3326164925840942
 31
0.0
  0
LINE
  5
8EAE
  8
0
 10
4060.3346538605142086
 20
136.3414029015764015
 30
0.0
 11
4060.327610256988919
 21
136.3445002245576916
 31
0.0
  0
LINE
  5
8EAF
  8
0
 10
4060.3669332493182083
 20
136.3427024254447133
 30
0.0
 11
4060.3347122347190634
 21
136.345813162044692
 31
0.0
  0
LINE
  5
8EB0
  8
0
 10
4060.3347122347190634
 20
136.345813162044692
 30
0.0
 11
4060.323428746216905
 21
136.3504293612402023
 31
0.0
  0
ARC
  5
8EB1
  8
0
 10
4060.331574267248925
 20
136.3518112452680953
 30
0.0
 40
0.0064047526553933
 50
294.621363905360397
 51
344.3045435044588203
  0
LINE
  5
8EB2
  8
0
 10
4060.3346538086188957
 20
136.3414023335446927
 30
0.0
 11
4060.3350537686669668
 21
136.3457801890870087
 31
0.0
  0
LINE
  5
8EB3
  8
0
 10
4060.3449111096188062
 20
136.2728491917939948
 30
0.0
 11
4060.3589476709189512
 21
136.2666399173446905
 31
0.0
  0
ARC
  5
8EB4
  8
0
 10
4060.3606505783827743
 20
136.2719544495296873
 30
0.0
 40
0.005580694058683
 50
252.2332570674242049
 51
348.0298239851817925
  0
ARC
  5
8EB5
  8
0
 10
4060.4262768539188073
 20
136.2646069153670112
 30
0.0
 40
0.0604845152512113
 50
171.627399545415102
 51
174.1259717226737109
  0
LINE
  5
8EB6
  8
0
 10
4060.366436977882131
 20
136.2734140613804925
 30
0.0
 11
4060.3666602790231082
 21
136.2758582546908883
 31
0.0
  0
LINE
  5
8EB7
  8
0
 10
4060.3480307938948499
 20
136.2828305436146934
 30
0.0
 11
4060.3618042702191815
 21
136.2767375939446879
 31
0.0
  0
ARC
  5
8EB8
  8
0
 10
4060.3655812007891655
 20
136.2852755708850907
 30
0.0
 40
0.0093360727700322
 50
246.1369192418962939
 51
260.8487079590844928
  0
LINE
  5
8EB9
  8
0
 10
4060.364096373557004
 20
136.2760583292771912
 30
0.0
 11
4060.3666602760890783
 21
136.2758582225808084
 31
0.0
  0
ARC
  5
8EBA
  8
0
 10
4060.3829692813637848
 20
136.3426003470707997
 30
0.0
 40
0.0065064415243248
 50
246.2591724160874094
 51
264.5401035988236913
  0
ARC
  5
8EBB
  8
0
 10
4060.3833295127119527
 20
136.3389935941648048
 30
0.0
 40
0.0030326431730248
 50
251.1601601889873905
 51
266.9087490036810095
  0
LINE
  5
8EBC
  8
0
 10
4060.3831659733750712
 20
136.335965363740911
 30
0.0
 11
4060.4107450573028473
 21
136.3332586470737056
 31
0.0
  0
LINE
  5
8EBD
  8
0
 10
4060.4107450573028473
 20
136.3332586470737056
 30
0.0
 11
4060.4150408351069927
 21
136.3328370430272116
 31
0.0
  0
ARC
  5
8EBE
  8
0
 10
4060.4390476849080187
 20
135.7968255934430886
 30
0.0
 40
0.5365487889489446
 50
92.3112345779742753
 51
92.5644462497067622
  0
LINE
  5
8EBF
  8
0
 10
4060.4174098987068646
 20
136.3329379036271973
 30
0.0
 11
4060.4344099527897924
 21
136.3360828333348138
 31
0.0
  0
LINE
  5
8EC0
  8
0
 10
4060.3772292125067906
 20
136.3266629319271885
 30
0.0
 11
4060.3792296253450331
 21
136.3261418500235038
 31
0.0
  0
LINE
  5
8EC1
  8
0
 10
4060.3792296253450331
 20
136.3261418500235038
 30
0.0
 11
4060.4124601608068588
 21
136.3228804783271926
 31
0.0
  0
LINE
  5
8EC2
  8
0
 10
4060.4124601608068588
 20
136.3228804783271926
 30
0.0
 11
4060.4142893242069476
 21
136.3229563285271979
 31
0.0
  0
LINE
  5
8EC3
  8
0
 10
4060.4142893242069476
 20
136.3229563285271979
 30
0.0
 11
4060.4312735593189245
 21
136.3260999814447132
 31
0.0
  0
LINE
  5
8EC4
  8
0
 10
4060.4203344558040953
 20
136.3304733305463117
 30
0.0
 11
4060.4103404783068072
 21
136.3288302345272029
 31
0.0
  0
LINE
  5
8EC5
  8
0
 10
4060.4103404783068072
 20
136.3288302345272029
 30
0.0
 11
4060.3827613944099539
 21
136.3315369512525876
 31
0.0
  0
LINE
  5
8EC6
  8
0
 10
4060.3827613944099539
 20
136.3315369512525876
 30
0.0
 11
4060.3757178428468251
 21
136.3346348422531946
 31
0.0
  0
LINE
  5
8EC7
  8
0
 10
4060.3831659733750712
 20
136.335965363740911
 30
0.0
 11
4060.3827613944099539
 21
136.3315369512525876
 31
0.0
  0
ARC
  5
8EC8
  8
0
 10
4060.375919959786188
 20
136.3321619834844114
 30
0.0
 40
0.0068699267098313
 50
298.8005056145685785
 51
354.7799589723088047
  0
LINE
  5
8EC9
  8
0
 10
4060.4107450573028473
 20
136.3332586470737056
 30
0.0
 11
4060.4103107225791973
 21
136.3288331548681072
 31
0.0
  0
ARC
  5
8ECA
  8
0
 10
4060.4176368881649068
 20
136.328114136970413
 30
0.0
 40
0.0073613646108358
 50
174.3947242325371008
 51
225.3133303452848111
  0
ARC
  5
8ECB
  8
0
 10
4060.3816760345707735
 20
136.3391443088378878
 30
0.0
 40
0.0030951958362414
 50
282.5804424868330784
 51
317.0787695150845025
  0
ARC
  5
8ECC
  8
0
 10
4060.3785556792490752
 20
136.3420279947200981
 30
0.0
 40
0.0073439824522581
 50
317.1820779259264214
 51
356.0220690827862882
  0
LINE
  5
8ECD
  8
0
 10
4060.3858819689080519
 20
136.3415185262898888
 30
0.0
 11
4060.4134610528149096
 21
136.3388118097171002
 31
0.0
  0
LINE
  5
8ECE
  8
0
 10
4060.4134610528149096
 20
136.3388118097171002
 30
0.0
 11
4060.4230303742078831
 21
136.3405808831271884
 31
0.0
  0
LINE
  5
8ECF
  8
0
 10
4060.4138329565239474
 20
136.3432434290996866
 30
0.0
 11
4060.4134610524952222
 21
136.3388118096578978
 31
0.0
  0
ARC
  5
8ED0
  8
0
 10
4060.4210770911768122
 20
136.3381726673511025
 30
0.0
 40
0.0076428102228498
 50
175.202945801910289
 51
224.0153408320570918
  0
LINE
  5
8ED1
  8
0
 10
4060.3761090509069618
 20
136.3161602749271992
 30
0.0
 11
4060.4093395863069418
 21
136.3128989032271932
 31
0.0
  0
LINE
  5
8ED2
  8
0
 10
4060.4093395863069418
 20
136.3128989032271932
 30
0.0
 11
4060.4275151413071399
 21
136.3162590049271898
 31
0.0
  0
LINE
  5
8ED3
  8
0
 10
4060.3769622303730102
 20
136.3160765406348958
 30
0.0
 11
4060.3765152234918787
 21
136.3115207941193034
 31
0.0
  0
ARC
  5
8ED4
  8
0
 10
4060.3696917821657735
 20
136.3121903057379996
 30
0.0
 40
0.0068562086715358
 50
298.7398479328883809
 51
354.3961131268276858
  0
LINE
  5
8ED5
  8
0
 10
4060.3694766940079717
 20
136.3146716920828112
 30
0.0
 11
4060.3765202454078462
 21
136.3115738010272082
 31
0.0
  0
LINE
  5
8ED6
  8
0
 10
4060.3765202454078462
 20
136.3115738010272082
 30
0.0
 11
4060.4040993293069732
 21
136.3088670844271917
 31
0.0
  0
LINE
  5
8ED7
  8
0
 10
4060.4040993293069732
 20
136.3088670844271917
 30
0.0
 11
4060.4136686508400089
 21
136.3106361579330894
 31
0.0
  0
LINE
  5
8ED8
  8
0
 10
4060.3709880635069567
 20
136.3066997818272057
 30
0.0
 11
4060.3729884764079543
 21
136.3061786999271874
 31
0.0
  0
LINE
  5
8ED9
  8
0
 10
4060.3729884764079543
 20
136.3061786999271874
 30
0.0
 11
4060.373804249873956
 21
136.3060206385409003
 31
0.0
  0
LINE
  5
8EDA
  8
0
 10
4060.373804249873956
 20
136.3060206385409003
 30
0.0
 11
4060.405679111606787
 21
136.3028923178272009
 31
0.0
  0
LINE
  5
8EDB
  8
0
 10
4060.405679111606787
 20
136.3028923178272009
 30
0.0
 11
4060.4062190118252147
 21
136.3029173281948943
 31
0.0
  0
ARC
  5
8EDC
  8
0
 10
4060.4068632738581073
 20
136.3094804584391113
 30
0.0
 40
0.0065946760473923
 50
264.3935885775014754
 51
275.8285156926580157
  0
LINE
  5
8EDD
  8
0
 10
4060.4075329726379096
 20
136.3029198749503053
 30
0.0
 11
4060.4249838612599888
 21
136.3061237559275014
 31
0.0
  0
LINE
  5
8EDE
  8
0
 10
4060.3661394003711393
 20
136.3049125161560085
 30
0.0
 11
4060.3733996709070198
 21
136.3015922260271964
 31
0.0
  0
LINE
  5
8EDF
  8
0
 10
4060.3733996709070198
 20
136.3015922260271964
 30
0.0
 11
4060.4009787548070562
 21
136.2988855093271923
 31
0.0
  0
LINE
  5
8EE0
  8
0
 10
4060.4009787548070562
 20
136.2988855093271923
 30
0.0
 11
4060.4107970639661289
 21
136.3006283879645082
 31
0.0
  0
LINE
  5
8EE1
  8
0
 10
4060.3678674890079492
 20
136.2967182067272063
 30
0.0
 11
4060.3698679019071278
 21
136.296197124827188
 31
0.0
  0
LINE
  5
8EE2
  8
0
 10
4060.3698679019071278
 20
136.296197124827188
 30
0.0
 11
4060.3703283071067744
 21
136.2960743232272023
 31
0.0
  0
LINE
  5
8EE3
  8
0
 10
4060.3703283071067744
 20
136.2960743232272023
 30
0.0
 11
4060.4025585371068701
 21
136.2929107428271891
 31
0.0
  0
LINE
  5
8EE4
  8
0
 10
4060.4025585371068701
 20
136.2929107428271891
 30
0.0
 11
4060.403098437324843
 21
136.2929357530948948
 31
0.0
  0
ARC
  5
8EE5
  8
0
 10
4060.4037433833059367
 20
136.2995128665272944
 30
0.0
 40
0.0066086592001014
 50
264.3995308578967069
 51
270.5209713618907017
  0
ARC
  5
8EE6
  8
0
 10
4060.4037469178110769
 20
136.2994199515495097
 30
0.0
 40
0.0065157164807125
 50
270.4973210987780021
 51
280.4410515096939207
  0
LINE
  5
8EE7
  8
0
 10
4060.4049277207900559
 20
136.2930121230888005
 30
0.0
 11
4060.4218232550729226
 21
136.2961670317095866
 31
0.0
  0
LINE
  5
8EE8
  8
0
 10
4060.4076054319962168
 20
136.290655545058911
 30
0.0
 11
4060.3978581803071393
 21
136.2889039343272088
 31
0.0
  0
LINE
  5
8EE9
  8
0
 10
4060.3978581803071393
 20
136.2889039343272088
 30
0.0
 11
4060.3702790964071028
 21
136.291610650927197
 31
0.0
  0
LINE
  5
8EEA
  8
0
 10
4060.3702790964071028
 20
136.291610650927197
 30
0.0
 11
4060.3632355449071838
 21
136.2947085419272071
 31
0.0
  0
LINE
  5
8EEB
  8
0
 10
4060.3647469145071227
 20
136.2867366317271944
 30
0.0
 11
4060.3667473274072108
 21
136.2862155497271885
 31
0.0
  0
LINE
  5
8EEC
  8
0
 10
4060.3667473274072108
 20
136.2862155497271885
 30
0.0
 11
4060.3672072406079678
 21
136.2860924139272072
 31
0.0
  0
LINE
  5
8EED
  8
0
 10
4060.3672033811449182
 20
136.2860927926815862
 30
0.0
 11
4060.3994377745689235
 21
136.2829294968441047
 31
0.0
  0
LINE
  5
8EEE
  8
0
 10
4060.3994377745689235
 20
136.2829294968441047
 30
0.0
 11
4060.3999778629067805
 21
136.2829541780272109
 31
0.0
  0
ARC
  5
8EEF
  8
0
 10
4060.4006218048789378
 20
136.2895046729315141
 30
0.0
 40
0.0065820699445168
 50
264.3856160855780217
 51
278.0480949622121898
  0
LINE
  5
8EF0
  8
0
 10
4060.4015433229619703
 20
136.2829874304796078
 30
0.0
 11
4060.4187912613178923
 21
136.2861736811447031
 31
0.0
  0
LINE
  5
8EF1
  8
0
 10
4060.3790163474768633
 20
136.344598954563196
 30
0.0
 11
4060.3858819689080519
 21
136.3415185262898888
 31
0.0
  0
LINE
  5
8EF2
  8
0
 10
4060.3858819683041474
 20
136.3415185196797097
 30
0.0
 11
4060.3862865479291031
 21
136.3459469387993863
 31
0.0
  0
LINE
  5
8EF3
  8
0
 10
4060.3788521186052094
 20
136.3486757695606002
 30
0.0
 11
4060.3841275083318578
 21
136.3463793048422019
 31
0.0
  0
ARC
  5
8EF4
  8
0
 10
4060.3861187004072235
 20
136.3527040140128008
 30
0.0
 40
0.0066307459589059
 50
252.5245669595938978
 51
264.3923704076821082
  0
ARC
  5
8EF5
  8
0
 10
4060.3865846358398812
 20
136.3496456783028066
 30
0.0
 40
0.0037117501623326
 50
252.5369509765230021
 51
262.7224108338347719
  0
LINE
  5
8EF6
  8
0
 10
4060.3861144438519659
 20
136.3459638297507013
 30
0.0
 11
4060.3862865479291031
 21
136.3459469387993863
 31
0.0
  0
LINE
  5
8EF7
  8
0
 10
4060.3862865479291031
 20
136.3459469387993863
 30
0.0
 11
4060.4181614096078192
 21
136.3428186181899093
 31
0.0
  0
LINE
  5
8EF8
  8
0
 10
4060.4181614096078192
 20
136.3428186181899093
 30
0.0
 11
4060.4205304732081458
 21
136.3429194786899075
 31
0.0
  0
LINE
  5
8EF9
  8
0
 10
4060.4205304732081458
 20
136.3429194786899075
 30
0.0
 11
4060.4373464855088969
 21
136.3460280847899071
 31
0.0
  0
ARC
  5
8EFA
  8
0
 10
4060.3825061272241328
 20
136.3519037637753968
 30
0.0
 40
0.0065126639295384
 50
297.0786181189648119
 51
326.5329584287331954
  0
ARC
  5
8EFB
  8
0
 10
4060.4230469960248229
 20
136.347744295224004
 30
0.0
 40
0.0065499254340933
 50
186.065415994304999
 51
228.4348611174929999
  0
LINE
  5
8EFC
  8
0
 10
4060.3726451179531978
 20
136.3246635010441992
 30
0.0
 11
4060.3796408199091275
 21
136.3215553760898899
 31
0.0
  0
LINE
  5
8EFD
  8
0
 10
4060.3796408199091275
 20
136.3215553760898899
 30
0.0
 11
4060.4072199038077997
 21
136.3188486594899018
 31
0.0
  0
LINE
  5
8EFE
  8
0
 10
4060.4072199038077997
 20
136.3188486594899018
 30
0.0
 11
4060.4169671554182059
 21
136.3206002703446131
 31
0.0
  0
LINE
  5
8EFF
  8
0
 10
4060.4076253123171227
 20
136.3233549888279867
 30
0.0
 11
4060.4071833956031696
 21
136.3188522425446081
 31
0.0
  0
ARC
  5
8F00
  8
0
 10
4060.4144980807868706
 20
136.3181343514106914
 30
0.0
 40
0.0073498290467963
 50
174.3947244909973051
 51
225.4241907540128977
  0
ARC
  5
8F01
  8
0
 10
4060.3703112933640114
 20
136.323843825290993
 30
0.0
 40
0.0096255359176988
 50
307.037019532046827
 51
346.1972050473140143
  0
LINE
  5
8F02
  8
0
 10
4060.379658869242121
 20
136.3215473569395044
 30
0.0
 11
4060.3800374444481349
 21
136.3260625675706876
 31
0.0
  0
ARC
  5
8F03
  8
0
 10
4060.3662105447360773
 20
136.2888709838697991
 30
0.0
 40
0.0027091494854721
 50
281.4282531331065798
 51
308.973283844327625
  0
ARC
  5
8F04
  8
0
 10
4060.3644408485220083
 20
136.291058461454611
 30
0.0
 40
0.0055228450752697
 50
308.9732838443266019
 51
332.0648380172693805
  0
ARC
  5
8F05
  8
0
 10
4060.3616863899537748
 20
136.2925190371747135
 30
0.0
 40
0.0086405884002172
 50
332.0648380172680163
 51
353.965335677175915
  0
LINE
  5
8F06
  8
0
 10
4060.3702790962988729
 20
136.2916106509377983
 30
0.0
 11
4060.370683894108879
 21
136.2960414576899097
 31
0.0
  0
ARC
  5
8F07
  8
0
 10
4060.3693324836258398
 20
136.2988332128460911
 30
0.0
 40
0.0026899160194571
 50
281.4813398294822946
 51
306.5519871264962148
  0
ARC
  5
8F08
  8
0
 10
4060.3679194211549657
 20
136.3007392378528948
 30
0.0
 40
0.0050626100311257
 50
306.5519871264962148
 51
331.635508643387027
  0
ARC
  5
8F09
  8
0
 10
4060.3644225512639423
 20
136.3026271885489962
 30
0.0
 40
0.009036582459466
 50
331.6355086433912902
 51
353.423465706153479
  0
LINE
  5
8F0A
  8
0
 10
4060.3733996707987899
 20
136.3015922260377977
 30
0.0
 11
4060.373804249873956
 21
136.3060206385409003
 31
0.0
  0
LINE
  5
8F0B
  8
0
 10
4060.4045175325718446
 20
136.3133721580032045
 30
0.0
 11
4060.4040993293151587
 21
136.3088670844643104
 31
0.0
  0
ARC
  5
8F0C
  8
0
 10
4060.4115642865840528
 20
136.3081741169874874
 30
0.0
 40
0.0074970521513574
 50
174.6964665677944026
 51
224.5218141629505908
  0
LINE
  5
8F0D
  8
0
 10
4060.401383333807189
 20
136.303313921873297
 30
0.0
 11
4060.400978755028973
 21
136.2988855093682048
 31
0.0
  0
ARC
  5
8F0E
  8
0
 10
4060.4084682204461387
 20
136.29820127347989
 30
0.0
 40
0.0075206562862048
 50
174.7799613979472042
 51
224.4383234429764116
  0
LINE
  5
8F0F
  8
0
 10
4060.3982627639229577
 20
136.2933323973996096
 30
0.0
 11
4060.397828424259842
 21
136.2889068546620024
 31
0.0
  0
ARC
  5
8F10
  8
0
 10
4060.4051545939150856
 20
136.2881878363984072
 30
0.0
 40
0.0073613686959652
 50
174.3947244909988967
 51
225.3132963656761092
  0
LINE
  5
8F11
  8
0
 10
4060.3669332493182083
 20
136.3427024254447133
 30
0.0
 11
4060.3693024071189939
 21
136.3428031454446909
 31
0.0
  0
LINE
  5
8F12
  8
0
 10
4060.3693024071189939
 20
136.3428031454446909
 30
0.0
 11
4060.3863004962208834
 21
136.3459455698657905
 31
0.0
  0
LINE
  5
8F13
  8
0
 10
4060.3803497870071624
 20
136.336644507027188
 30
0.0
 11
4060.3693024071189939
 21
136.3428031454446909
 31
0.0
  0
LINE
  5
8F14
  8
0
 10
4060.3636347443070918
 20
136.3327383131249064
 30
0.0
 11
4060.3772292125067906
 21
136.3266629319271885
 31
0.0
  0
ARC
  5
8F15
  8
0
 10
4060.3770147401751274
 20
136.322987141238201
 30
0.0
 40
0.0068866810997422
 50
246.6621632092845005
 51
262.4429604897910053
  0
LINE
  5
8F16
  8
0
 10
4060.3742865681178955
 20
136.3166638941445967
 30
0.0
 11
4060.3605141701568755
 21
136.322756737977187
 31
0.0
  0
LINE
  5
8F17
  8
0
 10
4060.3709880635069567
 20
136.3066997818272057
 30
0.0
 11
4060.3570973629548462
 21
136.3128822345543938
 31
0.0
  0
LINE
  5
8F18
  8
0
 10
4060.3539373377448101
 20
136.3029045312979974
 30
0.0
 11
4060.3678674890079492
 21
136.2967182067272063
 31
0.0
  0
LINE
  5
8F19
  8
0
 10
4060.351152446656215
 20
136.2928120127772047
 30
0.0
 11
4060.3647469145071227
 21
136.2867366317271944
 31
0.0
  0
LINE
  5
8F1A
  8
0
 10
4060.3601922596280929
 20
136.2847731662606066
 30
0.0
 11
4060.3673364521191615
 21
136.2816116131446904
 31
0.0
  0
LINE
  5
8F1B
  8
0
 10
4060.3673364521191615
 20
136.2816116131446904
 30
0.0
 11
4060.3677707868150719
 21
136.2860371053187123
 31
0.0
  0
LINE
  5
8F1C
  8
0
 10
4060.3673364521191615
 20
136.2816116131446904
 30
0.0
 11
4060.3670386814710582
 21
136.28006947331221
 31
0.0
  0
LINE
  5
8F1D
  8
0
 10
4060.3670386814710582
 20
136.28006947331221
 30
0.0
 11
4060.364096373557004
 21
136.2760583292771912
 31
0.0
  0
LINE
  5
8F1E
  8
0
 10
4060.3666602760890783
 20
136.2758582225808084
 30
0.0
 11
4060.3970352185369848
 21
136.2729551403122912
 31
0.0
  0
LINE
  5
8F1F
  8
0
 10
4060.3930054145348549
 20
136.2733402884508109
 30
0.0
 11
4060.3664369779180561
 21
136.2734140613445959
 31
0.0
  0
LINE
  5
8F20
  8
0
 10
4060.3571004468908541
 20
136.2747675823106874
 30
0.0
 11
4060.3661099241089687
 21
136.2707969995705071
 31
0.0
  0
LINE
  5
8F21
  8
0
 10
4060.3673364521191615
 20
136.2816116131446904
 30
0.0
 11
4060.3949142892752207
 21
136.2789050189049078
 31
0.0
  0
LINE
  5
8F22
  8
0
 10
4060.3953201150188761
 20
136.2833333090445933
 30
0.0
 11
4060.3949142892752207
 21
136.2789050189049078
 31
0.0
  0
ARC
  5
8F23
  8
0
 10
4060.401805639180111
 20
136.2780071293757089
 30
0.0
 40
0.0069483456644681
 50
172.5762939800196136
 51
226.6419868957341066
  0
ARC
  5
8F24
  8
0
 10
4060.3976796417659898
 20
136.2795215659687926
 30
0.0
 40
0.0065979714448091
 50
264.3949946143064835
 51
280.3450386761822983
  0
LINE
  5
8F25
  8
0
 10
4060.3988644762180229
 20
136.2730308499446892
 30
0.0
 11
4060.4158625655709329
 21
136.2761732744307892
 31
0.0
  0
LINE
  5
8F26
  8
0
 10
4060.3994200763208937
 20
136.2829312336471048
 30
0.0
 11
4060.4132103606189048
 21
136.2768363239445932
 31
0.0
  0
ARC
  5
8F27
  8
0
 10
4060.4164542213497953
 20
136.2841758521556983
 30
0.0
 40
0.0080244194060084
 50
246.1559475984242056
 51
265.7716355801244958
  0
LINE
  5
8F28
  8
0
 10
4060.4044848573930722
 20
136.2806739700399987
 30
0.0
 11
4060.3949142892752207
 21
136.2789050189049078
 31
0.0
  0
LINE
  5
8F29
  8
0
 10
4060.3961303346709428
 20
136.2730416245026959
 30
0.0
 11
4060.410499086919117
 21
136.2666747304446915
 31
0.0
  0
ARC
  5
8F2A
  8
0
 10
4060.4117575799491533
 20
136.2719541321312988
 30
0.0
 40
0.0054273277841014
 50
256.5921732165886056
 51
350.6568713550624921
  0
LINE
  5
8F2B
  8
0
 10
4060.4171129076721627
 20
136.2710730238212022
 30
0.0
 11
4060.4176510363190573
 21
136.2759977470446984
 31
0.0
  0
LINE
  5
8F2C
  8
0
 10
4060.4085784167200472
 20
136.274826659100313
 30
0.0
 11
4060.4171230450369876
 21
136.2711370205942956
 31
0.0
  0
LINE
  5
8F2D
  8
0
 10
4060.4158625655709329
 20
136.2761732744307892
 30
0.0
 11
4060.4176510363217858
 21
136.2759977470782076
 31
0.0
  0
LINE
  5
8F2E
  8
0
 10
4060.4176510363217858
 20
136.2759977470782076
 30
0.0
 11
4060.4479014088187796
 21
136.2730288599447022
 31
0.0
  0
LINE
  5
8F2F
  8
0
 10
4060.4479014088187796
 20
136.2730288599447022
 30
0.0
 11
4060.4484413090190174
 21
136.273053870244695
 31
0.0
  0
ARC
  5
8F30
  8
0
 10
4060.4490852507938143
 20
136.2796043772063115
 30
0.0
 40
0.0065820819246746
 50
264.3856280625391832
 51
278.0480828299366181
  0
LINE
  5
8F31
  8
0
 10
4060.4500067691219556
 20
136.2730871227662135
 30
0.0
 11
4060.4673022498691353
 21
136.2762687074070982
 31
0.0
  0
LINE
  5
8F32
  8
0
 10
4060.4635518809909627
 20
136.2755788094972047
 30
0.0
 11
4060.4632720096637968
 21
136.2734794815231112
 31
0.0
  0
ARC
  5
8F33
  8
0
 10
4060.4579156991007949
 20
136.2741935565819915
 30
0.0
 40
0.0054036992925072
 50
262.5811204366582956
 51
352.4064043046163874
  0
LINE
  5
8F34
  8
0
 10
4060.4572179607189355
 20
136.268835093444693
 30
0.0
 11
4060.4475897795027777
 21
136.2730594444363987
 31
0.0
  0
ARC
  5
8F35
  8
0
 10
4060.4561810391310246
 20
136.2791637166997134
 30
0.0
 40
0.0098607122413391
 50
180.9302465171232086
 51
218.2880343586072911
  0
LINE
  5
8F36
  8
0
 10
4060.4463216265180563
 20
136.2790036265446929
 30
0.0
 11
4060.4465737355699275
 21
136.2834470030601892
 31
0.0
  0
LINE
  5
8F37
  8
0
 10
4060.4115903679371513
 20
136.2848411081185134
 30
0.0
 11
4060.4187425426180198
 21
136.2817103431447094
 31
0.0
  0
LINE
  5
8F38
  8
0
 10
4060.4187425426180198
 20
136.2817103431447094
 30
0.0
 11
4060.4463216265180563
 21
136.2790036265446929
 31
0.0
  0
LINE
  5
8F39
  8
0
 10
4060.4463216265180563
 20
136.2790036265446929
 30
0.0
 11
4060.4558933852367772
 21
136.2807782330903024
 31
0.0
  0
LINE
  5
8F3A
  8
0
 10
4060.4025585368881366
 20
136.2929107428170141
 30
0.0
 11
4060.4076054319962168
 21
136.290655545058911
 31
0.0
  0
LINE
  5
8F3B
  8
0
 10
4060.4076054319962168
 20
136.290655545058911
 30
0.0
 11
4060.416331130519211
 21
136.2868184263446949
 31
0.0
  0
LINE
  5
8F3C
  8
0
 10
4060.416331130519211
 20
136.2868184263446949
 30
0.0
 11
4060.4187912613178923
 21
136.2861736811447031
 31
0.0
  0
LINE
  5
8F3D
  8
0
 10
4060.4187912613178923
 20
136.2861736811447031
 30
0.0
 11
4060.4510226016618617
 21
136.2830106848377056
 31
0.0
  0
LINE
  5
8F3E
  8
0
 10
4060.4510219833191513
 20
136.2830104350447016
 30
0.0
 11
4060.4703518769410948
 21
136.2862572455586871
 31
0.0
  0
LINE
  5
8F3F
  8
0
 10
4060.450768957397031
 20
136.2830355760108034
 30
0.0
 11
4060.4646166465190618
 21
136.2769355812446861
 31
0.0
  0
LINE
  5
8F40
  8
0
 10
4060.4646164511200368
 20
136.2769350539446975
 30
0.0
 11
4060.4673022498691353
 21
136.2762687074070982
 31
0.0
  0
LINE
  5
8F41
  8
0
 10
4060.4673022498691353
 20
136.2762687074070982
 30
0.0
 11
4060.4988044767178508
 21
136.2731770416446864
 31
0.0
  0
ARC
  5
8F42
  8
0
 10
4060.4976096278969635
 20
136.2805629204389106
 30
0.0
 40
0.007481902784048
 50
279.1893978422668283
 51
344.9326316817242173
  0
ARC
  5
8F43
  8
0
 10
4060.4872880069469829
 20
136.2828706418264062
 30
0.0
 40
0.0180543063468955
 50
346.3760047632401893
 51
356.4303961249166264
  0
LINE
  5
8F44
  8
0
 10
4060.4183038615187797
 20
136.3427204898447087
 30
0.0
 11
4060.4319338076188615
 21
136.3367257743446999
 31
0.0
  0
ARC
  5
8F45
  8
0
 10
4060.4345533018199603
 20
136.3426816140778897
 30
0.0
 40
0.0065064411773903
 50
246.2591725726410061
 51
264.5401048963925064
  0
ARC
  5
8F46
  8
0
 10
4060.4349244016511875
 20
136.3390807678487988
 30
0.0
 40
0.0030417542604843
 50
251.0023345813972071
 51
260.2628187614055264
  0
LINE
  5
8F47
  8
0
 10
4060.4344099527897924
 20
136.3360828333348138
 30
0.0
 11
4060.4667261958998097
 21
136.3329114784559977
 31
0.0
  0
LINE
  5
8F48
  8
0
 10
4060.461924498918961
 20
136.3289115018446864
 30
0.0
 11
4060.434345415118969
 21
136.331618218444703
 31
0.0
  0
LINE
  5
8F49
  8
0
 10
4060.434345415118969
 20
136.331618218444703
 30
0.0
 11
4060.4272295079508694
 21
136.3347544849555959
 31
0.0
  0
LINE
  5
8F4A
  8
0
 10
4060.4150408351069927
 20
136.3328370430272116
 30
0.0
 11
4060.4203344558040953
 21
136.3304733305463117
 31
0.0
  0
LINE
  5
8F4B
  8
0
 10
4060.4203344558040953
 20
136.3304733305463117
 30
0.0
 11
4060.428813233118035
 21
136.3267441992447004
 31
0.0
  0
ARC
  5
8F4C
  8
0
 10
4060.4314327266451983
 20
136.3327000373446936
 30
0.0
 40
0.0065064394107913
 50
246.2591722204271036
 51
264.5401086505345916
  0
ARC
  5
8F4D
  8
0
 10
4060.4320803436689857
 20
136.3300337843533896
 30
0.0
 40
0.004015682546297
 50
251.6127596461552969
 51
258.4099152602749996
  0
LINE
  5
8F4E
  8
0
 10
4060.4312735593189245
 20
136.3260999814447132
 30
0.0
 11
4060.4635040931798358
 21
136.322937064461513
 31
0.0
  0
LINE
  5
8F4F
  8
0
 10
4060.4635040931798358
 20
136.322937064461513
 30
0.0
 11
4060.4640441815149643
 21
136.3229617456445055
 31
0.0
  0
LINE
  5
8F50
  8
0
 10
4060.4588039244190441
 20
136.318929926744687
 30
0.0
 11
4060.4312248406258732
 21
136.3216366435210887
 31
0.0
  0
LINE
  5
8F51
  8
0
 10
4060.4312248406258732
 20
136.3216366435210887
 30
0.0
 11
4060.4241031318820205
 21
136.3247727897883124
 31
0.0
  0
LINE
  5
8F52
  8
0
 10
4060.46092360701914
 20
136.3129801705445914
 30
0.0
 11
4060.4275151413071399
 21
136.3162590049271898
 31
0.0
  0
ARC
  5
8F53
  8
0
 10
4060.4158172546858623
 20
136.2774764217435859
 30
0.0
 40
0.0405083856723417
 50
73.2152541644350805
 51
75.889859716306745
  0
LINE
  5
8F54
  8
0
 10
4060.425692658618118
 20
136.3167626242446886
 30
0.0
 11
4060.4115881523430289
 21
136.3229660605690015
 31
0.0
  0
LINE
  5
8F55
  8
0
 10
4060.4087299909238027
 20
136.3129587312469937
 30
0.0
 11
4060.4136686508400089
 21
136.3106361579330894
 31
0.0
  0
LINE
  5
8F56
  8
0
 10
4060.4136686508400089
 20
136.3106361579330894
 30
0.0
 11
4060.4225720841191105
 21
136.3067810491446892
 31
0.0
  0
LINE
  5
8F57
  8
0
 10
4060.4225720841191105
 20
136.3067810491446892
 30
0.0
 11
4060.4249838612599888
 21
136.3061237559275014
 31
0.0
  0
LINE
  5
8F58
  8
0
 10
4060.4249838612599888
 20
136.3061237559275014
 30
0.0
 11
4060.4573644716429044
 21
136.3029667531882865
 31
0.0
  0
LINE
  5
8F59
  8
0
 10
4060.4178533572080596
 20
136.3048146371322105
 30
0.0
 11
4060.424983691619218
 21
136.3016734932446923
 31
0.0
  0
LINE
  5
8F5A
  8
0
 10
4060.424983691619218
 20
136.3016734932446923
 30
0.0
 11
4060.4525627755187998
 21
136.2989667766447042
 31
0.0
  0
LINE
  5
8F5B
  8
0
 10
4060.4525627755187998
 20
136.2989667766447042
 30
0.0
 11
4060.4622262502361991
 21
136.300694439731501
 31
0.0
  0
LINE
  5
8F5C
  8
0
 10
4060.405679111606787
 20
136.3028923178272009
 30
0.0
 11
4060.4194517050182185
 21
136.2968000013445931
 31
0.0
  0
LINE
  5
8F5D
  8
0
 10
4060.4194517050182185
 20
136.2968000013445931
 30
0.0
 11
4060.4218232550729226
 21
136.2961670317095866
 31
0.0
  0
LINE
  5
8F5E
  8
0
 10
4060.4218232565490325
 20
136.2961670313158038
 30
0.0
 11
4060.4542438979001417
 21
136.2929851781559876
 31
0.0
  0
LINE
  5
8F5F
  8
0
 10
4060.4494422010188828
 20
136.2889852015447048
 30
0.0
 11
4060.4218631171179368
 21
136.2916919182447089
 31
0.0
  0
LINE
  5
8F60
  8
0
 10
4060.4218631171179368
 20
136.2916919182447089
 30
0.0
 11
4060.4145955053468242
 21
136.2948173916487065
 31
0.0
  0
ARC
  5
8F61
  8
0
 10
4060.4145372332359329
 20
136.2793104863924043
 30
0.0
 40
0.0030676605240491
 50
279.0318373789751831
 51
316.1239498979280143
  0
ARC
  5
8F62
  8
0
 10
4060.4115947429468179
 20
136.2821397400128944
 30
0.0
 40
0.0071496851629551
 50
316.1239498979268774
 51
356.5945891372709866
  0
LINE
  5
8F63
  8
0
 10
4060.4187318033577867
 20
136.2817150441065905
 30
0.0
 11
4060.4191471215422098
 21
136.2861387556638135
 31
0.0
  0
ARC
  5
8F64
  8
0
 10
4060.4173982047500431
 20
136.2898126517904132
 30
0.0
 40
0.0036375610423745
 50
284.8642595256313257
 51
327.4569509436577164
  0
ARC
  5
8F65
  8
0
 10
4060.4125214102641621
 20
136.2929246662953915
 30
0.0
 40
0.0094226936015611
 50
327.4569509436591943
 51
352.4825833180074142
  0
LINE
  5
8F66
  8
0
 10
4060.4218631171179368
 20
136.2916919182447089
 30
0.0
 11
4060.4222676960430363
 21
136.2961203307627045
 31
0.0
  0
ARC
  5
8F67
  8
0
 10
4060.4205424221781868
 20
136.2997879740256906
 30
0.0
 40
0.0036281446200777
 50
284.2205630735263071
 51
330.4911190033029129
  0
ARC
  5
8F68
  8
0
 10
4060.4141784399748758
 20
136.303389844221897
 30
0.0
 40
0.0109407186124892
 50
330.4911190033029129
 51
350.9743071586527208
  0
LINE
  5
8F69
  8
0
 10
4060.424983691619218
 20
136.3016734932446923
 30
0.0
 11
4060.4253866787958032
 21
136.3060844825459981
 31
0.0
  0
LINE
  5
8F6A
  8
0
 10
4060.4173970489810017
 20
136.2736733635547921
 30
0.0
 11
4060.4348274338271949
 21
136.2743115160027116
 31
0.0
  0
ARC
  5
8F6B
  8
0
 10
4060.4250499951758684
 20
136.321825309350487
 30
0.0
 40
0.0061777270148778
 50
295.330538853330097
 51
358.2499321913396102
  0
LINE
  5
8F6C
  8
0
 10
4060.431224840619052
 20
136.3216366434446911
 30
0.0
 11
4060.4316294198529249
 21
136.3260650593632874
 31
0.0
  0
ARC
  5
8F6D
  8
0
 10
4060.4301853703559573
 20
136.3291311756665891
 30
0.0
 40
0.0029751526882506
 50
282.1911757035110782
 51
316.8862194926567213
  0
ARC
  5
8F6E
  8
0
 10
4060.4269114693911433
 20
136.3321963152980061
 30
0.0
 40
0.0074599613222951
 50
316.8862194926555276
 51
355.5437458241730155
  0
LINE
  5
8F6F
  8
0
 10
4060.4343488788581453
 20
136.3316166918355066
 30
0.0
 11
4060.4347502505029297
 21
136.3360494382150137
 31
0.0
  0
ARC
  5
8F70
  8
0
 10
4060.4333865234129917
 20
136.3388812327939945
 30
0.0
 40
0.0027320006046285
 50
281.564540728378006
 51
303.9161133718259862
  0
ARC
  5
8F71
  8
0
 10
4060.4321318310880997
 20
136.3407472781219951
 30
0.0
 40
0.0049806397471342
 50
303.9161133718250198
 51
340.8031069086068783
  0
ARC
  5
8F72
  8
0
 10
4060.4228886244118257
 20
136.3439655412518903
 30
0.0
 40
0.0147680851362977
 50
340.8031069086068783
 51
350.781886082696019
  0
LINE
  5
8F73
  8
0
 10
4060.4374659896179764
 20
136.3415997935447024
 30
0.0
 11
4060.4376727533081066
 21
136.3438418954885094
 31
0.0
  0
LINE
  5
8F74
  8
0
 10
4060.4303425590928782
 20
136.3447333397579939
 30
0.0
 11
4060.4374659896179764
 21
136.3415997935447024
 31
0.0
  0
LINE
  5
8F75
  8
0
 10
4060.4374659896179764
 20
136.3415997935447024
 30
0.0
 11
4060.4534973546728907
 21
136.3400244080332868
 31
0.0
  0
ARC
  5
8F76
  8
0
 10
4060.3689459192260074
 20
136.3454859394666983
 30
0.0
 40
0.003127042276102
 50
191.9193159386190928
 51
241.9021675889200935
  0
ARC
  5
8F77
  8
0
 10
4060.3731207938540138
 20
136.3478002454394868
 30
0.0
 40
0.0078166745704404
 50
173.5584709192694959
 51
202.2529594119772014
  0
LINE
  5
8F78
  8
0
 10
4060.3653534670188492
 20
136.348677191944688
 30
0.0
 11
4060.3653995059989938
 21
136.3491811228755068
 31
0.0
  0
LINE
  5
8F79
  8
0
 10
4060.3653534670279441
 20
136.3486771920379113
 30
0.0
 11
4060.3676389487759479
 21
136.3490997073398887
 31
0.0
  0
LINE
  5
8F7A
  8
0
 10
4060.3653534670288536
 20
136.3486771920381955
 30
0.0
 11
4060.3573163629271221
 21
136.3494659841078089
 31
0.0
  0
LINE
  5
8F7B
  8
0
 10
4060.4498467799139689
 20
136.2934136141008992
 30
0.0
 11
4060.4494422010188828
 21
136.2889852015447048
 31
0.0
  0
ARC
  5
8F7C
  8
0
 10
4060.4560391115142011
 20
136.2879457273544972
 30
0.0
 40
0.0066783032782405
 50
171.0455362095308089
 51
226.7169757551305054
  0
LINE
  5
8F7D
  8
0
 10
4060.4494422010188828
 20
136.2889852015447048
 30
0.0
 11
4060.4590115223932116
 21
136.2907542751399887
 31
0.0
  0
LINE
  5
8F7E
  8
0
 10
4060.4677370256190443
 20
136.2869166290446969
 30
0.0
 11
4060.4539238035608832
 21
136.2930134794233084
 31
0.0
  0
LINE
  5
8F7F
  8
0
 10
4060.4542438979187864
 20
136.2929851781445905
 30
0.0
 11
4060.4544631779681367
 21
136.2930010992947132
 31
0.0
  0
LINE
  5
8F80
  8
0
 10
4060.4544631779681367
 20
136.2930010992947132
 30
0.0
 11
4060.4546824578401356
 21
136.2930170204317051
 31
0.0
  0
ARC
  5
8F81
  8
0
 10
4060.4553256269277881
 20
136.2995577848753044
 30
0.0
 40
0.0065723104708586
 50
264.3840228508797168
 51
280.3972231672386783
  0
LINE
  5
8F82
  8
0
 10
4060.4565117415008899
 20
136.2930933903062964
 30
0.0
 11
4060.4734905547629751
 21
136.2962370438301036
 31
0.0
  0
ARC
  5
8F83
  8
0
 10
4060.4711213731588941
 20
136.337562790315701
 30
0.0
 40
0.0060822954823944
 50
185.1829648588787904
 51
229.4196486503514052
  0
LINE
  5
8F84
  8
0
 10
4060.466726195974843
 20
136.3329114784486933
 30
0.0
 11
4060.4671647560180645
 21
136.3329433207447039
 31
0.0
  0
LINE
  5
8F85
  8
0
 10
4060.4671647560180645
 20
136.3329433207447039
 30
0.0
 11
4060.4689940136190671
 21
136.3330190304446887
 31
0.0
  0
LINE
  5
8F86
  8
0
 10
4060.4689940136190671
 20
136.3330190304446887
 30
0.0
 11
4060.4752613165142066
 21
136.3341830929942091
 31
0.0
  0
LINE
  5
8F87
  8
0
 10
4060.4664837246309617
 20
136.3329352733767053
 30
0.0
 11
4060.4804519288982192
 21
136.3267462349189998
 31
0.0
  0
ARC
  5
8F88
  8
0
 10
4060.4824922157517904
 20
136.3313510121757872
 30
0.0
 40
0.0050365408792431
 50
246.1028034949027017
 51
266.898756341966191
  0
ARC
  5
8F89
  8
0
 10
4060.481340474947956
 20
136.329722555034806
 30
0.0
 40
0.0035125366420913
 50
284.4965048118319828
 51
323.9826964141086023
  0
ARC
  5
8F8A
  8
0
 10
4060.4769256063191278
 20
136.3329971124348106
 30
0.0
 40
0.0090091461256218
 50
323.6486942153746895
 51
347.5763566486331797
  0
ARC
  5
8F8B
  8
0
 10
4060.4845880782308996
 20
136.3338817160880012
 30
0.0
 40
0.0079221624496398
 50
252.6053661607267884
 51
255.7286120052586966
  0
ARC
  5
8F8C
  8
0
 10
4060.4870702361959047
 20
136.3683042166711914
 30
0.0
 40
0.0423331420546349
 50
263.9862925222478793
 51
264.5308995513752279
  0
LINE
  5
8F8D
  8
0
 10
4060.483035510038917
 20
136.3261637859536961
 30
0.0
 11
4060.5070608589380754
 21
136.3238058464540075
 31
0.0
  0
LINE
  5
8F8E
  8
0
 10
4060.5105263141849719
 20
136.3224907836037971
 30
0.0
 11
4060.5102100149188118
 21
136.3190286568446936
 31
0.0
  0
LINE
  5
8F8F
  8
0
 10
4060.5102100149188118
 20
136.3190286568446936
 30
0.0
 11
4060.5163965332189946
 21
136.320172353944713
 31
0.0
  0
LINE
  5
8F90
  8
0
 10
4060.5102100149188118
 20
136.3190286568446936
 30
0.0
 11
4060.4826309310178658
 21
136.3217353734445965
 31
0.0
  0
LINE
  5
8F91
  8
0
 10
4060.4826309310178658
 20
136.3217353734445965
 30
0.0
 11
4060.4755873794770196
 21
136.3248332644631944
 31
0.0
  0
LINE
  5
8F92
  8
0
 10
4060.4755873794770196
 20
136.3248332644631944
 30
0.0
 11
4060.4828352457097935
 21
136.3261834406598041
 31
0.0
  0
LINE
  5
8F93
  8
0
 10
4060.483035510038917
 20
136.3261637859536961
 30
0.0
 11
4060.4826309310178658
 21
136.3217353734445965
 31
0.0
  0
ARC
  5
8F94
  8
0
 10
4060.4764100205370596
 20
136.3219541949505071
 30
0.0
 40
0.0062247578323566
 50
295.595022773730193
 51
357.9854425241122158
  0
ARC
  5
8F95
  8
0
 10
4060.4797391457800586
 20
136.3228962740010104
 30
0.0
 40
0.0065871646593063
 50
246.3699202657523983
 51
264.4245659344430237
  0
LINE
  5
8F96
  8
0
 10
4060.4770988121808841
 20
136.316861427131812
 30
0.0
 11
4060.4632225186060168
 21
136.3229643886031965
 31
0.0
  0
LINE
  5
8F97
  8
0
 10
4060.4640441815381564
 20
136.3229617456453866
 30
0.0
 11
4060.4658733448191015
 21
136.3230375958445961
 31
0.0
  0
LINE
  5
8F98
  8
0
 10
4060.4658733448191015
 20
136.3230375958445961
 30
0.0
 11
4060.4755803918401398
 21
136.3248319627641081
 31
0.0
  0
LINE
  5
8F99
  8
0
 10
4060.4623290779140916
 20
136.3333399143924964
 30
0.0
 11
4060.461924498918961
 21
136.3289115018446864
 31
0.0
  0
LINE
  5
8F9A
  8
0
 10
4060.461924498918961
 20
136.3289115018446864
 30
0.0
 11
4060.4715575880459255
 21
136.3306871436097936
 31
0.0
  0
LINE
  5
8F9B
  8
0
 10
4060.461924498918961
 20
136.3289115018446864
 30
0.0
 11
4060.462457329767858
 21
136.3250744086446957
 31
0.0
  0
LINE
  5
8F9C
  8
0
 10
4060.462457329767858
 20
136.3250744086446957
 30
0.0
 11
4060.4640441815140548
 21
136.3229617456443066
 31
0.0
  0
LINE
  5
8F9D
  8
0
 10
4060.4592085034219053
 20
136.3233583393783874
 30
0.0
 11
4060.4587741686800655
 21
136.318932847086586
 31
0.0
  0
ARC
  5
8F9E
  8
0
 10
4060.4661007429599522
 20
136.3182137890619003
 30
0.0
 40
0.0073617752696257
 50
174.3947241062687965
 51
225.3077629303797949
  0
LINE
  5
8F9F
  8
0
 10
4060.4609232182579035
 20
136.3129803415293964
 30
0.0
 11
4060.4760616335679515
 21
136.3063757866653987
 31
0.0
  0
ARC
  5
8FA0
  8
0
 10
4060.4769640201188849
 20
136.3085306140216915
 30
0.0
 40
0.0023361469183473
 50
247.27731199136241
 51
265.8353157615349005
  0
LINE
  5
8FA1
  8
0
 10
4060.4767943610431757
 20
136.3062006358626093
 30
0.0
 11
4060.5086690346811338
 21
136.3030726443614924
 31
0.0
  0
LINE
  5
8FA2
  8
0
 10
4060.5086690346811338
 20
136.3030726443614924
 30
0.0
 11
4060.5110383806190839
 21
136.3031730352446971
 31
0.0
  0
LINE
  5
8FA3
  8
0
 10
4060.5110383806190839
 20
136.3031730352446971
 30
0.0
 11
4060.5280240969477745
 21
136.3063166739671033
 31
0.0
  0
LINE
  5
8FA4
  8
0
 10
4060.516658761951021
 20
136.3108161552505919
 30
0.0
 11
4060.5070894404188948
 21
136.3090470817446942
 31
0.0
  0
LINE
  5
8FA5
  8
0
 10
4060.5070894404188948
 20
136.3090470817446942
 30
0.0
 11
4060.479506560046957
 21
136.3117134149860021
 31
0.0
  0
LINE
  5
8FA6
  8
0
 10
4060.479506560046957
 20
136.3117134149860021
 30
0.0
 11
4060.4724668050189393
 21
136.3148516893446924
 31
0.0
  0
LINE
  5
8FA7
  8
0
 10
4060.4609236110909478
 20
136.3129801701450106
 30
0.0
 11
4060.4627528646178689
 21
136.3130558802446899
 31
0.0
  0
LINE
  5
8FA8
  8
0
 10
4060.4627528646178689
 20
136.3130558802446899
 30
0.0
 11
4060.4797246542821085
 21
136.3162008858924992
 31
0.0
  0
LINE
  5
8FA9
  8
0
 10
4060.4790991620211571
 20
136.3163402722441049
 30
0.0
 11
4060.4794704945188641
 21
136.3162289118446893
 31
0.0
  0
LINE
  5
8FAA
  8
0
 10
4060.4794704945188641
 20
136.3162289118446893
 30
0.0
 11
4060.4797246542821085
 21
136.3162008858924992
 31
0.0
  0
LINE
  5
8FAB
  8
0
 10
4060.4797246542821085
 20
136.3162008858924992
 30
0.0
 11
4060.5117896091801413
 21
136.3130542193615042
 31
0.0
  0
LINE
  5
8FAC
  8
0
 10
4060.5117896091801413
 20
136.3130542193615042
 30
0.0
 11
4060.5141588608189522
 21
136.3131547508446886
 31
0.0
  0
LINE
  5
8FAD
  8
0
 10
4060.5141588608189522
 20
136.3131547508446886
 30
0.0
 11
4060.5268655451709492
 21
136.3155036683438937
 31
0.0
  0
ARC
  5
8FAE
  8
0
 10
4060.5174496216500302
 20
136.3182554052143871
 30
0.0
 40
0.0072807845526356
 50
173.9034361939820883
 51
225.3148463908740098
  0
LINE
  5
8FAF
  8
0
 10
4060.5074940194231203
 20
136.3134754942915947
 30
0.0
 11
4060.5070894404188948
 21
136.3090470817446942
 31
0.0
  0
ARC
  5
8FB0
  8
0
 10
4060.5147108794330961
 20
136.3083507883945913
 30
0.0
 40
0.0076531795413094
 50
174.7799585403394929
 51
223.3935562490989071
  0
LINE
  5
8FB1
  8
0
 10
4060.4799149355508234
 20
136.3161822109618129
 30
0.0
 11
4060.479506560046957
 21
136.3117134149860021
 31
0.0
  0
ARC
  5
8FB2
  8
0
 10
4060.4728195861089262
 20
136.3122487174526896
 30
0.0
 40
0.0067083669959996
 50
298.9001157877626156
 51
355.4241960522778072
  0
LINE
  5
8FB3
  8
0
 10
4060.4573644724009682
 20
136.3029667531559994
 30
0.0
 11
4060.4765307471520828
 21
136.3062349971197875
 31
0.0
  0
LINE
  5
8FB4
  8
0
 10
4060.4767943610431757
 20
136.3062006358626093
 30
0.0
 11
4060.4763897821189857
 21
136.3017722233446989
 31
0.0
  0
LINE
  5
8FB5
  8
0
 10
4060.4763897821189857
 20
136.3017722233446989
 30
0.0
 11
4060.4691612424571758
 21
136.3049783450292125
 31
0.0
  0
LINE
  5
8FB6
  8
0
 10
4060.476389782125807
 20
136.3017722234347957
 30
0.0
 11
4060.5039688659180683
 21
136.2990655066446948
 31
0.0
  0
LINE
  5
8FB7
  8
0
 10
4060.5039688659180683
 20
136.2990655066446948
 30
0.0
 11
4060.5043734449131989
 21
136.3034939191925048
 31
0.0
  0
LINE
  5
8FB8
  8
0
 10
4060.4573136584322128
 20
136.3029696268280873
 30
0.0
 11
4060.4708576001189613
 21
136.2968982040447088
 31
0.0
  0
LINE
  5
8FB9
  8
0
 10
4060.4708576001189613
 20
136.2968982040447088
 30
0.0
 11
4060.4734905547629751
 21
136.2962370438301036
 31
0.0
  0
LINE
  5
8FBA
  8
0
 10
4060.4734905547629751
 20
136.2962370438301036
 30
0.0
 11
4060.5055131700191851
 21
136.2930100745446964
 31
0.0
  0
LINE
  5
8FBB
  8
0
 10
4060.5055131700191851
 20
136.2930100745446964
 30
0.0
 11
4060.5249545605429375
 21
136.2963300898028933
 31
0.0
  0
LINE
  5
8FBC
  8
0
 10
4060.4662256559768139
 20
136.2948885392632121
 30
0.0
 11
4060.4732692076181593
 21
136.2917906482446995
 31
0.0
  0
LINE
  5
8FBD
  8
0
 10
4060.4732692076181593
 20
136.2917906482446995
 30
0.0
 11
4060.5008482914190608
 21
136.2890839315446954
 31
0.0
  0
LINE
  5
8FBE
  8
0
 10
4060.5008482914190608
 20
136.2890839315446954
 30
0.0
 11
4060.510526419981943
 21
136.2908051496654878
 31
0.0
  0
LINE
  5
8FBF
  8
0
 10
4060.4677370256190443
 20
136.2869166290446969
 30
0.0
 11
4060.4703518769410948
 21
136.2862572455586871
 31
0.0
  0
LINE
  5
8FC0
  8
0
 10
4060.4703518769410948
 20
136.2862572455586871
 30
0.0
 11
4060.5029679740159736
 21
136.2831341753444008
 31
0.0
  0
LINE
  5
8FC1
  8
0
 10
4060.5029679740159736
 20
136.2831341753444008
 30
0.0
 11
4060.521849116832982
 21
136.286347029809491
 31
0.0
  0
LINE
  5
8FC2
  8
0
 10
4060.4628030569369912
 20
136.2849892826492919
 30
0.0
 11
4060.4701486331191518
 21
136.2818090731447001
 31
0.0
  0
LINE
  5
8FC3
  8
0
 10
4060.4701486331191518
 20
136.2818090731447001
 30
0.0
 11
4060.5047814109930187
 21
136.2784100800471947
 31
0.0
  0
LINE
  5
8FC4
  8
0
 10
4060.4666723045861545
 20
136.276424996801012
 30
0.0
 11
4060.4672778828448827
 21
136.2766431137004872
 31
0.0
  0
ARC
  5
8FC5
  8
0
 10
4060.4655743574021471
 20
136.2799339201013993
 30
0.0
 40
0.0037055911410274
 50
297.3688858560225867
 51
320.3993565168618147
  0
ARC
  5
8FC6
  8
0
 10
4060.4625769064091401
 20
136.2824136839201117
 30
0.0
 40
0.0075958277720534
 50
320.3993565168630084
 51
355.4345554111148999
  0
LINE
  5
8FC7
  8
0
 10
4060.4701486331191518
 20
136.2818090731447001
 30
0.0
 11
4060.4705532120510725
 21
136.2862374857618022
 31
0.0
  0
ARC
  5
8FC8
  8
0
 10
4060.4683015482928568
 20
136.2906557815464907
 30
0.0
 40
0.0045009063372481
 50
289.1051982410883738
 51
337.9717690866568205
  0
ARC
  5
8FC9
  8
0
 10
4060.4600742610991801
 20
136.2939845377744064
 30
0.0
 40
0.0133760892992598
 50
337.9717690866697239
 51
350.5599369164174846
  0
LINE
  5
8FCA
  8
0
 10
4060.4732692076181593
 20
136.2917906482446995
 30
0.0
 11
4060.4736737865418945
 21
136.2962190607636899
 31
0.0
  0
ARC
  5
8FCB
  8
0
 10
4060.4714930214740889
 20
136.3005186447892925
 30
0.0
 40
0.0043662230789709
 50
288.7987907823912792
 51
334.4304041660063831
  0
ARC
  5
8FCC
  8
0
 10
4060.4659219196651065
 20
136.3032530968444007
 30
0.0
 40
0.0105720920625876
 50
334.0937562445149069
 51
351.9478815997018728
  0
LINE
  5
8FCD
  8
0
 10
4060.4529673544138859
 20
136.3033951891925142
 30
0.0
 11
4060.4525627755187998
 21
136.2989667766447042
 31
0.0
  0
ARC
  5
8FCE
  8
0
 10
4060.4600517060171114
 20
136.2982825894343932
 30
0.0
 40
0.0075201191570191
 50
174.7799599406365871
 51
224.4431628277673951
  0
LINE
  5
8FCF
  8
0
 10
4060.5012462662912185
 20
136.2934400571417939
 30
0.0
 11
4060.5008190214089154
 21
136.2890868042152874
 31
0.0
  0
ARC
  5
8FD0
  8
0
 10
4060.5081460155752211
 20
136.2883677050018036
 30
0.0
 40
0.0073621971707952
 50
174.394724265007909
 51
225.3053532185130052
  0
LINE
  5
8FD1
  8
0
 10
4060.5021628424838127
 20
136.2832112686367054
 30
0.0
 11
4060.5168528658191462
 21
136.276668553344706
 31
0.0
  0
LINE
  5
8FD2
  8
0
 10
4060.5168528658191462
 20
136.276668553344706
 30
0.0
 11
4060.517806988718803
 21
136.2766076879445905
 31
0.0
  0
ARC
  5
8FD3
  8
0
 10
4060.5152790364481916
 20
136.2827931341396095
 30
0.0
 40
0.0066820870478016
 50
292.2295203222990949
 51
351.1414114822073884
  0
LINE
  5
8FD4
  8
0
 10
4060.5218814157337874
 20
136.2817641175819006
 30
0.0
 11
4060.5223266010161751
 21
136.2863001676882106
 31
0.0
  0
LINE
  5
8FD5
  8
0
 10
4060.5218814158188252
 20
136.2817641175446965
 30
0.0
 11
4060.5142501514619653
 21
136.2850539740842066
 31
0.0
  0
LINE
  5
8FD6
  8
0
 10
4060.519143116118812
 20
136.2870153590446876
 30
0.0
 11
4060.5055131700191851
 21
136.2930100745446964
 31
0.0
  0
ARC
  5
8FD7
  8
0
 10
4060.5079260906250056
 20
136.2962304833376095
 30
0.0
 40
0.0036163686378236
 50
190.5297469819099092
 51
239.4614465696539867
  0
ARC
  5
8FD8
  8
0
 10
4060.5118782808990545
 20
136.2982034355356973
 30
0.0
 40
0.0079562561501146
 50
173.7797130630412141
 51
199.3318353119393862
  0
LINE
  5
8FD9
  8
0
 10
4060.4588039244190441
 20
136.318929926744687
 30
0.0
 11
4060.4683733038541504
 21
136.3206990110550976
 31
0.0
  0
LINE
  5
8FDA
  8
0
 10
4060.5039688659180683
 20
136.2990655066446948
 30
0.0
 11
4060.5135381874952145
 21
136.3008345801588916
 31
0.0
  0
LINE
  5
8FDB
  8
0
 10
4060.5135381874952145
 20
136.3008345801588916
 30
0.0
 11
4060.5083232588622195
 21
136.303106269359489
 31
0.0
  0
LINE
  5
8FDC
  8
0
 10
4060.5135381874952145
 20
136.3008345801588916
 30
0.0
 11
4060.522732452083801
 21
136.2968126608876958
 31
0.0
  0
ARC
  5
8FDD
  8
0
 10
4060.5249109115798092
 20
136.3030682659774016
 30
0.0
 40
0.0066240682978193
 50
250.7997768174423925
 51
264.3964169335711745
  0
ARC
  5
8FDE
  8
0
 10
4060.525049184206182
 20
136.298486492823514
 30
0.0
 40
0.0021584780807259
 50
248.6711968750348092
 51
267.4874544129079936
  0
LINE
  5
8FDF
  8
0
 10
4060.5249545605429375
 20
136.2963300898028933
 30
0.0
 11
4060.5544242266500987
 21
136.2934455423489055
 31
0.0
  0
LINE
  5
8FE0
  8
0
 10
4060.5473233224511205
 20
136.294140592474605
 30
0.0
 11
4060.5468884182701004
 21
136.2897092978064961
 31
0.0
  0
ARC
  5
8FE1
  8
0
 10
4060.5371605766340508
 20
136.2925173055211019
 30
0.0
 40
0.0101250091466711
 50
305.4460189830932109
 51
343.8988555213593941
  0
LINE
  5
8FE2
  8
0
 10
4060.5430324307189949
 20
136.2842688426447069
 30
0.0
 11
4060.5223266010161751
 21
136.2863001676882106
 31
0.0
  0
LINE
  5
8FE3
  8
0
 10
4060.5223266010239058
 20
136.2863001676873864
 30
0.0
 11
4060.521849116832982
 21
136.286347029809491
 31
0.0
  0
LINE
  5
8FE4
  8
0
 10
4060.521849116832982
 20
136.286347029809491
 30
0.0
 11
4060.519143116118812
 21
136.2870153590446876
 31
0.0
  0
LINE
  5
8FE5
  8
0
 10
4060.5221367564840875
 20
136.2843658173395909
 30
0.0
 11
4060.5279533632538005
 21
136.2857479357521129
 31
0.0
  0
ARC
  5
8FE6
  8
0
 10
4060.5202743116369675
 20
136.2898950726361136
 30
0.0
 40
0.0035139083654728
 50
285.3409895439355068
 51
326.5700689091502227
  0
ARC
  5
8FE7
  8
0
 10
4060.5153904919848173
 20
136.2931190201593949
 30
0.0
 40
0.0093658765828084
 50
326.5700689091528943
 51
352.455881984454777
  0
LINE
  5
8FE8
  8
0
 10
4060.524675298117927
 20
136.2918893782446901
 30
0.0
 11
4060.525079877042117
 21
136.2963177907629984
 31
0.0
  0
LINE
  5
8FE9
  8
0
 10
4060.5174475652138426
 20
136.2950481167360124
 30
0.0
 11
4060.524675298117927
 21
136.2918893782446901
 31
0.0
  0
LINE
  5
8FEA
  8
0
 10
4060.524675298117927
 20
136.2918893782446901
 30
0.0
 11
4060.5468884182701004
 21
136.2897092978064961
 31
0.0
  0
LINE
  5
8FEB
  8
0
 10
4060.5471480347819124
 20
136.2923545638620055
 30
0.0
 11
4060.5501971318381038
 21
136.293859298498603
 31
0.0
  0
LINE
  5
8FEC
  8
0
 10
4060.5116001925998717
 20
136.313072807593386
 30
0.0
 11
4060.516658761951021
 21
136.3108161552505919
 31
0.0
  0
LINE
  5
8FED
  8
0
 10
4060.516658761951021
 20
136.3108161552505919
 30
0.0
 11
4060.5253842651191007
 21
136.3069785091446988
 31
0.0
  0
LINE
  5
8FEE
  8
0
 10
4060.5253842651191007
 20
136.3069785091446988
 30
0.0
 11
4060.5280240969477745
 21
136.3063166739671033
 31
0.0
  0
LINE
  5
8FEF
  8
0
 10
4060.5280240969477745
 20
136.3063166739671033
 30
0.0
 11
4060.5452858101871243
 21
136.304627226707197
 31
0.0
  0
LINE
  5
8FF0
  8
0
 10
4060.531056194996836
 20
136.313382172046488
 30
0.0
 11
4060.5309061689172268
 21
136.3118535370767859
 31
0.0
  0
LINE
  5
8FF1
  8
0
 10
4060.5309061689172268
 20
136.3118535370767859
 30
0.0
 11
4060.534550551375105
 21
136.3114958634511993
 31
0.0
  0
LINE
  5
8FF2
  8
0
 10
4060.5309061689172268
 20
136.3118535370767859
 30
0.0
 11
4060.523872836055034
 21
136.3149504455977876
 31
0.0
  0
ARC
  5
8FF3
  8
0
 10
4060.5244441848340102
 20
136.3122086003390052
 30
0.0
 40
0.0064717314687562
 50
297.4597382568655917
 51
356.8549612815780847
  0
LINE
  5
8FF4
  8
0
 10
4060.528200451540215
 20
136.306299365854187
 30
0.0
 11
4060.5277958724609562
 21
136.3018709527136991
 31
0.0
  0
LINE
  5
8FF5
  8
0
 10
4060.5277958724609562
 20
136.3018709527136991
 30
0.0
 11
4060.5207523209601277
 21
136.3049688443707055
 31
0.0
  0
LINE
  5
8FF6
  8
0
 10
4060.5277958724609562
 20
136.3018709527136991
 30
0.0
 11
4060.5505707942102163
 21
136.2996326626636119
 31
0.0
  0
ARC
  5
8FF7
  8
0
 10
4060.5235071358160894
 20
136.2996622272709999
 30
0.0
 40
0.003275004216821
 50
283.361088932621783
 51
322.0956457047103072
  0
ARC
  5
8FF8
  8
0
 10
4060.5195409027592177
 20
136.3027503395836959
 30
0.0
 40
0.0083016773033462
 50
322.0956457047116146
 51
353.9193175932359736
  0
ARC
  5
8FF9
  8
0
 10
4060.0780604888677772
 20
136.3531671596730916
 30
0.0
 40
0.0077187615080301
 50
238.1475158394283085
 51
263.6901844311042282
  0
LINE
  5
8FFA
  8
0
 10
4060.0772121615577817
 20
136.3454951573274059
 30
0.0
 11
4060.1099033093191792
 21
136.3422090105447069
 31
0.0
  0
ARC
  5
8FFB
  8
0
 10
4060.1118991913931495
 20
136.3449811474793023
 30
0.0
 40
0.0031095568444934
 50
199.7772188803461972
 51
242.0701649569311087
  0
ARC
  5
8FFC
  8
0
 10
4060.1194843359130573
 20
136.3477085612248061
 30
0.0
 40
0.0111701525506145
 50
177.0627546266150887
 51
199.7772188803446056
  0
LINE
  5
8FFD
  8
0
 10
4060.1147717615958754
 20
136.339971040358904
 30
0.0
 11
4060.105202440019184
 21
136.3382019668445935
 31
0.0
  0
LINE
  5
8FFE
  8
0
 10
4060.105202440019184
 20
136.3382019668445935
 30
0.0
 11
4060.105607019018862
 21
136.3426303794446994
 31
0.0
  0
LINE
  5
8FFF
  8
0
 10
4060.105202440019184
 20
136.3382019668445935
 30
0.0
 11
4060.0776233562219204
 21
136.3409086834745096
 31
0.0
  0
LINE
  5
9000
  8
0
 10
4060.0776233562219204
 20
136.3409086834745096
 30
0.0
 11
4060.0780397742200876
 21
136.3454119648770018
 31
0.0
  0
LINE
  5
9001
  8
0
 10
4060.0776233561309709
 20
136.3409086834834056
 30
0.0
 11
4060.0705798047370081
 21
136.3440065744927949
 31
0.0
  0
LINE
  5
9002
  8
0
 10
4060.0778435970742066
 20
136.3454316847995074
 30
0.0
 11
4060.0705798047370081
 21
136.3440065744927949
 31
0.0
  0
LINE
  5
9003
  8
0
 10
4060.0705798047370081
 20
136.3440065744927949
 30
0.0
 11
4060.0608657700190633
 21
136.3422109059447109
 31
0.0
  0
LINE
  5
9004
  8
0
 10
4060.0608657700190633
 20
136.3422109059447109
 30
0.0
 11
4060.0584972188180473
 21
136.3421102805446878
 31
0.0
  0
LINE
  5
9005
  8
0
 10
4060.0584972188180473
 20
136.3421102805446878
 30
0.0
 11
4060.0375597687179834
 21
136.3441648763447063
 31
0.0
  0
LINE
  5
9006
  8
0
 10
4060.0582175519248267
 20
136.3421374426227999
 30
0.0
 11
4060.0720911742191674
 21
136.3360346642446927
 31
0.0
  0
LINE
  5
9007
  8
0
 10
4060.0720911742191674
 20
136.3360346642446927
 30
0.0
 11
4060.0745515004191475
 21
136.3353904464445918
 31
0.0
  0
LINE
  5
9008
  8
0
 10
4060.0745515004191475
 20
136.3353904464445918
 30
0.0
 11
4060.1067822223189978
 21
136.332227200244688
 31
0.0
  0
LINE
  5
9009
  8
0
 10
4060.1067822223189978
 20
136.332227200244688
 30
0.0
 11
4060.1073221224060035
 21
136.3322522106348913
 31
0.0
  0
LINE
  5
900A
  8
0
 10
4060.1073221224060035
 20
136.3322522106348913
 30
0.0
 11
4060.108761404579127
 21
136.3322688212548996
 31
0.0
  0
LINE
  5
900B
  8
0
 10
4060.108761404579127
 20
136.3322688212548996
 30
0.0
 11
4060.1263194923840274
 21
136.3355316562303869
 31
0.0
  0
ARC
  5
900C
  8
0
 10
4060.1092113253707794
 20
136.3354233913761959
 30
0.0
 40
0.0036912701246645
 50
195.4380553733435022
 51
239.2160014200252078
  0
ARC
  5
900D
  8
0
 10
4060.114296100754018
 20
136.3373842939301142
 30
0.0
 40
0.0091303479974424
 50
174.8619639270357027
 51
198.8073413364103033
  0
LINE
  5
900E
  8
0
 10
4060.1121059763149788
 20
136.3301481786286047
 30
0.0
 11
4060.1020818655179028
 21
136.3282203917447077
 31
0.0
  0
LINE
  5
900F
  8
0
 10
4060.1020818655179028
 20
136.3282203917447077
 30
0.0
 11
4060.1024864445139428
 21
136.3326488042924893
 31
0.0
  0
LINE
  5
9010
  8
0
 10
4060.1020818655179028
 20
136.3282203917447077
 30
0.0
 11
4060.1020747717830091
 21
136.3266807730202004
 31
0.0
  0
LINE
  5
9011
  8
0
 10
4060.1034631574621017
 20
136.3222651058460997
 30
0.0
 11
4060.1042015481189082
 21
136.3222706355446974
 31
0.0
  0
LINE
  5
9012
  8
0
 10
4060.1042015481189082
 20
136.3222706355446974
 30
0.0
 11
4060.122377103512008
 21
136.3256307371420917
 31
0.0
  0
ARC
  5
9013
  8
0
 10
4060.1060816306130619
 20
136.3254173366111957
 30
0.0
 40
0.003665574686802
 50
197.4590597164788051
 51
239.1426418525967108
  0
ARC
  5
9014
  8
0
 10
4060.115122051985054
 20
136.3282606701642976
 30
0.0
 40
0.0131425870983389
 50
186.9043398917160914
 51
197.4590597164772134
  0
LINE
  5
9015
  8
0
 10
4060.1034631574621017
 20
136.3222651058460997
 30
0.0
 11
4060.0714309259187758
 21
136.3254088713445924
 31
0.0
  0
LINE
  5
9016
  8
0
 10
4060.0714309259187758
 20
136.3254088713445924
 30
0.0
 11
4060.0689705997187957
 21
136.3260530891446933
 31
0.0
  0
LINE
  5
9017
  8
0
 10
4060.0689705997187957
 20
136.3260530891446933
 30
0.0
 11
4060.0549137038360641
 21
136.3322355855698049
 31
0.0
  0
LINE
  5
9018
  8
0
 10
4060.0749073606871207
 20
136.3353555209583021
 30
0.0
 11
4060.0745027817188202
 21
136.3309271084445982
 31
0.0
  0
LINE
  5
9019
  8
0
 10
4060.0745027817188202
 20
136.3309271084445982
 30
0.0
 11
4060.0674592301179473
 21
136.3340249994446935
 31
0.0
  0
LINE
  5
901A
  8
0
 10
4060.0745027817188202
 20
136.3309271084445982
 30
0.0
 11
4060.1020818655179028
 21
136.3282203917447077
 31
0.0
  0
LINE
  5
901B
  8
0
 10
4060.0993658700181186
 20
136.3226672292447006
 30
0.0
 11
4060.0989315353199345
 21
136.3182417370923076
 31
0.0
  0
LINE
  5
901C
  8
0
 10
4060.0989315353199345
 20
136.3182417370923076
 30
0.0
 11
4060.1085733170348249
 21
136.3200070176519887
 31
0.0
  0
ARC
  5
901D
  8
0
 10
4060.1055990727891185
 20
136.3172848966516142
 30
0.0
 40
0.0067358443806988
 50
171.8333935512168864
 51
227.8746615579970012
  0
LINE
  5
901E
  8
0
 10
4060.1010809736189913
 20
136.312289060444698
 30
0.0
 11
4060.1192564058860626
 21
136.3156491941508079
 31
0.0
  0
ARC
  5
901F
  8
0
 10
4060.1006878790130941
 20
136.3153517308176959
 30
0.0
 40
0.0030877942260953
 50
263.3247469542570229
 51
277.3139415836661215
  0
LINE
  5
9020
  8
0
 10
4060.1003289483778644
 20
136.3122848689066871
 30
0.0
 11
4060.0683108433190682
 21
136.3154276305446899
 31
0.0
  0
LINE
  5
9021
  8
0
 10
4060.0683108433190682
 20
136.3154276305446899
 30
0.0
 11
4060.0658500252179692
 21
136.3160715141447099
 31
0.0
  0
LINE
  5
9022
  8
0
 10
4060.0658500252179692
 20
136.3160715141447099
 30
0.0
 11
4060.0520565571810039
 21
136.3221664258877013
 31
0.0
  0
ARC
  5
9023
  8
0
 10
4060.0523903747312033
 20
136.3269740275175934
 30
0.0
 40
0.0048191770655587
 50
266.0280220557525013
 51
274.8217689179293188
  0
ARC
  5
9024
  8
0
 10
4060.0534393935968183
 20
136.3287227049355863
 30
0.0
 40
0.0065823723843388
 50
264.3859272907433251
 51
278.047776284876818
  0
LINE
  5
9025
  8
0
 10
4060.0543609177730104
 20
136.3222051578970024
 30
0.0
 11
4060.0716230424632158
 21
136.3253900162935963
 31
0.0
  0
LINE
  5
9026
  8
0
 10
4060.0717867861872037
 20
136.3253739458594112
 30
0.0
 11
4060.0713822072179937
 21
136.3209455333447124
 31
0.0
  0
LINE
  5
9027
  8
0
 10
4060.0713822072179937
 20
136.3209455333447124
 30
0.0
 11
4060.0643293896850992
 21
136.3240443388808956
 31
0.0
  0
LINE
  5
9028
  8
0
 10
4060.0713822072179937
 20
136.3209455333447124
 30
0.0
 11
4060.0989315353199345
 21
136.3182417370923076
 31
0.0
  0
LINE
  5
9029
  8
0
 10
4060.0962452999401648
 20
136.3126857025482934
 30
0.0
 11
4060.0958109604957826
 21
136.3082601620241974
 31
0.0
  0
LINE
  5
902A
  8
0
 10
4060.0958109604957826
 20
136.3082601620241974
 30
0.0
 11
4060.1056443022089297
 21
136.3101566197817931
 31
0.0
  0
LINE
  5
902B
  8
0
 10
4060.0958109604957826
 20
136.3082601620241974
 30
0.0
 11
4060.0682616327189862
 21
136.310963958244713
 31
0.0
  0
LINE
  5
902C
  8
0
 10
4060.0682616327189862
 20
136.310963958244713
 30
0.0
 11
4060.061218081089919
 21
136.3140618492577119
 31
0.0
  0
LINE
  5
902D
  8
0
 10
4060.0686662116950174
 20
136.3153923708574951
 30
0.0
 11
4060.0682616327189862
 21
136.310963958244713
 31
0.0
  0
ARC
  5
902E
  8
0
 10
4060.0614201981911719
 20
136.3115889904676123
 30
0.0
 40
0.0068699266132546
 50
298.8005048051198855
 51
354.7799589724402267
  0
LINE
  5
902F
  8
0
 10
4060.0647298636181404
 20
136.3055688570447046
 30
0.0
 11
4060.0651897769189418
 21
136.3054457212446948
 31
0.0
  0
LINE
  5
9030
  8
0
 10
4060.0651897769189418
 20
136.3054457212446948
 30
0.0
 11
4060.0972553883480032
 21
136.3022986796268015
 31
0.0
  0
LINE
  5
9031
  8
0
 10
4060.0972553883480032
 20
136.3022986796268015
 30
0.0
 11
4060.0979603989057978
 21
136.302307485434909
 31
0.0
  0
LINE
  5
9032
  8
0
 10
4060.0979603989057978
 20
136.302307485434909
 30
0.0
 11
4060.0997896826020224
 21
136.3023838553062888
 31
0.0
  0
LINE
  5
9033
  8
0
 10
4060.0997896826020224
 20
136.3023838553062888
 30
0.0
 11
4060.1167894832610727
 21
136.3055254490460868
 31
0.0
  0
LINE
  5
9034
  8
0
 10
4060.1169517276857732
 20
136.3055095257583105
 30
0.0
 11
4060.116547148934842
 21
136.3010811131497064
 31
0.0
  0
ARC
  5
9035
  8
0
 10
4060.1097058186010145
 20
136.3017061355066915
 30
0.0
 40
0.0068698219536779
 50
298.7993839809839756
 51
354.7799618535540276
  0
LINE
  5
9036
  8
0
 10
4060.1137185445040814
 20
136.2955390025055067
 30
0.0
 11
4060.0964167563179217
 21
136.2923549727447039
 31
0.0
  0
ARC
  5
9037
  8
0
 10
4060.0960928328768205
 20
136.2980071311386041
 30
0.0
 40
0.005661432760941
 50
181.5606969101770005
 51
273.2800155118554244
  0
LINE
  5
9038
  8
0
 10
4060.0904335003178858
 20
136.2978529367447038
 30
0.0
 11
4060.0907757650670646
 21
136.3029346146122123
 31
0.0
  0
LINE
  5
9039
  8
0
 10
4060.0904335003178858
 20
136.2978529367447038
 30
0.0
 11
4060.1023698804019659
 21
136.3000344121076068
 31
0.0
  0
LINE
  5
903A
  8
0
 10
4060.0906094685187782
 20
136.3004655742331011
 30
0.0
 11
4060.0663946353852225
 21
136.3053274718315038
 31
0.0
  0
LINE
  5
903B
  8
0
 10
4060.0653929394529769
 20
136.3054257820973021
 30
0.0
 11
4060.0479751118191416
 21
136.3022089544446942
 31
0.0
  0
ARC
  5
903C
  8
0
 10
4060.048136650304059
 20
136.3077098081105873
 30
0.0
 40
0.0055032250304419
 50
178.7927961457984907
 51
268.3179312095174964
  0
LINE
  5
903D
  8
0
 10
4060.0426346467561416
 20
136.3078257507330022
 30
0.0
 11
4060.0429855994161699
 21
136.3127688441173007
 31
0.0
  0
LINE
  5
903E
  8
0
 10
4060.0426346468179872
 20
136.307825750744712
 30
0.0
 11
4060.0540039474931291
 21
136.3099275851400023
 31
0.0
  0
LINE
  5
903F
  8
0
 10
4060.0489104339308142
 20
136.3121873582394983
 30
0.0
 11
4060.0540039474931291
 21
136.3099275851400023
 31
0.0
  0
LINE
  5
9040
  8
0
 10
4060.0540039474931291
 20
136.3099275851400023
 30
0.0
 11
4060.0647298636181404
 21
136.3055688570447046
 31
0.0
  0
ARC
  5
9041
  8
0
 10
4060.0671524665108336
 20
136.3186596069579082
 30
0.0
 40
0.0031865549396965
 50
282.6524440055583796
 51
322.0722662880893949
  0
ARC
  5
9042
  8
0
 10
4060.0626150911298282
 20
136.3221953859587927
 30
0.0
 40
0.0089389030252372
 50
322.0722662881079259
 51
338.8623440319078099
  0
ARC
  5
9043
  8
0
 10
4060.0641463118217871
 20
136.3214872109903979
 30
0.0
 40
0.007256142009307
 50
339.7179528309425791
 51
355.7188349778808742
  0
ARC
  5
9044
  8
0
 10
4060.0699528825839479
 20
136.3291943164090014
 30
0.0
 40
0.0038011968093554
 50
285.5360481006595137
 51
328.241639078916819
  0
ARC
  5
9045
  8
0
 10
4060.0655426249031734
 20
136.3319904862752026
 30
0.0
 40
0.0090230362171928
 50
327.8845902147239144
 51
353.2318806336219268
  0
ARC
  5
9046
  8
0
 10
4060.0733495071817742
 20
136.3387159372315978
 30
0.0
 40
0.0032872115013415
 50
283.0468405693949876
 51
323.9663775913093104
  0
ARC
  5
9047
  8
0
 10
4060.0685691591811519
 20
136.3421933511640134
 30
0.0
 40
0.0091985679162293
 50
323.9663775913093104
 51
343.7085543910156957
  0
ARC
  5
9048
  8
0
 10
4060.06064608441784
 20
136.3431890045675061
 30
0.0
 40
0.0171297291000463
 50
347.9500835785183881
 51
352.3500384135313084
  0
ARC
  5
9049
  8
0
 10
4060.0736484178110004
 20
136.3530274633355077
 30
0.0
 40
0.0083328208485736
 50
295.3201349621855911
 51
312.7631845685552889
  0
LINE
  5
904A
  8
0
 10
4059.951596213592893
 20
136.3340295316095023
 30
0.0
 11
4059.9540780470179016
 21
136.3318735962446908
 31
0.0
  0
LINE
  5
904B
  8
0
 10
4059.9540780470179016
 20
136.3318735962446908
 30
0.0
 11
4059.9721174391320346
 21
136.3351558763314131
 31
0.0
  0
ARC
  5
904C
  8
0
 10
4059.9809330327188945
 20
136.3326179305446999
 30
0.0
 40
0.0163399557000082
 50
175.8706959624182957
 51
184.1975277628955894
  0
ARC
  5
904D
  8
0
 10
4059.9721919424191583
 20
136.3319764041974054
 30
0.0
 40
0.007575355555748
 50
184.1975277628922925
 51
241.9999983853865047
  0
LINE
  5
904E
  8
0
 10
4059.9686355282187833
 20
136.3252877623446864
 30
0.0
 11
4060.000849466919135
 21
136.3220481651447074
 31
0.0
  0
LINE
  5
904F
  8
0
 10
4060.000849466919135
 20
136.3220481651447074
 30
0.0
 11
4060.0013893671180085
 21
136.3220731755446877
 31
0.0
  0
LINE
  5
9050
  8
0
 10
4060.0013893671180085
 20
136.3220731755446877
 30
0.0
 11
4060.0029548272741522
 21
136.3221064278970118
 31
0.0
  0
LINE
  5
9051
  8
0
 10
4060.0029548272741522
 20
136.3221064278970118
 30
0.0
 11
4060.0202169519629933
 21
136.3252912862936057
 31
0.0
  0
ARC
  5
9052
  8
0
 10
4060.0027649061698867
 20
136.3247042271750047
 30
0.0
 40
0.0029689291610173
 50
204.0059845423097897
 51
242.3989995258939132
  0
ARC
  5
9053
  8
0
 10
4060.0086115726189746
 20
136.327308062564299
 30
0.0
 40
0.0093692000372842
 50
175.6240839218689871
 51
204.0059845423128024
  0
LINE
  5
9054
  8
0
 10
4059.999269684617957
 20
136.3280229317446981
 30
0.0
 11
4059.9996089793048668
 21
136.3324568240483927
 31
0.0
  0
LINE
  5
9055
  8
0
 10
4059.9996089793048668
 20
136.3324568240483927
 30
0.0
 11
4060.003970041419052
 21
136.3320297402445931
 31
0.0
  0
LINE
  5
9056
  8
0
 10
4060.003970041419052
 20
136.3320297402445931
 30
0.0
 11
4060.0045099416370249
 21
136.3320547506122864
 31
0.0
  0
LINE
  5
9057
  8
0
 10
4060.0045099416370249
 20
136.3320547506122864
 30
0.0
 11
4060.0060754017740692
 21
136.3320880029970112
 31
0.0
  0
LINE
  5
9058
  8
0
 10
4060.0060754017740692
 20
136.3320880029970112
 30
0.0
 11
4060.0232684085499386
 21
136.335279644888999
 31
0.0
  0
LINE
  5
9059
  8
0
 10
4060.0232684085499386
 20
136.335279644888999
 30
0.0
 11
4060.0206852791188794
 21
136.3359364615446907
 31
0.0
  0
LINE
  5
905A
  8
0
 10
4060.0206852791188794
 20
136.3359364615446907
 30
0.0
 11
4060.0077124082240516
 21
136.3416415693127988
 31
0.0
  0
LINE
  5
905B
  8
0
 10
4060.0119595805190329
 20
136.3397735803447119
 30
0.0
 11
4060.0023902591201477
 21
136.3380045068446975
 31
0.0
  0
LINE
  5
905C
  8
0
 10
4060.0023902591201477
 20
136.3380045068446975
 30
0.0
 11
4060.002679445521153
 21
136.3411698637702045
 31
0.0
  0
LINE
  5
905D
  8
0
 10
4060.0023902591201477
 20
136.3380045068446975
 30
0.0
 11
4059.9867738230450414
 21
136.3395676069499984
 31
0.0
  0
ARC
  5
905E
  8
0
 10
4059.9750596557591962
 20
136.3527031910736866
 30
0.0
 40
0.0177922706068221
 50
243.1460721562704066
 51
260.4815684787322994
  0
LINE
  5
905F
  8
0
 10
4059.9721174391320346
 20
136.3351558763314131
 30
0.0
 11
4059.9996089793048668
 21
136.3324568240483927
 31
0.0
  0
ARC
  5
9060
  8
0
 10
4060.0056272237097801
 20
136.3343636413702882
 30
0.0
 40
0.0025650951523851
 50
210.3268862268994042
 51
244.1741120889159902
  0
ARC
  5
9061
  8
0
 10
4060.0103477310699418
 20
136.3370794840145095
 30
0.0
 40
0.008011056552892
 50
173.3693652044227065
 51
210.0455548612592054
  0
LINE
  5
9062
  8
0
 10
4060.0037388450391518
 20
136.3320523815706906
 30
0.0
 11
4060.0175647046189624
 21
136.3259548865447073
 31
0.0
  0
LINE
  5
9063
  8
0
 10
4060.0175647046189624
 20
136.3259548865447073
 30
0.0
 11
4060.0202169519629933
 21
136.3252912862936057
 31
0.0
  0
LINE
  5
9064
  8
0
 10
4060.0202169519629933
 20
136.3252912862936057
 30
0.0
 11
4060.0520565571810039
 21
136.3221664258877013
 31
0.0
  0
LINE
  5
9065
  8
0
 10
4060.0479597795178961
 20
136.32256849924471
 30
0.0
 11
4060.0475254447960651
 21
136.3181430069948874
 31
0.0
  0
ARC
  5
9066
  8
0
 10
4060.0548516101848691
 20
136.3174239891233128
 30
0.0
 40
0.0073613644124538
 50
174.3947242852115949
 51
225.3133327055037967
  0
LINE
  5
9067
  8
0
 10
4060.0496748831819787
 20
136.3121903304079012
 30
0.0
 11
4060.0612180811190228
 21
136.3140618492446947
 31
0.0
  0
LINE
  5
9068
  8
0
 10
4060.0612180811190228
 20
136.3140618492446947
 30
0.0
 11
4060.068497637413202
 21
136.3154092956272052
 31
0.0
  0
LINE
  5
9069
  8
0
 10
4060.0571245220180572
 20
136.3199091602446913
 30
0.0
 11
4060.0475254447960651
 21
136.3181430069948874
 31
0.0
  0
LINE
  5
906A
  8
0
 10
4060.0475254447960651
 20
136.3181430069948874
 30
0.0
 11
4060.0199722327461131
 21
136.3208054826338866
 31
0.0
  0
LINE
  5
906B
  8
0
 10
4060.0199722327461131
 20
136.3208054826338866
 30
0.0
 11
4060.0129325650891587
 21
136.3239446943576922
 31
0.0
  0
LINE
  5
906C
  8
0
 10
4060.0203809144181832
 20
136.3252776100447079
 30
0.0
 11
4060.0199722327461131
 21
136.3208054826338866
 31
0.0
  0
ARC
  5
906D
  8
0
 10
4060.0132078552760504
 20
136.3214236396867989
 30
0.0
 40
0.0067925636314121
 50
298.4554842383540745
 51
354.7785750675262761
  0
LINE
  5
906E
  8
0
 10
4060.0006511124311146
 20
136.322067632411887
 30
0.0
 11
4060.0144439347182015
 21
136.3159727841446909
 31
0.0
  0
LINE
  5
906F
  8
0
 10
4060.0144439347182015
 20
136.3159727841446909
 30
0.0
 11
4060.0164443476201086
 21
136.3154517021447134
 31
0.0
  0
LINE
  5
9070
  8
0
 10
4060.0164443476201086
 20
136.3154517021447134
 30
0.0
 11
4060.0169047528188457
 21
136.3153289005446993
 31
0.0
  0
LINE
  5
9071
  8
0
 10
4060.0169047528188457
 20
136.3153289005446993
 30
0.0
 11
4060.0489104339308142
 21
136.3121873582394983
 31
0.0
  0
LINE
  5
9072
  8
0
 10
4060.0489104339308142
 20
136.3121873582394983
 30
0.0
 11
4060.0496748831192235
 21
136.3121903304447073
 31
0.0
  0
LINE
  5
9073
  8
0
 10
4060.04281802350215
 20
136.3104085730911095
 30
0.0
 11
4060.0260517927531509
 21
136.3144307925491034
 31
0.0
  0
LINE
  5
9074
  8
0
 10
4060.0170444071541169
 20
136.3153148117580997
 30
0.0
 11
4060.0043343442189325
 21
136.3132129345447083
 31
0.0
  0
ARC
  5
9075
  8
0
 10
4060.0067959414777761
 20
136.3188080284519117
 30
0.0
 40
0.0061126538343803
 50
179.3285194313282034
 51
246.2525994244479932
  0
LINE
  5
9076
  8
0
 10
4060.0006837074188297
 20
136.3188796643447063
 30
0.0
 11
4060.0008648437501506
 21
136.3219731876403102
 31
0.0
  0
LINE
  5
9077
  8
0
 10
4059.9646370045561525
 20
136.3314205929318916
 30
0.0
 11
4059.999269684617957
 21
136.3280229317446981
 31
0.0
  0
LINE
  5
9078
  8
0
 10
4059.999269684617957
 20
136.3280229317446981
 30
0.0
 11
4060.0088889707672024
 21
136.3297810677456994
 31
0.0
  0
LINE
  5
9079
  8
0
 10
4060.0160315417110724
 20
136.3339362215035919
 30
0.0
 11
4060.0230966912240547
 21
136.3308283784091088
 31
0.0
  0
LINE
  5
907A
  8
0
 10
4060.0230966912240547
 20
136.3308283784091088
 30
0.0
 11
4060.0506757751181794
 21
136.3281216617446887
 31
0.0
  0
LINE
  5
907B
  8
0
 10
4060.0506757751181794
 20
136.3281216617446887
 30
0.0
 11
4060.0602518630680606
 21
136.329887759233003
 31
0.0
  0
ARC
  5
907C
  8
0
 10
4060.0539874236478681
 20
136.3246306390144014
 30
0.0
 40
0.0027323828252295
 50
202.2709445919018094
 51
244.1388891739771054
  0
ARC
  5
907D
  8
0
 10
4060.0613136263618799
 20
136.3276309944938873
 30
0.0
 40
0.0106491611601014
 50
177.3591235096554897
 51
202.2709445919001894
  0
LINE
  5
907E
  8
0
 10
4060.0506757751181794
 20
136.3281216617446887
 30
0.0
 11
4060.051110109831825
 21
136.3325471539513103
 31
0.0
  0
LINE
  5
907F
  8
0
 10
4060.0232684085499386
 20
136.335279644888999
 30
0.0
 11
4060.051110109831825
 21
136.3325471539513103
 31
0.0
  0
LINE
  5
9080
  8
0
 10
4060.051110109831825
 20
136.3325471539513103
 30
0.0
 11
4060.055916032118148
 21
136.3321534806447062
 31
0.0
  0
ARC
  5
9081
  8
0
 10
4060.0564293833890588
 20
136.3418867859323882
 30
0.0
 40
0.0097468334346812
 50
266.9809196762997772
 51
283.1888339741134928
  0
LINE
  5
9082
  8
0
 10
4060.058653231928929
 20
136.3323970409581136
 30
0.0
 11
4060.067459230168879
 21
136.3340249994224962
 31
0.0
  0
LINE
  5
9083
  8
0
 10
4060.067459230168879
 20
136.3340249994224962
 30
0.0
 11
4060.0746951308979078
 21
136.3353763500005869
 31
0.0
  0
LINE
  5
9084
  8
0
 10
4060.0633656710188006
 20
136.3398723103447026
 30
0.0
 11
4060.0537963494030009
 21
136.3381032344825883
 31
0.0
  0
LINE
  5
9085
  8
0
 10
4060.0537963494030009
 20
136.3381032344825883
 30
0.0
 11
4060.0542009285190943
 21
136.3425316493446928
 31
0.0
  0
LINE
  5
9086
  8
0
 10
4060.0537963494030009
 20
136.3381032344825883
 30
0.0
 11
4060.0262003138709588
 21
136.3406244030618097
 31
0.0
  0
LINE
  5
9087
  8
0
 10
4060.0262003138709588
 20
136.3406244030618097
 30
0.0
 11
4060.0215367220348526
 21
136.3428685476127953
 31
0.0
  0
LINE
  5
9088
  8
0
 10
4060.0264429116059546
 20
136.3432798128480954
 30
0.0
 11
4060.0262003138709588
 21
136.3406244030618097
 31
0.0
  0
ARC
  5
9089
  8
0
 10
4060.0196913135041541
 20
136.341219064102404
 30
0.0
 40
0.0065361079803046
 50
297.5042284874203915
 51
354.779959474269674
  0
LINE
  5
908A
  8
0
 10
4060.0235014889190097
 20
136.3352591851447073
 30
0.0
 11
4060.0230669193852009
 21
136.3308313003311127
 31
0.0
  0
ARC
  5
908B
  8
0
 10
4060.0160779404059213
 20
136.3315172254310141
 30
0.0
 40
0.0070225579694144
 50
300.1459240883789903
 51
354.3947243572595198
  0
LINE
  5
908C
  8
0
 10
4059.9981107722219349
 20
136.3223235821855042
 30
0.0
 11
4060.0008375615038858
 21
136.3215072498514928
 31
0.0
  0
ARC
  5
908D
  8
0
 10
4060.061345600590812
 20
136.3372431792589055
 30
0.0
 40
0.0075980763366045
 50
173.5005303565289125
 51
221.8667931671172937
  0
ARC
  5
908E
  8
0
 10
4060.0625508055409227
 20
136.3466902702164987
 30
0.0
 40
0.0057532229107417
 50
191.4232560573460091
 51
232.3509895585904985
  0
ARC
  5
908F
  8
0
 10
4060.0993383819732117
 20
136.3049408321514875
 30
0.0
 40
0.0029720954972912
 50
204.0272353877116984
 51
242.3777498982171892
  0
ARC
  5
9090
  8
0
 10
4060.1053922319802041
 20
136.307639628680306
 30
0.0
 40
0.0096002628613634
 50
184.6692423685962012
 51
204.0272353877101921
  0
ARC
  5
9091
  8
0
 10
4060.1054944447209891
 20
136.3076479768589024
 30
0.0
 40
0.0097028159533912
 50
176.3826027725158099
 51
184.6692423685962012
  0
ARC
  5
9092
  8
0
 10
4060.0289443509809644
 20
136.4807464939013926
 30
0.0
 40
0.1684200743427064
 50
241.1526390279786938
 51
244.9258049712649949
  0
ARC
  5
9093
  8
0
 10
4060.0818321929277772
 20
136.6029737341611963
 30
0.0
 40
0.3015671665028848
 50
245.6658860277798055
 51
252.1297980252464015
  0
ARC
  5
9094
  8
0
 10
4060.2004081170930476
 20
136.9707457082259907
 30
0.0
 40
0.6879820661889985
 50
252.1297980252464015
 51
259.0932341774080214
  0
ARC
  5
9095
  8
0
 10
4060.4460448747640839
 20
138.2455085997945901
 30
0.0
 40
1.986195394744326
 50
259.0932341774080214
 51
261.6029769696289122
  0
ARC
  5
9096
  8
0
 10
4060.3593220181869583
 20
137.6580113428869936
 30
0.0
 40
1.392331874458123
 50
261.6029769696289122
 51
266.2709556675073941
  0
ARC
  5
9097
  8
0
 10
4060.408064897470922
 20
138.4058750254523886
 30
0.0
 40
2.141782310431803
 50
266.2709556675073941
 51
269.5247757825355848
  0
ARC
  5
9098
  8
0
 10
4060.3965312069321953
 20
137.0153384915126082
 30
0.0
 40
0.7511979446924182
 50
269.5247757825355848
 51
275.7754852523596014
  0
ARC
  5
9099
  8
0
 10
4060.4250799229239419
 20
136.7330804676367961
 30
0.0
 40
0.467499828330919
 50
275.7754852523596014
 51
281.4114732406947041
  0
ARC
  5
909A
  8
0
 10
4060.4913611205060988
 20
136.4047017456537105
 30
0.0
 40
0.1324986608639876
 50
281.4114732406947041
 51
291.4502888618612815
  0
ARC
  5
909B
  8
0
 10
4060.5169785644629883
 20
136.3395022413967013
 30
0.0
 40
0.0624470456773179
 50
291.4502888618612815
 51
304.2560331856439007
  0
ARC
  5
909C
  8
0
 10
4060.5438363074767949
 20
136.3000652895343023
 30
0.0
 40
0.0147331951515837
 50
304.2560331856439007
 51
319.3111647083018738
  0
ARC
  5
909D
  8
0
 10
4059.8286152431919618
 20
136.3542134791532021
 30
0.0
 40
0.1196994209056516
 50
102.7522614086266941
 51
108.2371101556484945
  0
ARC
  5
909E
  8
0
 10
4060.0038517808229699
 20
135.5799213909961907
 30
0.0
 40
0.9135735179158427
 50
101.7948153822731001
 51
102.7522614086266941
  0
ARC
  5
909F
  8
0
 10
4059.8967244976038273
 20
136.0929426789984973
 30
0.0
 40
0.3894866007413192
 50
95.141403959208148
 51
101.7948153822731001
  0
ARC
  5
90A0
  8
0
 10
4060.0574801630200454
 20
134.8093630379185868
 30
0.0
 40
1.682911753020512
 50
94.173687090091704
 51
96.6764360539265937
  0
ARC
  5
90A1
  8
0
 10
4060.223724553889042
 20
132.3410006356718043
 30
0.0
 40
4.156850424400921
 50
90.1171871623512857
 51
93.982863867614725
  0
ARC
  5
90A2
  8
0
 10
4060.1841701433390881
 20
151.6801294257980999
 30
0.0
 40
15.1823188160936002
 50
270.1171871623512857
 51
270.2593154988637139
  0
ARC
  5
90A3
  8
0
 10
4060.006030332499904
 20
137.6154895562214051
 30
0.0
 40
1.1889393891859421
 50
262.0676345325910006
 51
264.0019134186264864
  0
ARC
  5
90A4
  8
0
 10
4059.9107936298628374
 20
136.9319918761613906
 30
0.0
 40
0.4988385935215395
 50
257.8602672783242156
 51
262.0676345325910006
  0
ARC
  5
90A5
  8
0
 10
4059.8364407179228692
 20
136.5863361943096947
 30
0.0
 40
0.1452764265546427
 50
250.6216074725099077
 51
257.8602672783242156
  0
ARC
  5
90A6
  8
0
 10
4059.8017153184350718
 20
136.4876092559186134
 30
0.0
 40
0.0406205058735267
 50
237.4028637187099093
 51
250.6216074725099077
  0
ARC
  5
90A7
  8
0
 10
4059.7846785426108909
 20
136.460966658282814
 30
0.0
 40
0.0089964685076106
 50
217.240727626774202
 51
237.4028637187089998
  0
ARC
  5
90A8
  8
0
 10
4059.7818712310581759
 20
136.4588326459036978
 30
0.0
 40
0.0054701379802645
 50
194.2447309690795123
 51
217.2407276267755094
  0
ARC
  5
90A9
  8
0
 10
4059.7792029003289827
 20
136.4581552374347098
 30
0.0
 40
0.0027171630243415
 50
154.9944923677998077
 51
194.2447309690716111
  0
ARC
  5
90AA
  8
0
 10
4059.7845875540610905
 20
136.4556437019782891
 30
0.0
 40
0.0086587374076977
 50
141.0043507723902962
 51
154.9944923678027919
  0
ARC
  5
90AB
  8
0
 10
4059.7872830352212077
 20
136.4522564473190016
 30
0.0
 40
0.0129190970715204
 50
120.257470098497194
 51
136.84784222597591
  0
ARC
  5
90AC
  8
0
 10
4059.803419148633111
 20
136.4252508383877966
 30
0.0
 40
0.0443777261429765
 50
106.0425780946755054
 51
120.6836940009964962
  0
ARC
  5
90AD
  8
0
 10
4059.9690415062677857
 20
137.1245713074877131
 30
0.0
 40
0.6922332304578873
 50
261.0231940235344155
 51
262.7560909581890201
  0
ARC
  5
90AE
  8
0
 10
4059.9225065988111965
 20
136.8299897110530878
 30
0.0
 40
0.3939987345154013
 50
256.9208407242113026
 51
261.0231940235344155
  0
ARC
  5
90AF
  8
0
 10
4059.857079648432773
 20
136.5483701509328114
 30
0.0
 40
0.1048789280717479
 50
248.7072078822955064
 51
256.9208407242113026
  0
ARC
  5
90B0
  8
0
 10
4059.8344585357358483
 20
136.4903284234218859
 30
0.0
 40
0.0425848122012018
 50
236.3819620031484021
 51
248.7072078822955064
  0
ARC
  5
90B1
  8
0
 10
4059.8322888103439254
 20
136.4967241791536878
 30
0.0
 40
0.0470147286947081
 50
232.4267092573442994
 51
242.9134218328121051
  0
ARC
  5
90B2
  8
0
 10
4059.8063625084628256
 20
136.4634652743519894
 30
0.0
 40
0.0048527636248568
 50
162.6856555404866072
 51
235.5930062867055028
  0
ARC
  5
90B3
  8
0
 10
4059.8075595539480673
 20
136.4627445708337063
 30
0.0
 40
0.0062189149669213
 50
130.4325088060934092
 51
159.6273879767663004
  0
ARC
  5
90B4
  8
0
 10
4059.8243137370841396
 20
136.441073770487094
 30
0.0
 40
0.0336052707765616
 50
119.5239326733890977
 51
128.2123470830266001
  0
ARC
  5
90B5
  8
0
 10
4059.839466449594056
 20
136.4095674891634076
 30
0.0
 40
0.0685275094572474
 50
109.9026856971691046
 51
117.5664480398980061
  0
ARC
  5
90B6
  8
0
 10
4059.8271345745438339
 20
136.4712965133124101
 30
0.0
 40
0.02255474010058
 50
225.1160813845887958
 51
234.0353961037014869
  0
ARC
  5
90B7
  8
0
 10
4059.814252381658207
 20
136.4583620156772952
 30
0.0
 40
0.0042995456982824
 50
185.8931823143028055
 51
225.1160813845854136
  0
ARC
  5
90B8
  8
0
 10
4059.8131158647579468
 20
136.4582447047584992
 30
0.0
 40
0.0031569904416929
 50
134.716333994561694
 51
185.8931823142995938
  0
ARC
  5
90B9
  8
0
 10
4059.8212284813980659
 20
136.4515768729974923
 30
0.0
 40
0.0136454399491537
 50
113.1086300664004938
 51
139.2278722159861104
  0
ARC
  5
90BA
  8
0
 10
4059.8475193804670198
 20
136.3966243397472908
 30
0.0
 40
0.0745530864532029
 50
104.5453295699949052
 51
115.1178451842655051
  0
ARC
  5
90BB
  8
0
 10
4059.9157676256518243
 20
136.1279227181287865
 30
0.0
 40
0.3517857605974277
 50
97.6307313099896135
 51
104.3136500833664968
  0
ARC
  5
90BC
  8
0
 10
4060.0703611648409606
 20
134.9740194703240093
 30
0.0
 40
1.515998742681576
 50
95.6451365231383761
 51
97.6307313099896135
  0
ARC
  5
90BD
  8
0
 10
4060.0666510514251968
 20
135.0115536462066075
 30
0.0
 40
1.4782816470783171
 50
93.3619928778755224
 51
95.6451365231383761
  0
ARC
  5
90BE
  8
0
 10
4060.3859240166930249
 20
129.5766837755863037
 30
0.0
 40
6.9225213310863287
 50
92.7849687144752266
 51
93.3619928778755224
  0
ARC
  5
90BF
  8
0
 10
4060.1791052404519178
 20
133.8282608986228013
 30
0.0
 40
2.6659168111274938
 50
91.0027274339975776
 51
92.7849687144752266
  0
ARC
  5
90C0
  8
0
 10
4060.4215185448251759
 20
119.9781948370253986
 30
0.0
 40
16.5181041517878491
 50
90.7028241385411746
 51
91.0027274339975776
  0
ARC
  5
90C1
  8
0
 10
4060.2419053419030206
 20
134.6199263012441918
 30
0.0
 40
1.875271052521907
 50
89.6645724776663258
 51
90.7028241385411746
  0
LINE
  5
90C2
  8
0
 10
4060.2804427611181382
 20
136.4935250935446902
 30
0.0
 11
4060.2804427611367828
 21
136.4905456393188103
 31
0.0
  0
LINE
  5
90C3
  8
0
 10
4060.2804427611367828
 20
136.4905456393188103
 30
0.0
 11
4060.2253246509189921
 21
136.4905456389749929
 31
0.0
  0
LINE
  5
90C4
  8
0
 10
4060.2253246509189921
 20
136.4905456389749929
 30
0.0
 11
4060.2253246509189921
 21
136.4935250935446902
 31
0.0
  0
LINE
  5
90C5
  8
0
 10
4060.2253246509189921
 20
136.4935250935446902
 30
0.0
 11
4060.2804427611181382
 21
136.4935250935446902
 31
0.0
  0
LINE
  5
90C6
  8
0
 10
4060.2066238635188711
 20
136.4933670818446956
 30
0.0
 11
4060.2066238635188711
 21
136.4903138363451944
 31
0.0
  0
LINE
  5
90C7
  8
0
 10
4060.2066238635188711
 20
136.4903138363451944
 30
0.0
 11
4060.0133949002638474
 21
136.4836150050541903
 31
0.0
  0
LINE
  5
90C8
  8
0
 10
4060.0133949002638474
 20
136.4836150050541903
 30
0.0
 11
4059.9875993842188109
 21
136.4857739756446904
 31
0.0
  0
LINE
  5
90C9
  8
0
 10
4059.9875993842188109
 20
136.4857739756446904
 30
0.0
 11
4060.0329444086778494
 21
136.4884307964003938
 31
0.0
  0
LINE
  5
90CA
  8
0
 10
4060.0329444086778494
 20
136.4884307964003938
 30
0.0
 11
4060.2066238635188711
 21
136.4933670818446956
 31
0.0
  0
LINE
  5
90CB
  8
0
 10
4059.9340665703189188
 20
136.4815169781446968
 30
0.0
 11
4059.9730409598191727
 21
136.4847789621447021
 31
0.0
  0
LINE
  5
90CC
  8
0
 10
4059.9730409598191727
 20
136.4847789621447021
 30
0.0
 11
4059.9982130458179199
 21
136.4826721699446921
 31
0.0
  0
LINE
  5
90CD
  8
0
 10
4059.9982130458179199
 20
136.4826721699446921
 30
0.0
 11
4059.9592386563181208
 21
136.4794101859446869
 31
0.0
  0
LINE
  5
90CE
  8
0
 10
4059.9592386563181208
 20
136.4794101859446869
 30
0.0
 11
4059.9340665703189188
 21
136.4815169781446968
 31
0.0
  0
LINE
  5
90CF
  8
0
 10
4059.947973390162133
 20
136.4781395090336957
 30
0.0
 11
4059.9218926989378815
 21
136.4749956563468913
 31
0.0
  0
ARC
  5
90D0
  8
0
 10
4059.9603308809601003
 20
136.1561211872302124
 30
0.0
 40
0.3211828465089628
 50
96.8734585606814136
 51
102.0555420175462018
  0
ARC
  5
90D1
  8
0
 10
4059.9308669859228758
 20
136.2940801733157059
 30
0.0
 40
0.1801126407514026
 50
102.0555420175462018
 51
108.4236939430820996
  0
ARC
  5
90D2
  8
0
 10
4059.8815058294658229
 20
136.4422606623078025
 30
0.0
 40
0.0239269144997902
 50
108.4236939430820996
 51
124.5513223201821944
  0
LINE
  5
90D3
  8
0
 10
4059.8679358183189834
 20
136.4619673118187109
 30
0.0
 11
4059.8314551776188637
 21
136.4619671222446868
 31
0.0
  0
ARC
  5
90D4
  8
0
 10
4059.846834859349201
 20
136.4405904159669944
 30
0.0
 40
0.0263343536356338
 50
109.7588904691108951
 51
125.7334995591202045
  0
ARC
  5
90D5
  8
0
 10
4059.8886326218280374
 20
136.324230778752991
 30
0.0
 40
0.1499734175305486
 50
104.8916611376526049
 51
109.7588904691108951
  0
ARC
  5
90D6
  8
0
 10
4059.89814592310222
 20
136.2884562115492884
 30
0.0
 40
0.1869912856449313
 50
98.804437546757697
 51
104.8916611376526049
  0
ARC
  5
90D7
  8
0
 10
4060.3461412333981571
 20
133.3960643090792928
 30
0.0
 40
3.1138719999074471
 50
98.2847910674655623
 51
98.804437546757697
  0
ARC
  5
90D8
  8
0
 10
4059.9575462964398866
 20
136.0647447677746982
 30
0.0
 40
0.4170476794053684
 50
94.9262925191065392
 51
98.2847910674655623
  0
LINE
  5
90D9
  8
0
 10
4059.9217326906191374
 20
136.4802518706445937
 30
0.0
 11
4059.947973390162133
 21
136.4781395090336957
 31
0.0
  0
LINE
  5
90DA
  8
0
 10
4059.8679358183189834
 20
136.4619673118187109
 30
0.0
 11
4059.8695245930180135
 21
136.4732440909446893
 31
0.0
  0
ARC
  5
90DB
  8
0
 10
4059.8674214180259696
 20
136.458095378094697
 30
0.0
 40
0.0032260516828642
 50
134.3582209690706861
 51
225.6417790309293139
  0
LINE
  5
90DC
  8
0
 10
4059.8651659492379622
 20
136.4604019491447104
 30
0.0
 11
4059.8295672438189285
 21
136.4604019491447104
 31
0.0
  0
ARC
  5
90DD
  8
0
 10
4059.8322123971911424
 20
136.458095378094697
 30
0.0
 40
0.0035095735312161
 50
138.911604918264203
 51
221.0883950817419077
  0
LINE
  5
90DE
  8
0
 10
4059.8295672438189285
 20
136.4557888070445983
 30
0.0
 11
4059.8651659492379622
 21
136.4557888070445983
 31
0.0
  0
ARC
  5
90DF
  8
0
 10
4059.8971517486629637
 20
136.5073540122170073
 30
0.0
 40
0.0606367388119061
 50
241.3114789777579006
 51
255.3094452405088077
  0
LINE
  5
90E0
  8
0
 10
4059.8680432183191442
 20
136.4541608965446926
 30
0.0
 11
4059.8314551776188637
 21
136.4542236338446912
 31
0.0
  0
ARC
  5
90E1
  8
0
 10
4059.8450543399058006
 20
136.4727851873626037
 30
0.0
 40
0.0230101821790548
 50
233.7715502011529054
 51
247.6065820428759992
  0
ARC
  5
90E2
  8
0
 10
4059.8736169626117771
 20
136.5421059063777136
 30
0.0
 40
0.0979847478702716
 50
247.6065820428759992
 51
257.5887577077814967
  0
ARC
  5
90E3
  8
0
 10
4059.9623699453090921
 20
136.9454002919966058
 30
0.0
 40
0.5109296030380578
 50
257.5887577077814967
 51
260.0088478811829873
  0
ARC
  5
90E4
  8
0
 10
4059.9161584873631909
 20
136.6830852226900959
 30
0.0
 40
0.2445751504173269
 50
260.0088478811829873
 51
261.9115894837510155
  0
LINE
  5
90E5
  8
0
 10
4059.2816412976499123
 20
132.4624982624837912
 30
0.0
 11
4060.2528837060190199
 21
132.4624982624837912
 31
0.0
  0
LINE
  5
90E6
  8
0
 10
4059.4784916914209134
 20
137.0294272981140011
 30
0.0
 11
4060.2528837060190199
 21
137.0294272981140011
 31
0.0
  0
LINE
  5
90E7
  8
0
 10
4061.2438448815191805
 20
132.3050176149446884
 30
0.0
 11
4060.2528837060190199
 21
132.3050176149446884
 31
0.0
  0
LINE
  5
90E8
  8
0
 10
4061.0279528863688938
 20
138.2337577731447027
 30
0.0
 11
4060.2528837060190199
 21
138.2337577731447027
 31
0.0
  0
LINE
  5
90E9
  8
0
 10
4061.0292995247191357
 20
137.170765647144691
 30
0.0
 11
4060.2528837060190199
 21
137.170765647144691
 31
0.0
  0
ARC
  5
90EA
  8
0
 10
4060.0189397831732094
 20
137.2788269582530916
 30
0.0
 40
1.0161220666313371
 50
353.8952340669399064
 51
357.7311461548537181
  0
ARC
  5
90EB
  8
0
 10
4180.3848731811949619
 20
129.676379046432686
 30
0.0
 40
119.5899443715268973
 50
176.2791603859290035
 51
176.3745060017172932
  0
LINE
  5
90EC
  8
0
 10
4061.0470147757191626
 20
137.4372002645447139
 30
0.0
 11
4061.047014775819207
 21
138.2140727337447004
 31
0.0
  0
ARC
  5
90ED
  8
0
 10
4061.0272336510010973
 20
138.2139895532318121
 30
0.0
 40
0.0197812997054632
 50
0.2409298831723065
 51
87.9163029407496595
  0
LINE
  5
90EE
  8
0
 10
4060.943259684289842
 20
138.1224315817291881
 30
0.0
 11
4061.0057111142177746
 21
138.0176335965446981
 31
0.0
  0
LINE
  5
90EF
  8
0
 10
4061.0057111142177746
 20
138.0176335965446981
 30
0.0
 11
4061.009140434019173
 21
137.170765647144691
 31
0.0
  0
LINE
  5
90F0
  8
0
 10
4060.943259684289842
 20
138.1224315817291881
 30
0.0
 11
4060.9432592667189965
 21
138.2140727337447004
 31
0.0
  0
ARC
  5
90F1
  8
0
 10
4060.9235739792470667
 20
138.2140727337447004
 30
0.0
 40
0.0196852874726039
 50
0.0
 51
89.7123551460216504
  0
ARC
  5
90F2
  8
0
 10
4061.0272414700298214
 20
137.0096538248471916
 30
0.0
 40
0.0197735029303334
 50
0.2555683463525206
 51
89.9007553149260019
  0
LINE
  5
90F3
  8
0
 10
4061.0470147762521265
 20
137.0097420244445914
 30
0.0
 11
4061.0470147762521265
 21
132.4624982624837912
 31
0.0
  0
LINE
  5
90F4
  8
0
 10
4061.2438448815191805
 20
132.3050176149446884
 30
0.0
 11
4061.2438448813841205
 21
132.4428128905447011
 31
0.0
  0
ARC
  5
90F5
  8
0
 10
4061.2240900620818138
 20
132.4427433536951071
 30
0.0
 40
0.0197549416860782
 50
0.2016799793647666
 51
89.8954364893990174
  0
ARC
  5
90F6
  8
0
 10
4060.787394934267013
 20
135.0182641710310918
 30
0.0
 40
1.517454019631812
 50
87.3201117700623968
 51
90.0002810673754965
  0
ARC
  5
90F7
  8
0
 10
4060.8457091740729084
 20
136.2641082874839924
 30
0.0
 40
0.2702458922270448
 50
77.2270652364111356
 51
87.3201117700623968
  0
LINE
  5
90F8
  8
0
 10
4060.9054572531190388
 20
136.5276666478447112
 30
0.0
 11
4061.0000896148490028
 21
136.224137266196891
 31
0.0
  0
ARC
  5
90F9
  8
0
 10
4060.8414077657957932
 20
136.1878893339186902
 30
0.0
 40
0.1627692867928784
 50
359.0495329162861822
 51
12.8673970532707997
  0
LINE
  5
90FA
  8
0
 10
4061.0041546570560058
 20
136.1851893138617129
 30
0.0
 11
4061.0088766353192113
 21
135.8777500828365987
 31
0.0
  0
LINE
  5
90FB
  8
0
 10
4061.0088766353192113
 20
135.8777500828365987
 30
0.0
 11
4061.0088766353192113
 21
132.4624979299445897
 31
0.0
  0
ARC
  5
90FC
  8
0
 10
4060.8857753518191203
 20
137.0097456309447068
 30
0.0
 40
0.0196816675000018
 50
0.0000000000048853
 51
89.7202493400802439
  0
LINE
  5
90FD
  8
0
 10
4060.9054570193188738
 20
137.0097456309447068
 30
0.0
 11
4060.9054572531190388
 21
136.5276666478447112
 31
0.0
  0
LINE
  5
90FE
  8
0
 10
4060.9221750446190526
 20
137.0294270638447074
 30
0.0
 11
4060.9221750446190526
 21
137.0310018676445907
 31
0.0
  0
ARC
  5
90FF
  8
0
 10
4060.3316238635161426
 20
137.0310018676443065
 30
0.0
 40
0.5905511811031277
 50
0.0000000000325689
 51
13.6898874519229192
  0
LINE
  5
9100
  8
0
 10
4061.224126114387218
 20
132.4624982624837912
 30
0.0
 11
4060.2528837060190199
 21
132.4624982624837912
 31
0.0
  0
LINE
  5
9101
  8
0
 10
4061.0272757206180358
 20
137.0294272981140011
 30
0.0
 11
4060.2528837060190199
 21
137.0294272981140011
 31
0.0
  0
ARC
  5
9102
  8
0
 10
4060.3105803110561283
 20
97315.72111375060922
 30
0.0
 40
97179.1853967292263405
 50
269.9999659827167875
 51
270.0002811202672888
  0
ARC
  5
9103
  8
0
 10
4060.6185489744339066
 20
136.4567421364494919
 30
0.0
 40
0.0056511935543076
 50
29.1254453230156116
 51
54.6848494612758813
  0
ARC
  5
9104
  8
0
 10
4060.6771521688451685
 20
136.3542134791532021
 30
0.0
 40
0.1196994209056516
 50
71.7628898443515055
 51
77.2477385913732917
  0
ARC
  5
9105
  8
0
 10
4060.5019156312141604
 20
135.5799213909961907
 30
0.0
 40
0.9135735179158427
 50
77.2477385913732917
 51
78.2051846177269141
  0
ARC
  5
9106
  8
0
 10
4060.6090429144328482
 20
136.0929426789984973
 30
0.0
 40
0.3894866007413192
 50
78.2051846177269141
 51
84.8585960407918378
  0
ARC
  5
9107
  8
0
 10
4060.4482872490189038
 20
134.8093630379185868
 30
0.0
 40
1.682911753020512
 50
83.3235639460733921
 51
85.8263129099082818
  0
ARC
  5
9108
  8
0
 10
4060.2820428581480883
 20
132.3410006356718043
 30
0.0
 40
4.156850424400921
 50
86.0171361323852608
 51
89.8828128376487143
  0
ARC
  5
9109
  8
0
 10
4060.3215972686989517
 20
151.6801294257980999
 30
0.0
 40
15.1823188160936002
 50
269.7406845011362861
 51
269.8828128376487143
  0
ARC
  5
910A
  8
0
 10
4060.4997370795372262
 20
137.6154895562214051
 30
0.0
 40
1.1889393891859421
 50
275.9980865813735136
 51
277.9323654674091131
  0
ARC
  5
910B
  8
0
 10
4060.5949737821738381
 20
136.9319918761613906
 30
0.0
 40
0.4988385935215395
 50
277.9323654674091131
 51
282.1397327216758981
  0
ARC
  5
910C
  8
0
 10
4060.6693266941151705
 20
136.5863361943096947
 30
0.0
 40
0.1452764265546427
 50
282.1397327216758981
 51
289.3783925274901208
  0
ARC
  5
910D
  8
0
 10
4060.7040520936020584
 20
136.4876092559186134
 30
0.0
 40
0.0406205058735267
 50
289.3783925274901208
 51
302.5971362812900907
  0
ARC
  5
910E
  8
0
 10
4060.7210888694271489
 20
136.460966658282814
 30
0.0
 40
0.0089964685076106
 50
302.5971362812910002
 51
322.7592723732258264
  0
ARC
  5
910F
  8
0
 10
4060.7238961809798639
 20
136.4588326459036978
 30
0.0
 40
0.0054701379802645
 50
322.759272373224519
 51
345.755269030920374
  0
ARC
  5
9110
  8
0
 10
4060.7265645117090571
 20
136.4581552374347098
 30
0.0
 40
0.0027171630243415
 50
345.7552690309282752
 51
25.005507632200171
  0
ARC
  5
9111
  8
0
 10
4060.7211798579769493
 20
136.4556437019782891
 30
0.0
 40
0.0086587374076977
 50
25.0055076321972116
 51
38.9956492276096682
  0
ARC
  5
9112
  8
0
 10
4060.7184843768159226
 20
136.4522564473190016
 30
0.0
 40
0.0129190970715204
 50
43.1521577740240971
 51
59.7425299015027633
  0
ARC
  5
9113
  8
0
 10
4060.7023482634040192
 20
136.4252508383877966
 30
0.0
 40
0.0443777261429765
 50
59.3163059990034398
 51
73.9574219053244377
  0
ARC
  5
9114
  8
0
 10
4060.5367259057697993
 20
137.1245713074877131
 30
0.0
 40
0.6922332304578873
 50
277.2439090418109799
 51
278.9768059764655845
  0
ARC
  5
9115
  8
0
 10
4060.5832608132268433
 20
136.8299897110530878
 30
0.0
 40
0.3939987345154013
 50
278.9768059764655845
 51
283.0791592757885837
  0
ARC
  5
9116
  8
0
 10
4060.6486877636048121
 20
136.5483701509328114
 30
0.0
 40
0.1048789280717479
 50
283.0791592757885837
 51
291.2927921177044936
  0
ARC
  5
9117
  8
0
 10
4060.6713088763008273
 20
136.4903284234218859
 30
0.0
 40
0.0425848122012018
 50
291.2927921177044936
 51
303.6180379968516263
  0
ARC
  5
9118
  8
0
 10
4060.6734786016932048
 20
136.4967241791536878
 30
0.0
 40
0.0470147286947081
 50
297.0865781671878949
 51
307.5732907426556153
  0
ARC
  5
9119
  8
0
 10
4060.6994049035761236
 20
136.4634652743519894
 30
0.0
 40
0.0048527636248568
 50
304.4069937132945256
 51
17.3143444595133893
  0
ARC
  5
911A
  8
0
 10
4060.6982078580899724
 20
136.4627445708337063
 30
0.0
 40
0.0062189149669213
 50
20.3726120232337102
 51
49.5674911939065623
  0
ARC
  5
911B
  8
0
 10
4060.6814536749529907
 20
136.441073770487094
 30
0.0
 40
0.0336052707765616
 50
51.787652916973407
 51
60.4760673266109023
  0
ARC
  5
911C
  8
0
 10
4060.6663009624439837
 20
136.4095674891634076
 30
0.0
 40
0.0685275094572474
 50
62.4335519601019868
 51
70.0973143028308385
  0
ARC
  5
911D
  8
0
 10
4060.6786328374919322
 20
136.4712965133124101
 30
0.0
 40
0.02255474010058
 50
305.9646038962985131
 51
314.8839186154111758
  0
ARC
  5
911E
  8
0
 10
4060.6915150303798328
 20
136.4583620156772952
 30
0.0
 40
0.0042995456982824
 50
314.8839186154145864
 51
354.1068176856971945
  0
ARC
  5
911F
  8
0
 10
4060.6926515472800929
 20
136.4582447047584992
 30
0.0
 40
0.0031569904416929
 50
354.1068176857003778
 51
45.2836660054382207
  0
ARC
  5
9120
  8
0
 10
4060.6845389306390643
 20
136.4515768729974923
 30
0.0
 40
0.0136454399491537
 50
40.7721277840138825
 51
66.8913699335994352
  0
ARC
  5
9121
  8
0
 10
4060.65824803157102
 20
136.3966243397472908
 30
0.0
 40
0.0745530864532029
 50
64.8821548157345376
 51
75.4546704300050521
  0
ARC
  5
9122
  8
0
 10
4060.5899997863862154
 20
136.1279227181287865
 30
0.0
 40
0.3517857605974277
 50
75.6863499166335032
 51
82.3692686900104007
  0
ARC
  5
9123
  8
0
 10
4060.4354062471961697
 20
134.9740194703240093
 30
0.0
 40
1.515998742681576
 50
82.3692686900104007
 51
84.3548634768616239
  0
ARC
  5
9124
  8
0
 10
4060.439116360612843
 20
135.0115536462066075
 30
0.0
 40
1.4782816470783171
 50
84.3548634768616239
 51
86.6380071221244918
  0
ARC
  5
9125
  8
0
 10
4060.1198433953441054
 20
129.5766837755863037
 30
0.0
 40
6.9225213310863287
 50
86.6380071221244918
 51
87.2150312855247734
  0
ARC
  5
9126
  8
0
 10
4060.3266621715852125
 20
133.8282608986228013
 30
0.0
 40
2.6659168111274938
 50
87.2150312855247734
 51
88.9972725660024366
  0
ARC
  5
9127
  8
0
 10
4060.0842488672119543
 20
119.9781948370253986
 30
0.0
 40
16.5181041517878491
 50
88.9972725660024366
 51
89.2971758614588254
  0
ARC
  5
9128
  8
0
 10
4060.2638620701350192
 20
134.6199263012441918
 30
0.0
 40
1.875271052521907
 50
89.2971758614588254
 51
90.3354275223336884
  0
LINE
  5
9129
  8
0
 10
4060.2991435485191687
 20
136.4933670818446956
 30
0.0
 11
4060.2991435485191687
 21
136.4903138363451944
 31
0.0
  0
LINE
  5
912A
  8
0
 10
4060.2991435485191687
 20
136.4903138363451944
 30
0.0
 11
4060.4923725117741924
 21
136.4836150050541903
 31
0.0
  0
LINE
  5
912B
  8
0
 10
4060.4923725117741924
 20
136.4836150050541903
 30
0.0
 11
4060.5181680278187741
 21
136.4857739756446904
 31
0.0
  0
LINE
  5
912C
  8
0
 10
4060.5181680278187741
 20
136.4857739756446904
 30
0.0
 11
4060.4728230033601903
 21
136.4884307964003938
 31
0.0
  0
LINE
  5
912D
  8
0
 10
4060.4728230033601903
 20
136.4884307964003938
 30
0.0
 11
4060.2991435485191687
 21
136.4933670818446956
 31
0.0
  0
LINE
  5
912E
  8
0
 10
4060.5717008417191209
 20
136.4815169781446968
 30
0.0
 11
4060.5327264522179576
 21
136.4847789621447021
 31
0.0
  0
LINE
  5
912F
  8
0
 10
4060.5327264522179576
 20
136.4847789621447021
 30
0.0
 11
4060.5075543662192104
 21
136.4826721699446921
 31
0.0
  0
LINE
  5
9130
  8
0
 10
4060.5075543662192104
 20
136.4826721699446921
 30
0.0
 11
4060.5465287557181
 21
136.4794101859446869
 31
0.0
  0
LINE
  5
9131
  8
0
 10
4060.5465287557181
 20
136.4794101859446869
 30
0.0
 11
4060.5717008417191209
 21
136.4815169781446968
 31
0.0
  0
LINE
  5
9132
  8
0
 10
4060.5577940218749973
 20
136.4781395090336957
 30
0.0
 11
4060.583874713098794
 21
136.4749956563468913
 31
0.0
  0
ARC
  5
9133
  8
0
 10
4060.5454365310779394
 20
136.1561211872302124
 30
0.0
 40
0.3211828465089628
 50
77.9444579824537556
 51
83.1265414393186006
  0
ARC
  5
9134
  8
0
 10
4060.5749004261137998
 20
136.2940801733157059
 30
0.0
 40
0.1801126407514026
 50
71.5763060569178151
 51
77.9444579824537556
  0
ARC
  5
9135
  8
0
 10
4060.6242615825722169
 20
136.4422606623078025
 30
0.0
 40
0.0239269144997902
 50
55.4486776798178127
 51
71.5763060569178151
  0
LINE
  5
9136
  8
0
 10
4060.6378315937190564
 20
136.4619673118187109
 30
0.0
 11
4060.6743122344191761
 21
136.4619671222446868
 31
0.0
  0
ARC
  5
9137
  8
0
 10
4060.6589325526888388
 20
136.4405904159669944
 30
0.0
 40
0.0263343536356338
 50
54.2665004408798026
 51
70.2411095308890339
  0
ARC
  5
9138
  8
0
 10
4060.6171347902090929
 20
136.324230778752991
 30
0.0
 40
0.1499734175305486
 50
70.2411095308890339
 51
75.108338862347324
  0
ARC
  5
9139
  8
0
 10
4060.6076214889358198
 20
136.2884562115492884
 30
0.0
 40
0.1869912856449313
 50
75.108338862347324
 51
81.195562453242303
  0
ARC
  5
913A
  8
0
 10
4060.1596261786398827
 20
133.3960643090792928
 30
0.0
 40
3.1138719999074471
 50
81.195562453242303
 51
81.7152089325344662
  0
ARC
  5
913B
  8
0
 10
4060.5482211155967889
 20
136.0647447677746982
 30
0.0
 40
0.4170476794053684
 50
81.7152089325344662
 51
85.0737074808934466
  0
LINE
  5
913C
  8
0
 10
4060.5840347214189023
 20
136.4802518706445937
 30
0.0
 11
4060.5577940218749973
 21
136.4781395090336957
 31
0.0
  0
LINE
  5
913D
  8
0
 10
4060.6378315937190564
 20
136.4619673118187109
 30
0.0
 11
4060.6362428190191167
 21
136.4732440909446893
 31
0.0
  0
ARC
  5
913E
  8
0
 10
4060.6383459940120702
 20
136.458095378094697
 30
0.0
 40
0.0032260516828642
 50
314.3582209690708282
 51
45.6417790309292499
  0
LINE
  5
913F
  8
0
 10
4060.6406014627991681
 20
136.4604019491447104
 30
0.0
 11
4060.6762001682191112
 21
136.4604019491447104
 31
0.0
  0
ARC
  5
9140
  8
0
 10
4060.6735550148459879
 20
136.458095378094697
 30
0.0
 40
0.0035095735312161
 50
318.9116049182580923
 51
41.088395081735797
  0
LINE
  5
9141
  8
0
 10
4060.6762001682191112
 20
136.4557888070445983
 30
0.0
 11
4060.6406014627991681
 21
136.4557888070445983
 31
0.0
  0
ARC
  5
9142
  8
0
 10
4060.6086156633741666
 20
136.5073540122170073
 30
0.0
 40
0.0606367388119061
 50
284.6905547594911923
 51
298.6885210222421279
  0
LINE
  5
9143
  8
0
 10
4060.6377241937188955
 20
136.4541608965446926
 30
0.0
 11
4060.6743122344191761
 21
136.4542236338446912
 31
0.0
  0
ARC
  5
9144
  8
0
 10
4060.6607130721317844
 20
136.4727851873626037
 30
0.0
 40
0.0230101821790548
 50
292.3934179571239724
 51
306.228449798847123
  0
ARC
  5
9145
  8
0
 10
4060.6321504494258079
 20
136.5421059063777136
 30
0.0
 40
0.0979847478702716
 50
282.4112422922185033
 51
292.3934179571239724
  0
ARC
  5
9146
  8
0
 10
4060.5433974667271286
 20
136.9454002919966058
 30
0.0
 40
0.5109296030380578
 50
279.9911521188170127
 51
282.4112422922185033
  0
ARC
  5
9147
  8
0
 10
4060.5896089246748488
 20
136.6830852226900959
 30
0.0
 40
0.2445751504173269
 50
278.0884105162490982
 51
279.9911521188170127
  0
LINE
  5
9148
  8
0
 10
4059.5733027800329182
 20
138.1069515432446906
 30
0.0
 11
4060.9357004589669486
 21
138.1069515432446906
 31
0.0
  0
LINE
  5
9149
  8
0
 10
4060.2099847263680203
 20
136.3531845371564941
 30
0.0
 11
4060.3167854833059209
 21
136.3531845371564941
 31
0.0
  0
LINE
  5
914A
  8
0
 10
4059.4999766575569993
 20
137.9979664935426911
 30
0.0
 11
4061.0057907544810405
 21
137.9979664935426911
 31
0.0
  0
ARC
  5
914B
  8
0
 10
4059.5784064626050167
 20
138.1220142026201074
 30
0.0
 40
0.0159038134813985
 50
178.4936336623065074
 51
251.2820720992571069
  0
ARC
  5
914C
  8
0
 10
4060.9235611166600393
 20
138.122465119874704
 30
0.0
 40
0.0196985961809594
 50
308.0431081273637233
 51
359.9024501491823003
  0
ENDSEC
  0
EOF
