  0
SECTION
  2
HEADER
  9
$ACADVER
  1
AC1009
  9
$INSBASE
 10
4066.4730107956029315
 20
132.3130859542374935
 30
0.0
  9
$EXTMIN
 10
4061.3223543645740392
 20
132.3078895462298021
 30
-0.0000000000112498
  9
$EXTMAX
 10
4067.5291907412488399
 20
138.2463234579012124
 30
0.0000000000002956
  9
$LIMMIN
 10
0.0
 20
0.0
  9
$LIMMAX
 10
11.6929133858000007
 20
8.2677165353999982
  9
$ORTHOMODE
 70
     0
  9
$REGENMODE
 70
     1
  9
$FILLMODE
 70
     1
  9
$QTEXTMODE
 70
     0
  9
$MIRRTEXT
 70
     0
  9
$DRAGMODE
 70
     2
  9
$LTSCALE
 40
0.6431102362
  9
$OSMODE
 70
  4095
  9
$ATTMODE
 70
     1
  9
$TEXTSIZE
 40
0.2
  9
$TRACEWID
 40
0.05
  9
$TEXTSTYLE
  7
STANDARD
  9
$CLAYER
  8
0
  9
$CELTYPE
  6
BYLAYER
  9
$CECOLOR
 62
   256
  9
$DIMSCALE
 40
1.0
  9
$DIMASZ
 40
0.1875
  9
$DIMEXO
 40
0.0625
  9
$DIMDLI
 40
0.4443307087
  9
$DIMRND
 40
0.0
  9
$DIMDLE
 40
0.0
  9
$DIMEXE
 40
0.125
  9
$DIMTP
 40
0.01
  9
$DIMTM
 40
0.01
  9
$DIMTXT
 40
2.0
  9
$DIMCEN
 40
0.1052362205
  9
$DIMTSZ
 40
0.0
  9
$DIMTOL
 70
     1
  9
$DIMLIM
 70
     0
  9
$DIMTIH
 70
     1
  9
$DIMTOH
 70
     1
  9
$DIMSE1
 70
     0
  9
$DIMSE2
 70
     0
  9
$DIMTAD
 70
     0
  9
$DIMZIN
 70
     0
  9
$DIMBLK
  1

  9
$DIMASO
 70
     1
  9
$DIMSHO
 70
     1
  9
$DIMPOST
  1
\X
  9
$DIMAPOST
  1

  9
$DIMALT
 70
     1
  9
$DIMALTD
 70
     2
  9
$DIMALTF
 40
25.3999999999999986
  9
$DIMLFAC
 40
1.0
  9
$DIMTOFL
 70
     0
  9
$DIMTVP
 40
0.0
  9
$DIMTIX
 70
     0
  9
$DIMSOXD
 70
     0
  9
$DIMSAH
 70
     0
  9
$DIMBLK1
  1

  9
$DIMBLK2
  1

  9
$DIMSTYLE
  2
STANDARD
  9
$DIMCLRD
 70
     0
  9
$DIMCLRE
 70
     0
  9
$DIMCLRT
 70
     0
  9
$DIMTFAC
 40
1.0
  9
$DIMGAP
 40
0.09
  9
$LUNITS
 70
     2
  9
$LUPREC
 70
     4
  9
$SKETCHINC
 40
0.1
  9
$FILLETRAD
 40
0.0
  9
$AUNITS
 70
     0
  9
$AUPREC
 70
     0
  9
$MENU
  1
.
  9
$ELEVATION
 40
0.0
  9
$PELEVATION
 40
0.0
  9
$THICKNESS
 40
0.0
  9
$LIMCHECK
 70
     0
  9
$BLIPMODE
 70
     0
  9
$CHAMFERA
 40
0.0
  9
$CHAMFERB
 40
0.0
  9
$SKPOLY
 70
     0
  9
$TDCREATE
 40
2458060.468368056230247
  9
$TDUPDATE
 40
2460115.3943981481716037
  9
$TDINDWG
 40
0.3106320602
  9
$TDUSRTIMER
 40
0.3106320602
  9
$USRTIMER
 70
     1
  9
$ANGBASE
 50
0.0
  9
$ANGDIR
 70
     0
  9
$PDMODE
 70
     0
  9
$PDSIZE
 40
0.3125
  9
$PLINEWID
 40
0.0
  9
$COORDS
 70
     1
  9
$SPLFRAME
 70
     0
  9
$SPLINETYPE
 70
     6
  9
$SPLINESEGS
 70
     8
  9
$ATTDIA
 70
     1
  9
$ATTREQ
 70
     1
  9
$HANDLING
 70
     1
  9
$HANDSEED
  5
88D8
  9
$SURFTAB1
 70
     6
  9
$SURFTAB2
 70
     6
  9
$SURFTYPE
 70
     6
  9
$SURFU
 70
     6
  9
$SURFV
 70
     6
  9
$UCSNAME
  2

  9
$UCSORG
 10
0.0
 20
0.0
 30
0.0
  9
$UCSXDIR
 10
1.0
 20
0.0
 30
0.0
  9
$UCSYDIR
 10
0.0
 20
1.0
 30
0.0
  9
$PUCSNAME
  2

  9
$PUCSORG
 10
0.0
 20
0.0
 30
0.0
  9
$PUCSXDIR
 10
1.0
 20
0.0
 30
0.0
  9
$PUCSYDIR
 10
0.0
 20
1.0
 30
0.0
  9
$USERI1
 70
     0
  9
$USERI2
 70
     0
  9
$USERI3
 70
     0
  9
$USERI4
 70
     0
  9
$USERI5
 70
     0
  9
$USERR1
 40
0.0
  9
$USERR2
 40
0.0
  9
$USERR3
 40
0.0
  9
$USERR4
 40
0.0
  9
$USERR5
 40
0.0
  9
$WORLDVIEW
 70
     1
  9
$SHADEDGE
 70
     3
  9
$SHADEDIF
 70
    70
  9
$TILEMODE
 70
     1
  9
$MAXACTVP
 70
    64
  9
$PLIMCHECK
 70
     0
  9
$PEXTMIN
 10
1.0000000000000000E+20
 20
1.0000000000000000E+20
 30
1.0000000000000000E+20
  9
$PEXTMAX
 10
-1.0000000000000000E+20
 20
-1.0000000000000000E+20
 30
-1.0000000000000000E+20
  9
$PLIMMIN
 10
0.0
 20
0.0
  9
$PLIMMAX
 10
12.0
 20
9.0
  9
$UNITMODE
 70
     0
  9
$VISRETAIN
 70
     1
  9
$PLINEGEN
 70
     0
  9
$PSLTSCALE
 70
     1
  0
ENDSEC
  0
SECTION
  2
TABLES
  0
TABLE
  2
VPORT
 70
     1
  0
VPORT
  2
*ACTIVE
 70
     0
 10
0.0
 20
0.0
 11
1.0
 21
1.0
 12
22.1800450138498491
 22
-0.3150041910899972
 13
0.0
 23
0.0
 14
1.0
 24
1.0
 15
0.0
 25
0.0
 16
0.0
 26
0.0
 36
53.2874995227186403
 17
4042.2457275390629547
 27
135.5921106931554903
 37
0.0
 40
5.982045421426732
 41
2.3419117647058818
 42
50.0
 43
0.0
 44
0.0
 50
0.0
 51
0.0
 71
     0
 72
   100
 73
     1
 74
     1
 75
     0
 76
     0
 77
     0
 78
     0
  0
ENDTAB
  0
TABLE
  2
LTYPE
 70
     2
  0
LTYPE
  2
CONTINUOUS
 70
     0
  3
Solid line
 72
    65
 73
     0
 40
0.0
  0
LTYPE
  2
PHANTOM2
 70
     0
  3
___ _ _ ___ _ _ ___ _ _ ___ _ _
 72
    65
 73
     6
 40
1.25
 49
0.625
 49
-0.125
 49
0.125
 49
-0.125
 49
0.125
 49
-0.125
  0
ENDTAB
  0
TABLE
  2
LAYER
 70
     2
  0
LAYER
  2
0
 70
     0
 62
   255
  6
CONTINUOUS
  0
LAYER
  2
DEFPOINTS
 70
     0
 62
     7
  6
CONTINUOUS
  0
ENDTAB
  0
TABLE
  2
STYLE
 70
     1
  0
STYLE
  2
STANDARD
 70
     0
 40
0.0
 41
0.8
 50
0.0
 71
     0
 42
0.2
  3
txt
  4

  0
ENDTAB
  0
TABLE
  2
VIEW
 70
     0
  0
ENDTAB
  0
TABLE
  2
UCS
 70
     0
  0
ENDTAB
  0
TABLE
  2
APPID
 70
     9
  0
APPID
  2
ACAD
 70
     0
  0
APPID
  2
ACAD_MLEADERVER
 70
     0
  0
APPID
  2
ACAD_EXEMPT_FROM_CAD_STANDARDS
 70
     0
  0
APPID
  2
ACAD_NAV_VCDISPLAY
 70
     0
  0
APPID
  2
ACAECLAYERSTANDARD
 70
     0
  0
APPID
  2
ACCMTRANSPARENCY
 70
     0
  0
APPID
  2
ACAD_DSTYLE_DIMJAG
 70
     0
  0
APPID
  2
ACAD_DSTYLE_DIMTALN
 70
     0
  0
APPID
  2
ACDBATTR
 70
     0
  0
ENDTAB
  0
TABLE
  2
DIMSTYLE
 70
     1
  0
DIMSTYLE
  2
STANDARD
 70
     0
  3

  4

  5

  6

  7

 40
1.0
 41
0.1875
 42
0.0625
 43
0.38
 44
0.125
 45
0.0
 46
0.0
 47
0.01
 48
0.01
140
0.15625
141
0.09
142
0.0
143
25.3999999999999986
144
1.0
145
0.0
146
1.0
147
0.09
 71
     1
 72
     0
 73
     1
 74
     1
 75
     0
 76
     0
 77
     0
 78
     4
170
     0
171
     2
172
     0
173
     0
174
     0
175
     0
176
     0
177
     0
178
     0
  0
ENDTAB
  0
ENDSEC
  0
SECTION
  2
BLOCKS
  0
BLOCK
  8
0
  2
$MODEL_SPACE
 70
     0
 10
0.0
 20
0.0
 30
0.0
  3
$MODEL_SPACE
  1

  0
ENDBLK
  5
21
  8
0
  0
BLOCK
 67
     1
  8
0
  2
$PAPER_SPACE
 70
     0
 10
0.0
 20
0.0
 30
0.0
  3
$PAPER_SPACE
  1

  0
ENDBLK
  5
1D
 67
     1
  8
0
  0
ENDSEC
  0
SECTION
  2
ENTITIES
  0
ATTDEF
  5
3930
  8
DEFPOINTS
 10
4066.4733563748518463
 20
132.3167808076190965
 30
0.0
 40
0.001
  1
K-24747X-4
  3

  2
MODELNUMBER
 70
     0
1001
ACDBATTR
1070
     0
1070
     1
  0
ATTDEF
  5
3931
  8
DEFPOINTS
 10
4066.4733563748518463
 20
132.315114140952403
 30
0.0
 40
0.001
  1
HONESTY
  3

  2
TRADENAME
 70
     0
1001
ACDBATTR
1070
     0
1070
     1
  0
ATTDEF
  5
3932
  8
DEFPOINTS
 10
4066.4733563748518463
 20
132.3134474742857947
 30
0.0
 40
0.001
  1
BATHROOM SINK FAUCET
  3

  2
PRODUCT
 70
     0
1001
ACDBATTR
1070
     0
1070
     1
  0
LINE
  5
80F6
  8
0
 10
4065.4789163074028693
 20
132.3130859542374935
 30
0.0
 11
4067.4671052838029937
 21
132.3130859542374935
 31
0.0
  0
LINE
  5
80F9
  8
0
 10
4063.0674989845028904
 20
138.2418261124375078
 30
0.0
 11
4067.2505698515060431
 21
138.2418261124375078
 31
0.0
  0
LINE
  5
80FB
  8
0
 10
4065.6757667006768315
 20
137.1788339864374962
 30
0.0
 11
4066.4697375307027869
 21
137.1788339864374962
 31
0.0
  0
LINE
  5
8106
  8
0
 10
4061.6501761499030181
 20
137.0374956374068915
 30
0.0
 11
4067.2505698507029592
 21
137.0374956374068915
 31
0.0
  0
LINE
  5
8109
  8
0
 10
4065.4986013468028432
 20
132.4705666017765964
 30
0.0
 11
4067.4474202444039292
 21
132.4705666017765964
 31
0.0
  0
LINE
  5
85B3
  8
0
 10
4065.4789163074028693
 20
132.3130859542374935
 30
0.0
 11
4065.4789163074028693
 21
132.4508812298375062
 31
0.0
  0
ARC
  5
85B4
  8
0
 10
4065.4986019144939746
 20
132.4508809946919996
 30
0.0
 40
0.019685607092772
 50
90.0016522893677262
 51
179.9993155993253993
  0
ARC
  5
85B5
  8
0
 10
4063.0674989844601441
 20
138.2221410731812057
 30
0.0
 40
0.0196850392562533
 50
89.9999998726687096
 51
180.0000004183912097
  0
LINE
  5
85B6
  8
0
 10
4063.0478139452029609
 20
138.2221410730375055
 30
0.0
 11
4063.0478139458418809
 21
138.1346863312375035
 31
0.0
  0
ARC
  5
85B7
  8
0
 10
4063.0674991369919553
 20
138.1346863313812037
 30
0.0
 40
0.0196851911506304
 50
180.0000004183960982
 51
267.499575197399281
  0
LINE
  5
85B8
  8
0
 10
4063.0666403351438021
 20
138.1150198825332041
 30
0.0
 11
4065.5628083610490648
 21
138.0060348328354962
 31
0.0
  0
ARC
  5
85B9
  8
0
 10
4065.557656464901811
 20
137.888037011408386
 30
0.0
 40
0.1181102362009406
 50
359.9999999655926217
 51
87.4999999993559072
  0
LINE
  5
85BA
  8
0
 10
4065.6757667011038393
 20
137.8880370113375022
 30
0.0
 11
4065.6757667006768315
 21
137.1788339864374962
 31
0.0
  0
ARC
  5
85BB
  8
0
 10
4066.4697375305067908
 20
137.2969442239499926
 30
0.0
 40
0.1181102375124698
 50
270.0000000949448236
 51
291.999999849383812
  0
LINE
  5
85BC
  8
0
 10
4066.5139824039420091
 20
137.1874343185529881
 30
0.0
 11
4067.270254890906017
 21
137.4929882348513104
 31
0.0
  0
LINE
  5
85BD
  8
0
 10
4067.270254890906017
 20
137.4929882348513104
 30
0.0
 11
4067.270254890906017
 21
138.2221410730375055
 31
0.0
  0
ARC
  5
85BE
  8
0
 10
4067.2505698515060431
 20
138.2221410730375055
 30
0.0
 40
0.0196850394000006
 50
359.9999999999968168
 51
90.0000023356576833
  0
ARC
  5
85BF
  8
0
 10
4067.1525418619030461
 20
137.8087552463375118
 30
0.0
 40
0.188713028199999
 50
308.5917723445020897
 51
51.4082273392850482
  0
ARC
  5
85C0
  8
0
 10
4066.5500635047778815
 20
137.038575660687286
 30
0.0
 40
0.5922388359093786
 50
0.0478445763529302
 51
36.8250839506335694
  0
LINE
  5
85C1
  8
0
 10
4067.1423021342029642
 20
137.0390702069375095
 30
0.0
 11
4067.1423025511999185
 21
137.0374956374068915
 31
0.0
  0
ARC
  5
85C2
  8
0
 10
4067.2505694507749467
 20
137.0178101980816905
 30
0.0
 40
0.0196854393292714
 50
0.0004821523301761
 51
89.9988359813002745
  0
LINE
  5
85C3
  8
0
 10
4067.2702548901029331
 20
137.0178103637375102
 30
0.0
 11
4067.2702548901029331
 21
132.4705666017765964
 31
0.0
  0
ARC
  5
85C4
  8
0
 10
4067.4474196767118883
 20
132.4508809946919996
 30
0.0
 40
0.0196856070927638
 50
0.000684400651749
 51
89.9983477106583365
  0
LINE
  5
85C5
  8
0
 10
4067.4671052838029937
 20
132.4508812298375062
 30
0.0
 11
4067.4671052838029937
 21
132.3130859542374935
 31
0.0
  0
LINE
  5
85C6
  8
0
 10
4065.6757667011038393
 20
132.4705666017765964
 30
0.0
 11
4065.6757667011038393
 21
135.8963046263374963
 31
0.0
  0
ARC
  5
85C7
  8
0
 10
4065.3608060712031147
 20
135.8963046263374963
 30
0.0
 40
0.3149606298999998
 50
0.0
 51
85.1989803666900229
  0
LINE
  5
85C8
  8
0
 10
4065.3871668828119255
 20
136.2101601759113976
 30
0.0
 11
4061.6485285992062018
 21
136.5241694059610893
 31
0.0
  0
ARC
  5
85C9
  8
0
 10
4061.6501370354421852
 20
136.5433196751843923
 30
0.0
 40
0.0192176970121591
 50
178.7059644900089097
 51
265.1989803666900229
  0
LINE
  5
85CA
  8
0
 10
4061.6309242396041554
 20
136.543753673437493
 30
0.0
 11
4061.6305116045919021
 21
137.0187083803716064
 31
0.0
  0
ARC
  5
85CB
  8
0
 10
4061.6501765646880813
 20
137.0178101750497035
 30
0.0
 40
0.0196854623615695
 50
90.0012072575355546
 51
177.3848088081998071
  0
LINE
  5
85CC
  8
0
 10
4061.969474718703168
 20
136.4972130555374861
 30
0.0
 11
4061.9662436156031617
 21
136.4545101912702023
 31
0.0
  0
ARC
  5
85CD
  8
0
 10
4062.3370694492500661
 20
136.4414473917975101
 30
0.0
 40
0.3710558389650859
 50
177.9825193858046077
 51
192.4815483554282878
  0
LINE
  5
85CE
  8
0
 10
4061.9747832704651955
 20
136.361252876449413
 30
0.0
 11
4062.6809173892002036
 21
136.301943953638613
 31
0.0
  0
ARC
  5
85CF
  8
0
 10
4062.338726931122892
 20
136.4407617266309103
 30
0.0
 40
0.3692778978485497
 50
337.9189813124125976
 51
355.1157199286636228
  0
LINE
  5
85D0
  8
0
 10
4062.7066638679480093
 20
136.4093200924679934
 30
0.0
 11
4062.7088678204740972
 21
136.4351112309674932
 31
0.0
  0
ARC
  5
85D1
  8
0
 10
4062.3370766139028092
 20
136.4414475928373918
 30
0.0
 40
0.3454724408997787
 50
329.7001065958978074
 51
336.5911811133074139
  0
ARC
  5
85D2
  8
0
 10
4062.6301427010271254
 20
136.2708543892015882
 30
0.0
 40
0.0063969364917952
 50
291.6463226582282005
 51
324.5889422912048872
  0
ARC
  5
85D3
  8
0
 10
4062.6078303635317752
 20
136.343832124440496
 30
0.0
 40
0.0826899942167406
 50
273.7282588429688985
 51
287.3595834747936237
  0
ARC
  5
85D4
  8
0
 10
4062.6579585790309466
 20
137.83185150862451
 30
0.0
 40
1.571171829613601
 50
260.087827234616725
 51
268.3678361836772979
  0
ARC
  5
85D5
  8
0
 10
4062.8381041782267857
 20
139.2253872865333904
 30
0.0
 40
2.975570834203185
 50
254.7622773312450875
 51
261.2899231148722947
  0
LINE
  5
85D6
  8
0
 10
4065.8037194570038082
 20
137.0374956374068915
 30
0.0
 11
4065.8037194570038082
 21
137.0390702069369127
 31
0.0
  0
ARC
  5
85D7
  8
0
 10
4066.3942706381008065
 20
137.0390702069375948
 30
0.0
 40
0.5905511810989559
 50
166.3101125480218059
 51
180.0000000000651141
  0
ENDSEC
  0
EOF
