  0
SECTION
  2
HEADER
  9
$ACADVER
  1
AC1009
  9
$INSBASE
 10
4360.5004886629103567
 20
243.8101291068199998
 30
0.0
  9
$EXTMIN
 10
4353.1947545879211248
 20
221.5585049811024021
 30
-0.0000000000000058
  9
$EXTMAX
 10
4367.8580300713547331
 20
243.8248497833920112
 30
0.0000000000000104
  9
$LIMMIN
 10
0.0
 20
0.0
  9
$LIMMAX
 10
11.6929133858000007
 20
8.2677165353999982
  9
$ORTHOMODE
 70
     0
  9
$REGENMODE
 70
     1
  9
$FILLMODE
 70
     1
  9
$QTEXTMODE
 70
     0
  9
$MIRRTEXT
 70
     0
  9
$DRAGMODE
 70
     2
  9
$LTSCALE
 40
0.6431102362
  9
$OSMODE
 70
   575
  9
$ATTMODE
 70
     1
  9
$TEXTSIZE
 40
0.2
  9
$TRACEWID
 40
0.05
  9
$TEXTSTYLE
  7
STANDARD
  9
$CLAYER
  8
0
  9
$CELTYPE
  6
BYLAYER
  9
$CECOLOR
 62
   256
  9
$DIMSCALE
 40
1.0
  9
$DIMASZ
 40
0.1875
  9
$DIMEXO
 40
0.0625
  9
$DIMDLI
 40
0.4443307087
  9
$DIMRND
 40
0.0
  9
$DIMDLE
 40
0.0
  9
$DIMEXE
 40
0.125
  9
$DIMTP
 40
0.01
  9
$DIMTM
 40
0.01
  9
$DIMTXT
 40
2.0
  9
$DIMCEN
 40
0.1052362205
  9
$DIMTSZ
 40
0.0
  9
$DIMTOL
 70
     1
  9
$DIMLIM
 70
     0
  9
$DIMTIH
 70
     1
  9
$DIMTOH
 70
     1
  9
$DIMSE1
 70
     0
  9
$DIMSE2
 70
     0
  9
$DIMTAD
 70
     0
  9
$DIMZIN
 70
     0
  9
$DIMBLK
  1

  9
$DIMASO
 70
     1
  9
$DIMSHO
 70
     1
  9
$DIMPOST
  1
\X
  9
$DIMAPOST
  1

  9
$DIMALT
 70
     1
  9
$DIMALTD
 70
     2
  9
$DIMALTF
 40
25.3999999999999986
  9
$DIMLFAC
 40
1.0
  9
$DIMTOFL
 70
     0
  9
$DIMTVP
 40
0.0
  9
$DIMTIX
 70
     0
  9
$DIMSOXD
 70
     0
  9
$DIMSAH
 70
     0
  9
$DIMBLK1
  1

  9
$DIMBLK2
  1

  9
$DIMSTYLE
  2
STANDARD
  9
$DIMCLRD
 70
     0
  9
$DIMCLRE
 70
     0
  9
$DIMCLRT
 70
     0
  9
$DIMTFAC
 40
1.0
  9
$DIMGAP
 40
0.09
  9
$LUNITS
 70
     2
  9
$LUPREC
 70
     4
  9
$SKETCHINC
 40
0.1
  9
$FILLETRAD
 40
0.0
  9
$AUNITS
 70
     0
  9
$AUPREC
 70
     0
  9
$MENU
  1
.
  9
$ELEVATION
 40
0.0
  9
$PELEVATION
 40
0.0
  9
$THICKNESS
 40
0.0
  9
$LIMCHECK
 70
     0
  9
$BLIPMODE
 70
     0
  9
$CHAMFERA
 40
0.0
  9
$CHAMFERB
 40
0.0
  9
$SKPOLY
 70
     0
  9
$TDCREATE
 40
2458060.468368056230247
  9
$TDUPDATE
 40
2459391.1027546301484108
  9
$TDINDWG
 40
0.6612570602
  9
$TDUSRTIMER
 40
0.6612570602
  9
$USRTIMER
 70
     1
  9
$ANGBASE
 50
0.0
  9
$ANGDIR
 70
     0
  9
$PDMODE
 70
     0
  9
$PDSIZE
 40
0.3125
  9
$PLINEWID
 40
0.0
  9
$COORDS
 70
     2
  9
$SPLFRAME
 70
     0
  9
$SPLINETYPE
 70
     6
  9
$SPLINESEGS
 70
     8
  9
$ATTDIA
 70
     1
  9
$ATTREQ
 70
     1
  9
$HANDLING
 70
     1
  9
$HANDSEED
  5
13B5D
  9
$SURFTAB1
 70
     6
  9
$SURFTAB2
 70
     6
  9
$SURFTYPE
 70
     6
  9
$SURFU
 70
     6
  9
$SURFV
 70
     6
  9
$UCSNAME
  2

  9
$UCSORG
 10
0.0
 20
0.0
 30
0.0
  9
$UCSXDIR
 10
1.0
 20
0.0
 30
0.0
  9
$UCSYDIR
 10
0.0
 20
1.0
 30
0.0
  9
$PUCSNAME
  2

  9
$PUCSORG
 10
0.0
 20
0.0
 30
0.0
  9
$PUCSXDIR
 10
1.0
 20
0.0
 30
0.0
  9
$PUCSYDIR
 10
0.0
 20
1.0
 30
0.0
  9
$USERI1
 70
     0
  9
$USERI2
 70
     0
  9
$USERI3
 70
     0
  9
$USERI4
 70
     0
  9
$USERI5
 70
     0
  9
$USERR1
 40
0.0
  9
$USERR2
 40
0.0
  9
$USERR3
 40
0.0
  9
$USERR4
 40
0.0
  9
$USERR5
 40
0.0
  9
$WORLDVIEW
 70
     1
  9
$SHADEDGE
 70
     3
  9
$SHADEDIF
 70
    70
  9
$TILEMODE
 70
     1
  9
$MAXACTVP
 70
    64
  9
$PLIMCHECK
 70
     0
  9
$PEXTMIN
 10
1.0000000000000000E+20
 20
1.0000000000000000E+20
 30
1.0000000000000000E+20
  9
$PEXTMAX
 10
-1.0000000000000000E+20
 20
-1.0000000000000000E+20
 30
-1.0000000000000000E+20
  9
$PLIMMIN
 10
0.0
 20
0.0
  9
$PLIMMAX
 10
12.0
 20
9.0
  9
$UNITMODE
 70
     0
  9
$VISRETAIN
 70
     1
  9
$PLINEGEN
 70
     0
  9
$PSLTSCALE
 70
     1
  0
ENDSEC
  0
SECTION
  2
TABLES
  0
TABLE
  2
VPORT
 70
     1
  0
VPORT
  2
*ACTIVE
 70
     0
 10
0.0
 20
0.0
 11
1.0
 21
1.0
 12
198.9699957484511117
 22
6.5808451832997408
 13
0.0
 23
0.0
 14
1.0
 24
1.0
 15
0.0
 25
0.0
 16
0.0
 26
0.0
 36
202.37134017897489
 17
4161.556396484375
 27
226.1108322143554972
 37
0.0
 40
28.9971428084063803
 41
2.5405405405405399
 42
50.0
 43
0.0
 44
0.0
 50
0.0
 51
0.0
 71
     0
 72
   100
 73
     1
 74
     1
 75
     0
 76
     0
 77
     0
 78
     0
  0
ENDTAB
  0
TABLE
  2
LTYPE
 70
     2
  0
LTYPE
  2
CONTINUOUS
 70
     0
  3
Solid line
 72
    65
 73
     0
 40
0.0
  0
LTYPE
  2
PHANTOM2
 70
     0
  3
___ _ _ ___ _ _ ___ _ _ ___ _ _
 72
    65
 73
     6
 40
1.25
 49
0.625
 49
-0.125
 49
0.125
 49
-0.125
 49
0.125
 49
-0.125
  0
ENDTAB
  0
TABLE
  2
LAYER
 70
     2
  0
LAYER
  2
0
 70
     0
 62
   255
  6
CONTINUOUS
  0
LAYER
  2
DEFPOINTS
 70
     0
 62
     7
  6
CONTINUOUS
  0
ENDTAB
  0
TABLE
  2
STYLE
 70
     1
  0
STYLE
  2
STANDARD
 70
     0
 40
0.0
 41
0.8
 50
0.0
 71
     0
 42
0.2
  3
txt
  4

  0
ENDTAB
  0
TABLE
  2
VIEW
 70
     1
  0
ENDTAB
  0
TABLE
  2
UCS
 70
     0
  0
ENDTAB
  0
TABLE
  2
APPID
 70
    10
  0
APPID
  2
ACAD
 70
     0
  0
APPID
  2
ACAD_MLEADERVER
 70
     0
  0
APPID
  2
ACAD_EXEMPT_FROM_CAD_STANDARDS
 70
     0
  0
APPID
  2
ACAD_NAV_VCDISPLAY
 70
     0
  0
APPID
  2
ACAECLAYERSTANDARD
 70
     0
  0
APPID
  2
ACCMTRANSPARENCY
 70
     0
  0
APPID
  2
ACAD_DSTYLE_DIMJAG
 70
     0
  0
APPID
  2
ACAD_DSTYLE_DIMTALN
 70
     0
  0
APPID
  2
ACDBATTR
 70
     0
  0
APPID
  2
DCO15
 70
     0
  0
ENDTAB
  0
TABLE
  2
DIMSTYLE
 70
     1
  0
DIMSTYLE
  2
STANDARD
 70
     0
  3

  4

  5

  6

  7

 40
1.0
 41
0.1875
 42
0.0625
 43
0.38
 44
0.125
 45
0.0
 46
0.0
 47
0.01
 48
0.01
140
0.15625
141
0.09
142
0.0
143
25.3999999999999986
144
1.0
145
0.0
146
1.0
147
0.09
 71
     1
 72
     0
 73
     1
 74
     1
 75
     0
 76
     0
 77
     0
 78
     4
170
     0
171
     2
172
     0
173
     0
174
     0
175
     0
176
     0
177
     0
178
     0
  0
ENDTAB
  0
ENDSEC
  0
SECTION
  2
BLOCKS
  0
BLOCK
  8
0
  2
$MODEL_SPACE
 70
     0
 10
0.0
 20
0.0
 30
0.0
  3
$MODEL_SPACE
  1

  0
ENDBLK
  5
21
  8
0
  0
BLOCK
 67
     1
  8
0
  2
$PAPER_SPACE
 70
     0
 10
0.0
 20
0.0
 30
0.0
  3
$PAPER_SPACE
  1

  0
ENDBLK
  5
1D
 67
     1
  8
0
  0
BLOCK
  8
0
  2
_FILLED
 70
     0
 10
0.0
 20
0.0
 30
0.0
  3
_FILLED
  1

  0
SOLID
  5
139EE
  8
0
  6
BYBLOCK
 62
     0
 10
0.0
 20
0.0
 30
0.0
 11
-1.0
 21
0.1666666667
 31
0.0
 12
-1.0
 22
-0.1666666667
 32
0.0
 13
-1.0
 23
-0.1666666667
 33
0.0
  0
ENDBLK
  5
139EF
  8
0
  6
BYBLOCK
 62
     0
  0
ENDSEC
  0
SECTION
  2
ENTITIES
  0
ATTDEF
  5
12CA7
  8
DEFPOINTS
 10
4360.5004555616706057
 20
243.8135290758048939
 30
0.0
 40
0.001
  1
K-24768T-S
  3

  2
MODELNUMBER
 70
     0
1001
ACDBATTR
1070
     0
1070
     1
  0
ATTDEF
  5
12CA8
  8
DEFPOINTS
 10
4360.5004555616706057
 20
243.8118624091382003
 30
0.0
 40
0.001
  1
REVE
  3

  2
TRADENAME
 70
     0
1001
ACDBATTR
1070
     0
1070
     1
  0
ATTDEF
  5
12CA9
  8
DEFPOINTS
 10
4360.5004555616706057
 20
243.810195742471592
 30
0.0
 40
0.001
  1
TOILET
  3

  2
PRODUCT
 70
     0
1001
ACDBATTR
1070
     0
1070
     1
  0
LINE
  5
13A49
  8
0
 10
4367.6025148586586511
 20
243.8101291068199998
 30
0.0
 11
4353.3984624671602432
 21
243.8101291068199998
 31
0.0
  0
LINE
  5
13A4A
  8
0
 10
4355.5624749125590824
 20
239.3668149109199987
 30
0.0
 11
4355.1088366707599562
 21
239.3668140953199952
 31
0.0
  0
ARC
  5
13A4B
  8
0
 10
4355.1088368125610941
 20
239.2879444591235085
 30
0.0
 40
0.0788696361967065
 50
90.0001030125532964
 51
109.5112888370586006
  0
ARC
  5
13A4C
  8
0
 10
4355.5623467685109063
 20
239.3269955320739939
 30
0.0
 40
0.0398195850377648
 50
12.9016467387092604
 51
89.8156152110462074
  0
ARC
  5
13A4D
  8
0
 10
4353.9767025856572218
 20
239.1487122536580898
 30
0.0
 40
1.63520629095315
 50
1.5760286059375579
 51
6.5727762530856939
  0
ARC
  5
13A4E
  8
0
 10
4344.3511078889077908
 20
238.7881495200161055
 30
0.0
 40
11.2674827550353793
 50
1.3370983497493301
 51
2.062621244709252
  0
LINE
  5
13A4F
  8
0
 10
4355.7061930464597026
 20
239.3668213382200065
 30
0.0
 11
4356.0554470742599733
 21
239.36682208932001
 31
0.0
  0
ARC
  5
13A50
  8
0
 10
4355.705377782501273
 20
239.2886956290982141
 30
0.0
 40
0.0781299627615369
 50
89.4021239732689281
 51
171.6510016845880955
  0
LINE
  5
13A51
  8
0
 10
4355.6114793471188023
 20
239.1884022628200057
 30
0.0
 11
4355.6282994329858411
 21
239.1884022628200057
 31
0.0
  0
ARC
  5
13A52
  8
0
 10
4355.6540310565706022
 20
239.1867053828169105
 30
0.0
 40
0.0274453683656957
 50
165.427146942093799
 51
176.4552812619895974
  0
ARC
  5
13A53
  8
0
 10
4352.1298224793981717
 20
239.0490560049682927
 30
0.0
 40
3.50125097277592
 50
0.0299300545751337
 51
2.2809166613756631
  0
ARC
  5
13A54
  8
0
 10
4355.6047012411636388
 20
239.1873089299546962
 30
0.0
 40
0.0236235059642187
 50
2.6526860141745181
 51
15.4720573722064803
  0
ARC
  5
13A55
  8
0
 10
4358.0278021884587361
 20
239.163417048745913
 30
0.0
 40
2.4044807162884232
 50
177.0997235660927061
 51
179.4046227652646905
  0
ARC
  5
13A56
  8
0
 10
4355.7697309024542847
 20
239.2766119107461122
 30
0.0
 40
0.1435794017719354
 50
170.6088458080608916
 51
176.6194682874292141
  0
ARC
  5
13A57
  8
0
 10
4355.7473818790831501
 20
255.1145875864247898
 30
0.0
 40
16.0641236656513513
 50
269.5296989662685974
 51
269.8162887237419909
  0
ARC
  5
13A58
  8
0
 10
4357.9086357288151703
 20
742.1547014607823485
 30
0.0
 40
503.1090210426291947
 50
269.7480023551444788
 51
269.9395749308940822
  0
ARC
  5
13A59
  8
0
 10
4358.4092728341383918
 20
-839.6470018726016633
 30
0.0
 40
1078.6934549955210514
 50
89.9657248278316786
 51
90.0547744066418119
  0
LINE
  5
13A5A
  8
0
 10
4356.1461503380596696
 20
239.4750899986200068
 30
0.0
 11
4357.4178038812597151
 21
239.4750927333199968
 31
0.0
  0
LINE
  5
13A5B
  8
0
 10
4357.4571675428160233
 20
239.0460329365087944
 30
0.0
 11
4357.4571740445599062
 21
239.4357227345199988
 31
0.0
  0
ARC
  5
13A5C
  8
0
 10
4357.4178039660300783
 20
239.4357226547905952
 30
0.0
 40
0.0393700785295853
 50
0.000116031340983
 51
90.0001233675821481
  0
ARC
  5
13A5D
  8
0
 10
4356.1833439071788234
 20
239.092643358361812
 30
0.0
 40
0.0820235713567889
 50
180.9752773250264966
 51
212.2442513543034863
  0
LINE
  5
13A5E
  8
0
 10
4356.1067738559522695
 20
239.0632342864078055
 30
0.0
 11
4356.1067802734587531
 21
239.4356994186200041
 31
0.0
  0
ARC
  5
13A5F
  8
0
 10
4356.1461715378618464
 20
239.4356987399156083
 30
0.0
 40
0.0393912644091464
 50
90.0308357533895105
 51
179.9990128039765978
  0
ARC
  5
13A60
  8
0
 10
4356.0554876129799595
 20
239.3267631325084039
 30
0.0
 40
0.0400589773237666
 50
32.4740340400125831
 51
90.0579819605368499
  0
ARC
  5
13A61
  8
0
 10
4356.0499618701796862
 20
239.324452752307991
 30
0.0
 40
0.0459724367385079
 50
359.7140437329870224
 51
31.2055014576236189
  0
ARC
  5
13A62
  8
0
 10
4347.7485512380853834
 20
239.0142485263592107
 30
0.0
 40
8.3531358725845841
 50
0.5281565737864918
 51
2.12666546345053
  0
ARC
  5
13A63
  8
0
 10
4356.6225448915602101
 20
239.4060946225199871
 30
0.0
 40
0.8503937008000015
 50
348.9493970044467801
 51
182.6469926026130963
  0
LINE
  5
13A64
  8
0
 10
4355.0824949393663701
 20
239.3622850619622966
 30
0.0
 11
4353.9500440297597379
 21
239.3620899025200117
 31
0.0
  0
ARC
  5
13A65
  8
0
 10
4353.9833247207907334
 20
247.3576967070603132
 30
0.0
 40
7.9956760675509253
 50
267.2142969735077145
 51
269.7615150206887051
  0
ARC
  5
13A66
  8
0
 10
4353.7244385496433097
 20
241.9379174557512044
 30
0.0
 40
2.5697239136070968
 50
264.0440065692728808
 51
267.1067401219946191
  0
ARC
  5
13A67
  8
0
 10
4353.4191400327390511
 20
239.0311402663423905
 30
0.0
 40
0.3530471700216686
 50
83.7145631332155915
 51
93.0742093858655153
  0
ARC
  5
13A68
  8
0
 10
4353.3732053602898304
 20
239.8413230466732102
 30
0.0
 40
0.4584395138188017
 50
271.1996456705784908
 51
273.3765380315772973
  0
ARC
  5
13A69
  8
0
 10
4353.3601576926075722
 20
239.354478591193697
 30
0.0
 40
0.0364058440454824
 50
51.5351931054944075
 51
75.6719285511128987
  0
ARC
  5
13A6A
  8
0
 10
4353.3592156497261385
 20
239.3453181565444936
 30
0.0
 40
0.0455346128077162
 50
77.3761908030849384
 51
107.0782700641329939
  0
ARC
  5
13A6B
  8
0
 10
4353.4171542017529646
 20
239.1829223615600029
 30
0.0
 40
0.2179205294916536
 50
109.100990429098502
 51
178.3184489515095095
  0
ARC
  5
13A6C
  8
0
 10
4354.1483635830900312
 20
239.1663737044763138
 30
0.0
 40
0.949313359042012
 50
178.6151168154081859
 51
179.9215629432677019
  0
LINE
  5
13A6D
  8
0
 10
4353.1990511136118585
 20
222.6739111999183081
 30
0.0
 11
4353.1990511136118585
 21
239.167673299719894
 31
0.0
  0
ARC
  5
13A6E
  8
0
 10
4354.2997666889923494
 20
222.6740674139774114
 30
0.0
 40
1.100715586465477
 50
180.0081314431517967
 51
269.9892621495487219
  0
LINE
  5
13A6F
  8
0
 10
4353.3984624671602432
 20
239.3835798147374874
 30
0.0
 11
4353.3984624671602432
 21
243.8101291068199998
 31
0.0
  0
LINE
  5
13A70
  8
0
 10
4356.0978199135979594
 20
239.2683970852199877
 30
0.0
 11
4356.106777390870775
 21
239.2683970852199877
 31
0.0
  0
LINE
  5
13A71
  8
0
 10
4353.3984624671602432
 20
242.1301735625883111
 30
0.0
 11
4367.6025148586586511
 21
242.1301735625883111
 31
0.0
  0
LINE
  5
13A72
  8
0
 10
4365.4385024132598119
 20
239.3668149109199987
 30
0.0
 11
4365.8921406550589381
 21
239.3668140953199952
 31
0.0
  0
ARC
  5
13A73
  8
0
 10
4365.8921405132587097
 20
239.2879444591235085
 30
0.0
 40
0.0788696361967065
 50
70.488711162941442
 51
89.9998969874467036
  0
ARC
  5
13A74
  8
0
 10
4365.4386305573061691
 20
239.3269955320739939
 30
0.0
 40
0.0398195850377648
 50
90.1843847889537784
 51
167.098353261290697
  0
ARC
  5
13A75
  8
0
 10
4367.024274740160763
 20
239.1487122536580898
 30
0.0
 40
1.63520629095315
 50
173.4272237469143079
 51
178.4239713940607999
  0
ARC
  5
13A76
  8
0
 10
4376.6498694369101941
 20
238.7881495200161055
 30
0.0
 40
11.2674827550353793
 50
177.9373787552906947
 51
178.6629016502506033
  0
LINE
  5
13A77
  8
0
 10
4365.2947842793601012
 20
239.3668213382200065
 30
0.0
 11
4364.945530251558921
 21
239.36682208932001
 31
0.0
  0
ARC
  5
13A78
  8
0
 10
4365.2955995433167118
 20
239.2886956290982141
 30
0.0
 40
0.0781299627615369
 50
8.3489983154086254
 51
90.5978760267310435
  0
LINE
  5
13A79
  8
0
 10
4365.3894979786991826
 20
239.1884022628200057
 30
0.0
 11
4365.3726778928330532
 21
239.1884022628200057
 31
0.0
  0
ARC
  5
13A7A
  8
0
 10
4365.3469462692492016
 20
239.1867053828169105
 30
0.0
 40
0.0274453683656957
 50
3.5447187380103462
 51
14.5728530579061601
  0
ARC
  5
13A7B
  8
0
 10
4368.8711548464216321
 20
239.0490560049682927
 30
0.0
 40
3.50125097277592
 50
177.7190833386243014
 51
179.9700699454247967
  0
ARC
  5
13A7C
  8
0
 10
4365.396276084656165
 20
239.1873089299546962
 30
0.0
 40
0.0236235059642187
 50
164.5279426277951131
 51
177.3473139858255081
  0
ARC
  5
13A7D
  8
0
 10
4362.9731751373592488
 20
239.163417048745913
 30
0.0
 40
2.4044807162884232
 50
0.5953772347353221
 51
2.9002764339072629
  0
ARC
  5
13A7E
  8
0
 10
4365.2312464233637002
 20
239.2766119107461122
 30
0.0
 40
0.1435794017719354
 50
3.3805317125707481
 51
9.3911541919390764
  0
ARC
  5
13A7F
  8
0
 10
4365.2535954467366537
 20
255.1145875864247898
 30
0.0
 40
16.0641236656513513
 50
270.1837112762580091
 51
270.470301033731289
  0
ARC
  5
13A80
  8
0
 10
4363.092341597003724
 20
742.1547014607823485
 30
0.0
 40
503.1090210426291947
 50
270.0604250691059178
 51
270.2519976448555212
  0
ARC
  5
13A81
  8
0
 10
4362.591704491679593
 20
-839.6470018726016633
 30
0.0
 40
1078.6934549955210514
 50
89.9452255933582165
 51
90.0342751721683356
  0
LINE
  5
13A82
  8
0
 10
4364.8548269877601342
 20
239.4750899986200068
 30
0.0
 11
4363.5831734445600887
 21
239.4750927333199968
 31
0.0
  0
LINE
  5
13A83
  8
0
 10
4363.5438097830037805
 20
239.0460329365087944
 30
0.0
 11
4363.5438032812598976
 21
239.4357227345199988
 31
0.0
  0
ARC
  5
13A84
  8
0
 10
4363.5831733597879065
 20
239.4357226547905952
 30
0.0
 40
0.0393700785295853
 50
89.9998766324178519
 51
179.9998839686589918
  0
ARC
  5
13A85
  8
0
 10
4364.8176334186400709
 20
239.092643358361812
 30
0.0
 40
0.0820235713567889
 50
327.7557486456965989
 51
359.0247226749718834
  0
LINE
  5
13A86
  8
0
 10
4364.8942034698684438
 20
239.0632342864078055
 30
0.0
 11
4364.8941970523592317
 21
239.4356994186200041
 31
0.0
  0
ARC
  5
13A87
  8
0
 10
4364.8548057879552289
 20
239.4356987399156083
 30
0.0
 40
0.0393912644091464
 50
0.0009871960217144
 51
89.9691642466104753
  0
ARC
  5
13A88
  8
0
 10
4364.9454897128371158
 20
239.3267631325084039
 30
0.0
 40
0.0400589773237666
 50
89.9420180394631643
 51
147.5259659599873885
  0
ARC
  5
13A89
  8
0
 10
4364.9510154556382986
 20
239.324452752307991
 30
0.0
 40
0.0459724367385079
 50
148.7944985423764024
 51
180.285956267013006
  0
ARC
  5
13A8A
  8
0
 10
4373.2524260877326014
 20
239.0142485263592107
 30
0.0
 40
8.3531358725845841
 50
177.8733345365511127
 51
179.4718434262134963
  0
ARC
  5
13A8B
  8
0
 10
4364.3784324342595937
 20
239.4060946225199871
 30
0.0
 40
0.8503937008000015
 50
357.3530073973868753
 51
191.0506029955514862
  0
LINE
  5
13A8C
  8
0
 10
4365.9184823864543432
 20
239.3622850619622966
 30
0.0
 11
4367.0509332960591564
 21
239.3620899025200117
 31
0.0
  0
ARC
  5
13A8D
  8
0
 10
4367.0176526050272514
 20
247.3576967070603132
 30
0.0
 40
7.9956760675509253
 50
270.2384849793112949
 51
272.7857030264923992
  0
ARC
  5
13A8E
  8
0
 10
4367.2765387761755846
 20
241.9379174557512044
 30
0.0
 40
2.5697239136070968
 50
272.8932598780053809
 51
275.9559934307270055
  0
ARC
  5
13A8F
  8
0
 10
4367.5818372930789337
 20
239.0311402663423905
 30
0.0
 40
0.3530471700216686
 50
86.9257906141345131
 51
96.2854368667843943
  0
ARC
  5
13A90
  8
0
 10
4367.6277719655299734
 20
239.8413230466732102
 30
0.0
 40
0.4584395138188017
 50
266.6234619684227027
 51
268.8003543294215092
  0
ARC
  5
13A91
  8
0
 10
4367.6408196332113221
 20
239.354478591193697
 30
0.0
 40
0.0364058440454824
 50
104.3280714488871013
 51
128.4648068945056139
  0
ARC
  5
13A92
  8
0
 10
4367.6417616760918463
 20
239.3453181565444936
 30
0.0
 40
0.0455346128077162
 50
72.9217299358669351
 51
102.6238091969150048
  0
ARC
  5
13A93
  8
0
 10
4367.5838231240659297
 20
239.1829223615600029
 30
0.0
 40
0.2179205294916536
 50
1.681551048490455
 51
70.8990095709014412
  0
ARC
  5
13A94
  8
0
 10
4366.8526137427288631
 20
239.1663737044763138
 30
0.0
 40
0.949313359042012
 50
0.0784370567322656
 51
1.3848831845917871
  0
LINE
  5
13A95
  8
0
 10
4367.8019262122079454
 20
222.6739111999183081
 30
0.0
 11
4367.8019262122079454
 21
239.167673299719894
 31
0.0
  0
ARC
  5
13A96
  8
0
 10
4366.7012106368274544
 20
222.6740674139774114
 30
0.0
 40
1.1007155864654801
 50
270.0107378504512781
 51
359.9918685568482033
  0
LINE
  5
13A97
  8
0
 10
4367.6025148586586511
 20
239.3835798147374874
 30
0.0
 11
4367.6025148586586511
 21
243.8101291068199998
 31
0.0
  0
LINE
  5
13A98
  8
0
 10
4364.9031574122209349
 20
239.2683970852199877
 30
0.0
 11
4364.8941999349490288
 21
239.2683970852199877
 31
0.0
  0
ARC
  5
13A99
  8
0
 10
4360.5004886629103567
 20
519.3218961928907902
 30
0.0
 40
280.2793657793708917
 50
269.7044170317861926
 51
270.2955829682136937
  0
LINE
  5
13A9A
  8
0
 10
4366.701416922853241
 20
221.5733518468420868
 30
0.0
 11
4354.2995604029620154
 21
221.5733518468420868
 31
0.0
  0
ENDSEC
  0
EOF
