  0
SECTION
  2
HEADER
  9
$ACADVER
  1
AC1009
  9
$INSBASE
 10
2982.3682339212150509
 20
190.1269625876097109
 30
0.0
  9
$EXTMIN
 10
2971.3758545426849196
 20
172.3816511704274035
 30
-0.0000000000112498
  9
$EXTMAX
 10
2993.300441881272036
 20
190.1382985254153084
 30
0.0000000000002956
  9
$LIMMIN
 10
0.0
 20
0.0
  9
$LIMMAX
 10
11.6929133858000007
 20
8.2677165353999982
  9
$ORTHOMODE
 70
     1
  9
$REGENMODE
 70
     1
  9
$FILLMODE
 70
     1
  9
$QTEXTMODE
 70
     0
  9
$MIRRTEXT
 70
     0
  9
$DRAGMODE
 70
     2
  9
$LTSCALE
 40
0.6431102362
  9
$OSMODE
 70
  2039
  9
$ATTMODE
 70
     1
  9
$TEXTSIZE
 40
0.2
  9
$TRACEWID
 40
0.05
  9
$TEXTSTYLE
  7
STANDARD
  9
$CLAYER
  8
0
  9
$CELTYPE
  6
BYLAYER
  9
$CECOLOR
 62
   256
  9
$DIMSCALE
 40
1.0
  9
$DIMASZ
 40
0.1875
  9
$DIMEXO
 40
0.0625
  9
$DIMDLI
 40
0.4443307087
  9
$DIMRND
 40
0.0
  9
$DIMDLE
 40
0.0
  9
$DIMEXE
 40
0.125
  9
$DIMTP
 40
0.01
  9
$DIMTM
 40
0.01
  9
$DIMTXT
 40
2.0
  9
$DIMCEN
 40
0.1052362205
  9
$DIMTSZ
 40
0.0
  9
$DIMTOL
 70
     1
  9
$DIMLIM
 70
     0
  9
$DIMTIH
 70
     1
  9
$DIMTOH
 70
     1
  9
$DIMSE1
 70
     0
  9
$DIMSE2
 70
     0
  9
$DIMTAD
 70
     0
  9
$DIMZIN
 70
     0
  9
$DIMBLK
  1

  9
$DIMASO
 70
     1
  9
$DIMSHO
 70
     1
  9
$DIMPOST
  1
\X
  9
$DIMAPOST
  1

  9
$DIMALT
 70
     1
  9
$DIMALTD
 70
     2
  9
$DIMALTF
 40
25.3999999999999986
  9
$DIMLFAC
 40
1.0
  9
$DIMTOFL
 70
     0
  9
$DIMTVP
 40
0.0
  9
$DIMTIX
 70
     0
  9
$DIMSOXD
 70
     0
  9
$DIMSAH
 70
     0
  9
$DIMBLK1
  1

  9
$DIMBLK2
  1

  9
$DIMSTYLE
  2
STANDARD
  9
$DIMCLRD
 70
     0
  9
$DIMCLRE
 70
     0
  9
$DIMCLRT
 70
     0
  9
$DIMTFAC
 40
1.0
  9
$DIMGAP
 40
0.09
  9
$LUNITS
 70
     2
  9
$LUPREC
 70
     4
  9
$SKETCHINC
 40
0.1
  9
$FILLETRAD
 40
0.0
  9
$AUNITS
 70
     0
  9
$AUPREC
 70
     0
  9
$MENU
  1
.
  9
$ELEVATION
 40
0.0
  9
$PELEVATION
 40
0.0
  9
$THICKNESS
 40
0.0
  9
$LIMCHECK
 70
     0
  9
$BLIPMODE
 70
     0
  9
$CHAMFERA
 40
0.0
  9
$CHAMFERB
 40
0.0
  9
$SKPOLY
 70
     0
  9
$TDCREATE
 40
2458060.468368056230247
  9
$TDUPDATE
 40
2459296.483414351940155
  9
$TDINDWG
 40
0.6307478009
  9
$TDUSRTIMER
 40
0.6307478009
  9
$USRTIMER
 70
     1
  9
$ANGBASE
 50
0.0
  9
$ANGDIR
 70
     0
  9
$PDMODE
 70
     0
  9
$PDSIZE
 40
0.3125
  9
$PLINEWID
 40
0.0
  9
$COORDS
 70
     1
  9
$SPLFRAME
 70
     0
  9
$SPLINETYPE
 70
     6
  9
$SPLINESEGS
 70
     8
  9
$ATTDIA
 70
     1
  9
$ATTREQ
 70
     1
  9
$HANDLING
 70
     1
  9
$HANDSEED
  5
2CFDA
  9
$SURFTAB1
 70
     6
  9
$SURFTAB2
 70
     6
  9
$SURFTYPE
 70
     6
  9
$SURFU
 70
     6
  9
$SURFV
 70
     6
  9
$UCSNAME
  2

  9
$UCSORG
 10
0.0
 20
0.0
 30
0.0
  9
$UCSXDIR
 10
1.0
 20
0.0
 30
0.0
  9
$UCSYDIR
 10
0.0
 20
1.0
 30
0.0
  9
$PUCSNAME
  2

  9
$PUCSORG
 10
0.0
 20
0.0
 30
0.0
  9
$PUCSXDIR
 10
1.0
 20
0.0
 30
0.0
  9
$PUCSYDIR
 10
0.0
 20
1.0
 30
0.0
  9
$USERI1
 70
     0
  9
$USERI2
 70
     0
  9
$USERI3
 70
     0
  9
$USERI4
 70
     0
  9
$USERI5
 70
     0
  9
$USERR1
 40
0.0
  9
$USERR2
 40
0.0
  9
$USERR3
 40
0.0
  9
$USERR4
 40
0.0
  9
$USERR5
 40
0.0
  9
$WORLDVIEW
 70
     1
  9
$SHADEDGE
 70
     3
  9
$SHADEDIF
 70
    70
  9
$TILEMODE
 70
     1
  9
$MAXACTVP
 70
    64
  9
$PLIMCHECK
 70
     0
  9
$PEXTMIN
 10
1.0000000000000000E+20
 20
1.0000000000000000E+20
 30
1.0000000000000000E+20
  9
$PEXTMAX
 10
-1.0000000000000000E+20
 20
-1.0000000000000000E+20
 30
-1.0000000000000000E+20
  9
$PLIMMIN
 10
0.0
 20
0.0
  9
$PLIMMAX
 10
12.0
 20
9.0
  9
$UNITMODE
 70
     0
  9
$VISRETAIN
 70
     1
  9
$PLINEGEN
 70
     0
  9
$PSLTSCALE
 70
     1
  0
ENDSEC
  0
SECTION
  2
TABLES
  0
TABLE
  2
VPORT
 70
     1
  0
VPORT
  2
*ACTIVE
 70
     0
 10
0.0
 20
0.0
 11
1.0
 21
1.0
 12
-321.3549670223965222
 22
-14.0015367279664193
 13
0.0
 23
0.0
 14
1.0
 24
1.0
 15
0.0
 25
0.0
 16
0.0
 26
0.0
 36
96.5995694866707311
 17
3303.693115234375
 27
195.2615115758877096
 37
0.0
 40
17.9044141845716815
 41
2.6486111111111108
 42
50.0
 43
0.0
 44
0.0
 50
0.0
 51
0.0
 71
     0
 72
   100
 73
     1
 74
     1
 75
     0
 76
     0
 77
     0
 78
     0
  0
ENDTAB
  0
TABLE
  2
LTYPE
 70
     2
  0
LTYPE
  2
CONTINUOUS
 70
     0
  3
Solid line
 72
    65
 73
     0
 40
0.0
  0
LTYPE
  2
PHANTOM2
 70
     0
  3
___ _ _ ___ _ _ ___ _ _ ___ _ _
 72
    65
 73
     6
 40
1.25
 49
0.625
 49
-0.125
 49
0.125
 49
-0.125
 49
0.125
 49
-0.125
  0
ENDTAB
  0
TABLE
  2
LAYER
 70
     4
  0
LAYER
  2
0
 70
     0
 62
   255
  6
CONTINUOUS
  0
LAYER
  2
DEFPOINTS
 70
     0
 62
     7
  6
CONTINUOUS
  0
LAYER
  2
F2478_AF0_1
 70
     0
 62
     7
  6
CONTINUOUS
  0
LAYER
  2
F2478_AF1_1
 70
     0
 62
     7
  6
CONTINUOUS
  0
ENDTAB
  0
TABLE
  2
STYLE
 70
     1
  0
STYLE
  2
STANDARD
 70
     0
 40
0.0
 41
0.8
 50
0.0
 71
     0
 42
0.2
  3
txt
  4

  0
ENDTAB
  0
TABLE
  2
VIEW
 70
     0
  0
ENDTAB
  0
TABLE
  2
UCS
 70
     0
  0
ENDTAB
  0
TABLE
  2
APPID
 70
     9
  0
APPID
  2
ACAD
 70
     0
  0
APPID
  2
ACAD_MLEADERVER
 70
     0
  0
APPID
  2
ACAD_EXEMPT_FROM_CAD_STANDARDS
 70
     0
  0
APPID
  2
ACAD_NAV_VCDISPLAY
 70
     0
  0
APPID
  2
ACAECLAYERSTANDARD
 70
     0
  0
APPID
  2
ACCMTRANSPARENCY
 70
     0
  0
APPID
  2
ACAD_DSTYLE_DIMJAG
 70
     0
  0
APPID
  2
ACAD_DSTYLE_DIMTALN
 70
     0
  0
APPID
  2
ACDBATTR
 70
     0
  0
ENDTAB
  0
TABLE
  2
DIMSTYLE
 70
     1
  0
DIMSTYLE
  2
STANDARD
 70
     0
  3

  4

  5

  6

  7

 40
1.0
 41
0.1875
 42
0.0625
 43
0.38
 44
0.125
 45
0.0
 46
0.0
 47
0.01
 48
0.01
140
0.15625
141
0.09
142
0.0
143
25.3999999999999986
144
1.0
145
0.0
146
1.0
147
0.09
 71
     1
 72
     0
 73
     1
 74
     1
 75
     0
 76
     0
 77
     0
 78
     4
170
     0
171
     2
172
     0
173
     0
174
     0
175
     0
176
     0
177
     0
178
     0
  0
ENDTAB
  0
ENDSEC
  0
SECTION
  2
BLOCKS
  0
BLOCK
  8
0
  2
$MODEL_SPACE
 70
     0
 10
0.0
 20
0.0
 30
0.0
  3
$MODEL_SPACE
  1

  0
ENDBLK
  5
21
  8
0
  0
BLOCK
 67
     1
  8
0
  2
$PAPER_SPACE
 70
     0
 10
0.0
 20
0.0
 30
0.0
  3
$PAPER_SPACE
  1

  0
ENDBLK
  5
1D
 67
     1
  8
0
  0
BLOCK
  8
0
  2
_FILLED
 70
     0
 10
0.0
 20
0.0
 30
0.0
  3
_FILLED
  1

  0
SOLID
  5
2ABDA
  8
0
  6
BYBLOCK
 62
     0
 10
0.0
 20
0.0
 30
0.0
 11
-1.0
 21
0.1666666667
 31
0.0
 12
-1.0
 22
-0.1666666667
 32
0.0
 13
-1.0
 23
-0.1666666667
 33
0.0
  0
ENDBLK
  5
2ABDB
  8
0
  6
BYBLOCK
 62
     0
  0
ENDSEC
  0
SECTION
  2
ENTITIES
  0
ATTDEF
  5
2C71D
  8
DEFPOINTS
 10
2982.3688795668108469
 20
190.1317857642517879
 30
0.0
 40
0.001
  1
K-2477T-8
  3

  2
MODELNUMBER
 70
     0
1001
ACDBATTR
1070
     0
1070
     1
  0
ATTDEF
  5
2C71E
  8
DEFPOINTS
 10
2982.3688795668108469
 20
190.130119097585208
 30
0.0
 40
0.001
  1
PATIO
  3

  2
TRADENAME
 70
     0
1001
ACDBATTR
1070
     0
1070
     1
  0
ATTDEF
  5
2C71F
  8
DEFPOINTS
 10
2982.3688795668108469
 20
190.128452430918486
 30
0.0
 40
0.001
  1
BATHROOM SINK
  3

  2
PRODUCT
 70
     0
1001
ACDBATTR
1070
     0
1070
     1
  0
LINE
  5
2C92A
  8
0
 10
2972.4204967492019023
 20
190.1269625876097109
 30
0.0
 11
2992.3159710932281996
 21
190.1269625876097109
 31
0.0
  0
ARC
  5
2C92B
  8
0
 10
2982.7332434209270104
 20
183.5659442163128858
 30
0.0
 40
11.1837743880047693
 50
229.7482277445066075
 51
268.1296863985065215
  0
ARC
  5
2C92C
  8
0
 10
2985.6467651708471749
 20
184.9025202502801903
 30
0.0
 40
14.1519315403063199
 50
182.8235178411192123
 51
224.2335515143562077
  0
ARC
  5
2C92D
  8
0
 10
2988.1069176899391096
 20
185.1363536165640085
 30
0.0
 40
16.62099581874865
 50
163.1346647895308024
 51
183.2108578051185077
  0
ARC
  5
2C92E
  8
0
 10
2972.4271123191429069
 20
189.8902784151025003
 30
0.0
 40
0.2363662117599042
 50
111.3175771636226017
 51
163.2265232751481108
  0
ARC
  5
2C92F
  8
0
 10
2972.428323661757986
 20
189.8903399206078859
 30
0.0
 40
0.2367520793978548
 50
91.8945167655270438
 51
111.596085764267599
  0
ARC
  5
2C930
  8
0
 10
2983.1160842994690938
 20
149.7211357460527097
 30
0.0
 40
36.5104743305534072
 50
91.1807788726525246
 51
107.0748682585713993
  0
ARC
  5
2C931
  8
0
 10
2973.7077302574061832
 20
191.2098999716847061
 30
0.0
 40
6.7169605748148493
 50
258.7371629169618927
 51
271.4215582174762744
  0
ARC
  5
2C932
  8
0
 10
2927.3918165511140614
 20
-39.6707984609962026
 30
0.0
 40
228.9343479743091052
 50
77.2456132628814771
 51
78.285284986218457
  0
ARC
  5
2C933
  8
0
 10
2975.5275880135968691
 20
173.1587081976186084
 30
0.0
 40
10.7293541865473898
 50
69.201959626751389
 51
77.0385366348442346
  0
ARC
  5
2C934
  8
0
 10
2979.3474545217359264
 20
183.2156138959549878
 30
0.0
 40
0.0285606841528725
 50
249.2019596267514032
 51
326.9851673732043196
  0
ARC
  5
2C935
  8
0
 10
2981.9184041484709269
 20
181.5450732768254909
 30
0.0
 40
3.0374608329552331
 50
110.3516937410354046
 51
146.9851673732042912
  0
ARC
  5
2C936
  8
0
 10
2982.6907569902900832
 20
178.5003657016104057
 30
0.0
 40
6.1698024250697987
 50
92.9675806500054875
 51
107.241474307518402
  0
ARC
  5
2C937
  8
0
 10
2987.1066362635929181
 20
184.9293853150824987
 30
0.0
 40
14.7140008645319096
 50
163.5616655889035087
 51
181.1958748351194117
  0
LINE
  5
2C938
  8
0
 10
2972.9940723034151233
 20
189.0932008623096863
 30
0.0
 11
2991.7423953542970594
 21
189.0932008623096863
 31
0.0
  0
LINE
  5
2C939
  8
0
 10
2972.9940723034151233
 20
189.0932008623096863
 30
0.0
 11
2972.2863770585149723
 21
190.080539268709714
 31
0.0
  0
ARC
  5
2C93A
  8
0
 10
2989.0739524498330866
 20
185.4617936609406001
 30
0.0
 40
15.7023457932313892
 50
183.511867104993712
 51
191.3024079627948026
  0
ARC
  5
2C93B
  8
0
 10
2987.2992871735377776
 20
185.1071029841567963
 30
0.0
 40
13.8925827371704607
 50
191.3024079627948026
 51
212.9454866384276954
  0
ARC
  5
2C93C
  8
0
 10
2982.2802039773278011
 20
182.2763317258410893
 30
0.0
 40
8.1488316412327126
 50
215.4355285585338891
 51
260.2088107119279812
  0
ARC
  5
2C93D
  8
0
 10
2982.3692206699229246
 20
183.0357420390390075
 30
0.0
 40
8.9124146940687794
 50
260.4751146634843053
 51
269.9936610802711243
  0
ARC
  5
2C93E
  8
0
 10
2987.1039965244640371
 20
185.9237481453093892
 30
0.0
 40
8.2168871885802162
 50
199.4494668893449898
 51
207.2036423346065135
  0
ARC
  5
2C93F
  8
0
 10
2982.5980487021111003
 20
183.2979664690865889
 30
0.0
 40
3.0215455165360532
 50
201.9737043981153022
 51
240.6630696296959115
  0
ARC
  5
2C940
  8
0
 10
2982.3289883848810859
 20
182.9371736545398051
 30
0.0
 40
2.5758467108650032
 50
241.9485361700380963
 51
261.2778656251426241
  0
ARC
  5
2C941
  8
0
 10
2982.438202431119862
 20
183.8152630907945877
 30
0.0
 40
3.46043467933365
 50
261.6951952743006018
 51
268.8407660853405901
  0
CIRCLE
  5
2C942
  8
0
 10
2982.3682339212150509
 20
182.4497972333097096
 30
0.0
 40
1.1276856725
  0
CIRCLE
  5
2C943
  8
0
 10
2982.3682339212150509
 20
182.4497972333097096
 30
0.0
 40
1.2511911246000189
  0
ARC
  5
2C944
  8
0
 10
2982.3709470794929075
 20
184.3876437303929947
 30
0.0
 40
1.1616903514471251
 50
68.2565259011254852
 51
112.0236784257190976
  0
ARC
  5
2C945
  8
0
 10
2982.3653991521991884
 20
186.6565036660342969
 30
0.0
 40
1.2671554943518071
 50
250.1596069835960066
 51
290.1205973432502105
  0
CIRCLE
  5
2C946
  8
0
 10
2982.3682339212150509
 20
187.7647578632096952
 30
0.0
 40
0.6889763779999996
  0
POINT
  5
2C947
  8
DEFPOINTS
 10
2982.3682339212150509
 20
187.7647578632096952
 30
0.0
  0
ARC
  5
2C948
  8
0
 10
2982.2201171215479008
 20
183.0027136144738904
 30
0.0
 40
10.6156191254674592
 50
270.7994631158180141
 51
311.3226331149575117
  0
ARC
  5
2C949
  8
0
 10
2979.0897026715838365
 20
184.9025202502801903
 30
0.0
 40
14.1519315403063199
 50
315.766448485643707
 51
357.1764821588807877
  0
ARC
  5
2C94A
  8
0
 10
2976.6295501524909923
 20
185.1363536165640085
 30
0.0
 40
16.62099581874865
 50
356.7891421948813786
 51
16.8653352104691692
  0
ARC
  5
2C94B
  8
0
 10
2992.3093555232881045
 20
189.8902784151025003
 30
0.0
 40
0.2363662117599042
 50
16.7734767248519105
 51
68.6824228363773841
  0
ARC
  5
2C94C
  8
0
 10
2992.3081441806721159
 20
189.8903399206078859
 30
0.0
 40
0.2367520793978548
 50
68.4039142357324295
 51
88.1054832344729562
  0
ARC
  5
2C94D
  8
0
 10
2981.622568261176184
 20
149.7305226129803088
 30
0.0
 40
36.5008597457406267
 50
72.9240835487909322
 51
88.8365386680802658
  0
ARC
  5
2C94E
  8
0
 10
2991.0287375850239187
 20
191.2098999716847061
 30
0.0
 40
6.7169605748148911
 50
268.5784417825237256
 51
281.262837083037823
  0
ARC
  5
2C94F
  8
0
 10
3037.3446512913160404
 20
-39.6707984609962026
 30
0.0
 40
228.9343479743091052
 50
101.7147150137815004
 51
102.7543867371184945
  0
ARC
  5
2C950
  8
0
 10
2989.208879828832778
 20
173.1587081976186084
 30
0.0
 40
10.7293541865473898
 50
102.9614633651556943
 51
110.7980403732485968
  0
ARC
  5
2C951
  8
0
 10
2985.3890133206941755
 20
183.2156138959549878
 30
0.0
 40
0.0285606841528725
 50
213.0148326267955952
 51
290.7980403732486252
  0
ARC
  5
2C952
  8
0
 10
2982.818063693959175
 20
181.5450732768254909
 30
0.0
 40
3.0374608329552331
 50
33.0148326267956591
 51
69.648306258964567
  0
ARC
  5
2C953
  8
0
 10
2981.8708342650229497
 20
177.5305540416850079
 30
0.0
 40
7.148882521754226
 50
73.7238020023955016
 51
85.9853320232135019
  0
ARC
  5
2C954
  8
0
 10
2977.6298390853739875
 20
184.9293857364291966
 30
0.0
 40
14.7139933684238606
 50
358.8041229144815247
 51
16.438341312649019
  0
LINE
  5
2C955
  8
0
 10
2991.7423953542970594
 20
189.0932008623096863
 30
0.0
 11
2992.4500907839151296
 21
190.080539268709714
 31
0.0
  0
ARC
  5
2C956
  8
0
 10
2975.6625153925979248
 20
185.4617936609406001
 30
0.0
 40
15.7023457932313892
 50
348.6975920372051974
 51
356.488132895006288
  0
ARC
  5
2C957
  8
0
 10
2977.4371806688918696
 20
185.1071029841567963
 30
0.0
 40
13.8925827371704607
 50
327.0545133615722762
 51
348.6975920372051974
  0
ARC
  5
2C958
  8
0
 10
2982.456263865101846
 20
182.2763317258410893
 30
0.0
 40
8.1488316412327126
 50
279.7911892880720188
 51
324.5644714414660825
  0
ARC
  5
2C959
  8
0
 10
2982.3672471696149842
 20
183.0357420621114102
 30
0.0
 40
8.9124147173017079
 50
270.0063482410988058
 51
279.5248853303071996
  0
ARC
  5
2C95A
  8
0
 10
2977.6324713179660648
 20
185.9237481453093892
 30
0.0
 40
8.2168871885802162
 50
332.7963576653936002
 51
340.5505331106550102
  0
ARC
  5
2C95B
  8
0
 10
2982.1384191403199111
 20
183.2979664690865889
 30
0.0
 40
3.0215455165360532
 50
299.3369303703041169
 51
338.0262956018846126
  0
ARC
  5
2C95C
  8
0
 10
2982.4074794575490159
 20
182.9371736545398051
 30
0.0
 40
2.5758467108650032
 50
278.7221343748573759
 51
298.05146382996179
  0
ARC
  5
2C95D
  8
0
 10
2982.2983148216408154
 20
183.8148225373732032
 30
0.0
 40
3.459991608940113
 50
271.1572462468640197
 51
278.305048829127827
  0
CIRCLE
  5
2CC42
  8
0
 10
2978.3682339212150509
 20
187.7647578632096952
 30
0.0
 40
0.688976378
  0
CIRCLE
  5
2CC43
  8
0
 10
2986.3682339212150509
 20
187.7647578632096952
 30
0.0
 40
0.688976378
  0
ENDSEC
  0
EOF
