  0
SECTION
  2
HEADER
  9
$ACADVER
  1
AC1009
  9
$INSBASE
 10
4766.8820091613233672
 20
213.2997175405114945
 30
0.0
  9
$EXTMIN
 10
4765.9764973503215515
 20
213.2946355377341092
 30
0.0
  9
$EXTMAX
 10
4767.7875209723224543
 20
219.8987949206536996
 30
0.0
  9
$LIMMIN
 10
0.0
 20
0.0
  9
$LIMMAX
 10
11.6929133858000007
 20
8.2677165353999982
  9
$ORTHOMODE
 70
     1
  9
$REGENMODE
 70
     1
  9
$FILLMODE
 70
     1
  9
$QTEXTMODE
 70
     0
  9
$MIRRTEXT
 70
     0
  9
$DRAGMODE
 70
     2
  9
$LTSCALE
 40
0.6431102362
  9
$OSMODE
 70
  4095
  9
$ATTMODE
 70
     1
  9
$TEXTSIZE
 40
0.2
  9
$TRACEWID
 40
0.05
  9
$TEXTSTYLE
  7
STANDARD
  9
$CLAYER
  8
0
  9
$CELTYPE
  6
BYLAYER
  9
$CECOLOR
 62
   256
  9
$DIMSCALE
 40
1.0
  9
$DIMASZ
 40
0.1875
  9
$DIMEXO
 40
0.0625
  9
$DIMDLI
 40
0.4443307087
  9
$DIMRND
 40
0.0
  9
$DIMDLE
 40
0.0
  9
$DIMEXE
 40
0.125
  9
$DIMTP
 40
0.01
  9
$DIMTM
 40
0.01
  9
$DIMTXT
 40
2.0
  9
$DIMCEN
 40
0.1052362205
  9
$DIMTSZ
 40
0.0
  9
$DIMTOL
 70
     1
  9
$DIMLIM
 70
     0
  9
$DIMTIH
 70
     1
  9
$DIMTOH
 70
     1
  9
$DIMSE1
 70
     0
  9
$DIMSE2
 70
     0
  9
$DIMTAD
 70
     0
  9
$DIMZIN
 70
     0
  9
$DIMBLK
  1

  9
$DIMASO
 70
     1
  9
$DIMSHO
 70
     1
  9
$DIMPOST
  1
\X
  9
$DIMAPOST
  1

  9
$DIMALT
 70
     1
  9
$DIMALTD
 70
     2
  9
$DIMALTF
 40
25.3999999999999986
  9
$DIMLFAC
 40
1.0
  9
$DIMTOFL
 70
     0
  9
$DIMTVP
 40
0.0
  9
$DIMTIX
 70
     0
  9
$DIMSOXD
 70
     0
  9
$DIMSAH
 70
     0
  9
$DIMBLK1
  1

  9
$DIMBLK2
  1

  9
$DIMSTYLE
  2
STANDARD
  9
$DIMCLRD
 70
     0
  9
$DIMCLRE
 70
     0
  9
$DIMCLRT
 70
     0
  9
$DIMTFAC
 40
1.0
  9
$DIMGAP
 40
0.09
  9
$LUNITS
 70
     2
  9
$LUPREC
 70
     4
  9
$SKETCHINC
 40
0.1
  9
$FILLETRAD
 40
0.0
  9
$AUNITS
 70
     0
  9
$AUPREC
 70
     0
  9
$MENU
  1
.
  9
$ELEVATION
 40
0.0
  9
$PELEVATION
 40
0.0
  9
$THICKNESS
 40
0.0
  9
$LIMCHECK
 70
     0
  9
$BLIPMODE
 70
     0
  9
$CHAMFERA
 40
0.0
  9
$CHAMFERB
 40
0.0
  9
$SKPOLY
 70
     0
  9
$TDCREATE
 40
2458060.468368056230247
  9
$TDUPDATE
 40
2459214.4003819450736046
  9
$TDINDWG
 40
0.3528774306
  9
$TDUSRTIMER
 40
0.3528774306
  9
$USRTIMER
 70
     1
  9
$ANGBASE
 50
0.0
  9
$ANGDIR
 70
     0
  9
$PDMODE
 70
     0
  9
$PDSIZE
 40
0.3125
  9
$PLINEWID
 40
0.0
  9
$COORDS
 70
     1
  9
$SPLFRAME
 70
     0
  9
$SPLINETYPE
 70
     6
  9
$SPLINESEGS
 70
     8
  9
$ATTDIA
 70
     1
  9
$ATTREQ
 70
     1
  9
$HANDLING
 70
     1
  9
$HANDSEED
  5
CFA9
  9
$SURFTAB1
 70
     6
  9
$SURFTAB2
 70
     6
  9
$SURFTYPE
 70
     6
  9
$SURFU
 70
     6
  9
$SURFV
 70
     6
  9
$UCSNAME
  2

  9
$UCSORG
 10
0.0
 20
0.0
 30
0.0
  9
$UCSXDIR
 10
1.0
 20
0.0
 30
0.0
  9
$UCSYDIR
 10
0.0
 20
1.0
 30
0.0
  9
$PUCSNAME
  2

  9
$PUCSORG
 10
0.0
 20
0.0
 30
0.0
  9
$PUCSXDIR
 10
1.0
 20
0.0
 30
0.0
  9
$PUCSYDIR
 10
0.0
 20
1.0
 30
0.0
  9
$USERI1
 70
     0
  9
$USERI2
 70
     0
  9
$USERI3
 70
     0
  9
$USERI4
 70
     0
  9
$USERI5
 70
     0
  9
$USERR1
 40
0.0
  9
$USERR2
 40
0.0
  9
$USERR3
 40
0.0
  9
$USERR4
 40
0.0
  9
$USERR5
 40
0.0
  9
$WORLDVIEW
 70
     1
  9
$SHADEDGE
 70
     3
  9
$SHADEDIF
 70
    70
  9
$TILEMODE
 70
     1
  9
$MAXACTVP
 70
    64
  9
$PLIMCHECK
 70
     0
  9
$PEXTMIN
 10
1.0000000000000000E+20
 20
1.0000000000000000E+20
 30
1.0000000000000000E+20
  9
$PEXTMAX
 10
-1.0000000000000000E+20
 20
-1.0000000000000000E+20
 30
-1.0000000000000000E+20
  9
$PLIMMIN
 10
0.0
 20
0.0
  9
$PLIMMAX
 10
12.0
 20
9.0
  9
$UNITMODE
 70
     0
  9
$VISRETAIN
 70
     1
  9
$PLINEGEN
 70
     0
  9
$PSLTSCALE
 70
     1
  0
ENDSEC
  0
SECTION
  2
TABLES
  0
TABLE
  2
VPORT
 70
     1
  0
VPORT
  2
*ACTIVE
 70
     0
 10
0.0
 20
0.0
 11
1.0
 21
1.0
 12
0.0
 22
0.0
 13
0.0
 23
0.0
 14
1.0
 24
1.0
 15
0.0
 25
0.0
 16
0.0
 26
0.0
 36
19.403561241694991
 17
4766.882080078125
 27
216.5967119949411881
 37
0.0
 40
6.8480662661841167
 41
2.1186252771618621
 42
50.0
 43
0.0
 44
0.0
 50
0.0
 51
0.0
 71
     0
 72
   100
 73
     1
 74
     1
 75
     0
 76
     0
 77
     0
 78
     0
  0
ENDTAB
  0
TABLE
  2
LTYPE
 70
     2
  0
LTYPE
  2
CONTINUOUS
 70
     0
  3
Solid line
 72
    65
 73
     0
 40
0.0
  0
LTYPE
  2
PHANTOM2
 70
     0
  3
___ _ _ ___ _ _ ___ _ _ ___ _ _
 72
    65
 73
     6
 40
1.25
 49
0.625
 49
-0.125
 49
0.125
 49
-0.125
 49
0.125
 49
-0.125
  0
ENDTAB
  0
TABLE
  2
LAYER
 70
     2
  0
LAYER
  2
0
 70
     0
 62
   255
  6
CONTINUOUS
  0
LAYER
  2
DEFPOINTS
 70
     0
 62
     7
  6
CONTINUOUS
  0
ENDTAB
  0
TABLE
  2
STYLE
 70
     1
  0
STYLE
  2
STANDARD
 70
     0
 40
0.0
 41
0.8
 50
0.0
 71
     0
 42
0.2
  3
txt
  4

  0
ENDTAB
  0
TABLE
  2
VIEW
 70
     0
  0
ENDTAB
  0
TABLE
  2
UCS
 70
     0
  0
ENDTAB
  0
TABLE
  2
APPID
 70
     9
  0
APPID
  2
ACAD
 70
     0
  0
APPID
  2
ACAD_MLEADERVER
 70
     0
  0
APPID
  2
ACAD_EXEMPT_FROM_CAD_STANDARDS
 70
     0
  0
APPID
  2
ACAD_NAV_VCDISPLAY
 70
     0
  0
APPID
  2
ACAECLAYERSTANDARD
 70
     0
  0
APPID
  2
ACCMTRANSPARENCY
 70
     0
  0
APPID
  2
ACAD_DSTYLE_DIMJAG
 70
     0
  0
APPID
  2
ACAD_DSTYLE_DIMTALN
 70
     0
  0
APPID
  2
ACDBATTR
 70
     0
  0
ENDTAB
  0
TABLE
  2
DIMSTYLE
 70
     1
  0
DIMSTYLE
  2
STANDARD
 70
     0
  3

  4

  5

  6

  7

 40
1.0
 41
0.1875
 42
0.0625
 43
0.38
 44
0.125
 45
0.0
 46
0.0
 47
0.01
 48
0.01
140
0.15625
141
0.09
142
0.0
143
25.3999999999999986
144
1.0
145
0.0
146
1.0
147
0.09
 71
     1
 72
     0
 73
     1
 74
     1
 75
     0
 76
     0
 77
     0
 78
     4
170
     0
171
     2
172
     0
173
     0
174
     0
175
     0
176
     0
177
     0
178
     0
  0
ENDTAB
  0
ENDSEC
  0
SECTION
  2
BLOCKS
  0
BLOCK
  8
0
  2
$MODEL_SPACE
 70
     0
 10
0.0
 20
0.0
 30
0.0
  3
$MODEL_SPACE
  1

  0
ENDBLK
  5
21
  8
0
  0
BLOCK
 67
     1
  8
0
  2
$PAPER_SPACE
 70
     0
 10
0.0
 20
0.0
 30
0.0
  3
$PAPER_SPACE
  1

  0
ENDBLK
  5
1D
 67
     1
  8
0
  0
ENDSEC
  0
SECTION
  2
ENTITIES
  0
ATTDEF
  5
3930
  8
DEFPOINTS
 10
4766.8767996759252128
 20
213.2979688710674111
 30
0.0
 40
0.001
  1
K-24844T-4
  3

  2
MODELNUMBER
 70
     0
1001
ACDBATTR
1070
     0
1070
     1
  0
ATTDEF
  5
3931
  8
DEFPOINTS
 10
4766.8767996759252128
 20
213.2963022044008028
 30
0.0
 40
0.001
  1
ELATE
  3

  2
TRADENAME
 70
     0
1001
ACDBATTR
1070
     0
1070
     1
  0
ATTDEF
  5
3932
  8
DEFPOINTS
 10
4766.8767996759252128
 20
213.2946355377341092
 30
0.0
 40
0.001
  1
BATHROOM SINK FAUCET
  3

  2
PRODUCT
 70
     0
1001
ACDBATTR
1070
     0
1070
     1
  0
LINE
  5
CE47
  8
0
 10
4765.9764973503215515
 20
219.0674340760114944
 30
0.0
 11
4765.9764973503215515
 21
213.2997175405114945
 31
0.0
  0
LINE
  5
CE48
  8
0
 10
4765.979095713220886
 20
219.4557281583115014
 30
0.0
 11
4765.9764973503215515
 21
219.1579852571115055
 31
0.0
  0
LINE
  5
CE49
  8
0
 10
4766.370198137722582
 20
217.0402565349114923
 30
0.0
 11
4766.370198137722582
 21
217.7135674116115069
 31
0.0
  0
LINE
  5
CE4A
  8
0
 10
4766.7122697323220564
 20
219.8735710887114863
 30
0.0
 11
4766.7079064081999604
 21
219.5571964808995062
 31
0.0
  0
LINE
  5
CE4B
  8
0
 10
4766.5818230077711632
 20
217.2319709676114883
 30
0.0
 11
4766.5778918652222274
 21
217.2582438815115893
 31
0.0
  0
LINE
  5
CE4C
  8
0
 10
4765.9764973503215515
 20
213.2997175405114945
 30
0.0
 11
4767.7875209723224543
 21
213.2997175405114945
 31
0.0
  0
LINE
  5
CE4D
  8
0
 10
4765.9764973503215515
 20
219.1579852571115055
 30
0.0
 11
4767.7875209723224543
 21
219.1579852571115055
 31
0.0
  0
ARC
  5
CE4E
  8
0
 10
4766.8820782451803098
 20
216.1410847830225066
 30
0.0
 40
3.7577101382661762
 50
90.0010533578791012
 51
91.9997883265038325
  0
ARC
  5
CE4F
  8
0
 10
4766.8773933507600304
 20
217.3141537696403987
 30
0.0
 40
1.9555282695112219
 50
109.4587568923638941
 51
114.9545619331354942
  0
ARC
  5
CE50
  8
0
 10
4766.8796510133879565
 20
217.5387606734902022
 30
0.0
 40
0.4010697552753792
 50
232.3467278175868955
 51
270.33688080636
  0
ARC
  5
CE51
  8
0
 10
4765.997385611262871
 20
219.0662308544696941
 30
0.0
 40
0.0209228866854187
 50
93.2967521275630389
 51
176.7032478724464113
  0
ARC
  5
CE52
  8
0
 10
4766.0002429762953398
 20
219.4541613813329946
 30
0.0
 40
0.0212052240160867
 50
96.2317030270368576
 51
175.7627616691144965
  0
ARC
  5
CE53
  8
0
 10
4766.7330688266229117
 20
219.8730971754756069
 30
0.0
 40
0.0208044927238452
 50
116.0996940717638068
 51
178.6947253420387938
  0
ARC
  5
CE54
  8
0
 10
4766.7576420435352702
 20
219.7785456099001919
 30
0.0
 40
0.118150375623887
 50
93.2470093055979845
 51
106.5856497890954984
  0
ARC
  5
CE55
  8
0
 10
4766.9292959363556292
 20
175.4343539142915915
 30
0.0
 40
44.0507342034301388
 50
90.636730296952166
 51
91.2114820620071356
  0
ARC
  5
CE56
  8
0
 10
4766.444457314477404
 20
220.275681564425895
 30
0.0
 40
0.7933274007637882
 50
269.6613573023578283
 51
285.6551333353297082
  0
ARC
  5
CE57
  8
0
 10
4766.6455217764596455
 20
219.5754758861963012
 30
0.0
 40
0.0650075298346441
 50
281.5465484585570834
 51
343.6688164945408062
  0
ARC
  5
CE58
  8
0
 10
4766.8859848826559755
 20
217.0606611089100113
 30
0.0
 40
0.5161901906173415
 50
182.2654453172181945
 51
228.5429418991415957
  0
ARC
  5
CE59
  8
0
 10
4766.9014437786909184
 20
217.1899052435728095
 30
0.0
 40
0.6276624601950701
 50
235.3120314443345933
 51
268.2256393710214866
  0
ARC
  5
CE5A
  8
0
 10
4766.9235075545457221
 20
217.6829613658653102
 30
0.0
 40
0.5541552497142783
 50
122.8478128706288999
 51
176.8339377858484056
  0
ARC
  5
CE5B
  8
0
 10
4766.9145686252759333
 20
217.5765869800756036
 30
0.0
 40
0.641993558370496
 50
92.9070704800160883
 51
117.0181459844475995
  0
ARC
  5
CE5C
  8
0
 10
4766.9161639062967879
 20
217.7387352378484877
 30
0.0
 40
0.5465455515633164
 50
182.6393414722953992
 51
234.5883222756652913
  0
ARC
  5
CE5D
  8
0
 10
4766.9260575528578556
 20
217.8765047074381869
 30
0.0
 40
0.6684257036492233
 50
240.7518674988654084
 51
266.2215439291148869
  0
ARC
  5
CE5E
  8
0
 10
4766.8911202165363648
 20
217.8682252495665921
 30
0.0
 40
0.6857034850730181
 50
242.819284661111908
 51
269.2386791321125088
  0
ARC
  5
CE5F
  8
0
 10
4762.6778804754731027
 20
210.7938855581531072
 30
0.0
 40
7.5497031314447671
 50
58.8970033595086733
 51
59.8698250265442624
  0
ARC
  5
CE60
  8
0
 10
4766.8206460128258186
 20
217.4414832607263008
 30
0.0
 40
0.3722517718609895
 50
198.4738777016744109
 51
231.5827283870027031
  0
ARC
  5
CE61
  8
0
 10
4766.8862727550376803
 20
217.4894198516145991
 30
0.0
 40
0.4511087484445602
 50
228.8341812588311939
 51
269.4584685767114252
  0
ARC
  5
CE62
  8
0
 10
4766.6045704655407462
 20
217.2269424361838048
 30
0.0
 40
0.0232966298700561
 50
109.5025254333732931
 51
167.5347164867453102
  0
ARC
  5
CE63
  8
0
 10
4766.6288857421986904
 20
217.2400625127459932
 30
0.0
 40
0.0477532624469506
 50
189.755543944297898
 51
246.8858857064628864
  0
ARC
  5
CE64
  8
0
 10
4766.7033651893598289
 20
217.3846630877922053
 30
0.0
 40
0.2103116151398882
 50
243.6870455253418015
 51
261.0568802374493202
  0
ARC
  5
CE65
  8
0
 10
4766.8025170773862556
 20
217.8428772037214003
 30
0.0
 40
0.6788946816868568
 50
258.8016369662984744
 51
263.5234417080645812
  0
ARC
  5
CE66
  8
0
 10
4766.7651214346105917
 20
217.5583178244463909
 30
0.0
 40
0.3888138118507644
 50
252.9358575816783912
 51
262.7319738826770958
  0
ARC
  5
CE67
  8
0
 10
4766.6640566467021927
 20
217.2414759619964002
 30
0.0
 40
0.056381341176052
 50
224.6327782985559907
 51
256.6383397563224094
  0
ARC
  5
CE68
  8
0
 10
4766.6310527813520821
 20
217.20736528528451
 30
0.0
 40
0.0089960701423326
 50
139.7759438489773913
 51
217.6941563713760956
  0
ARC
  5
CE69
  8
0
 10
4766.6484957889842917
 20
217.192404516898506
 30
0.0
 40
0.031975975033821
 50
115.6686203293331943
 51
139.4917500085063864
  0
ARC
  5
CE6A
  8
0
 10
4766.689009099982286
 20
217.1168229774604015
 30
0.0
 40
0.1177082522390358
 50
110.4499823104382017
 51
117.5069029072656974
  0
ARC
  5
CE6B
  8
0
 10
4766.6764494354738417
 20
217.2044559419325083
 30
0.0
 40
0.0099584657123644
 50
168.1627128876573067
 51
230.2568844867114137
  0
ARC
  5
CE6C
  8
0
 10
4766.6912200609549473
 20
217.2014351709642028
 30
0.0
 40
0.0250347480979581
 50
148.5072070520348007
 51
168.3307269069478025
  0
ARC
  5
CE6D
  8
0
 10
4766.8812418402148978
 20
217.5612583433739928
 30
0.0
 40
0.4060900610559178
 50
238.6343391063018942
 51
254.5887780856164966
  0
ARC
  5
CE6E
  8
0
 10
4766.889820227817836
 20
217.6216752237982917
 30
0.0
 40
0.4666791644783665
 50
255.5446798168080136
 51
269.0409641643306031
  0
LINE
  5
CE6F
  8
0
 10
4767.7875209723224543
 20
219.0674340760114944
 30
0.0
 11
4767.7875209723224543
 21
213.2997175405114945
 31
0.0
  0
LINE
  5
CE70
  8
0
 10
4767.7849226094222104
 20
219.4557281583115014
 30
0.0
 11
4767.7875209723224543
 21
219.1579852571115055
 31
0.0
  0
LINE
  5
CE71
  8
0
 10
4767.3938201849223333
 20
217.0402565349114923
 30
0.0
 11
4767.3938201849223333
 21
217.7135674116115069
 31
0.0
  0
LINE
  5
CE72
  8
0
 10
4767.05174859032104
 20
219.8735710887114863
 30
0.0
 11
4767.0561119144449549
 21
219.5571964808995062
 31
0.0
  0
LINE
  5
CE73
  8
0
 10
4767.1821953148719331
 20
217.2319709676114883
 30
0.0
 11
4767.1861264574217785
 21
217.2582438815115893
 31
0.0
  0
ARC
  5
CE74
  8
0
 10
4766.8819400774627866
 20
216.1410847830225919
 30
0.0
 40
3.7577101382661611
 50
88.0002116734961675
 51
89.9989466421208988
  0
ARC
  5
CE75
  8
0
 10
4766.8866249718830659
 20
217.3141537696403987
 30
0.0
 40
1.9555282695112219
 50
65.0454380668644774
 51
70.5412431076360633
  0
ARC
  5
CE76
  8
0
 10
4766.8843673092560493
 20
217.5387606734902022
 30
0.0
 40
0.401069755275376
 50
269.66311919364
 51
307.6532721824129908
  0
ARC
  5
CE77
  8
0
 10
4767.7666327113811349
 20
219.0662308544696941
 30
0.0
 40
0.0209228866854187
 50
3.2967521275535581
 51
86.7032478724369611
  0
ARC
  5
CE78
  8
0
 10
4767.7637753463486661
 20
219.4541613813329946
 30
0.0
 40
0.0212052240160867
 50
4.2372383308854449
 51
83.7682969729631566
  0
ARC
  5
CE79
  8
0
 10
4767.0309494960210941
 20
219.8730971754756069
 30
0.0
 40
0.0208044927238452
 50
1.30527465796117
 51
63.9003059282361789
  0
ARC
  5
CE7A
  8
0
 10
4767.0063762791087356
 20
219.7785456099001919
 30
0.0
 40
0.118150375623887
 50
73.4143502109045158
 51
86.7529906944020155
  0
ARC
  5
CE7B
  8
0
 10
4766.8347223862883766
 20
175.4343539142915915
 30
0.0
 40
44.0507342034301388
 50
88.788517937992907
 51
89.3632697030478482
  0
ARC
  5
CE7C
  8
0
 10
4767.3195610081666018
 20
220.275681564425895
 30
0.0
 40
0.7933274007637882
 50
254.3448666646702918
 51
270.3386426976421717
  0
ARC
  5
CE7D
  8
0
 10
4767.1184965461834508
 20
219.5754758861963012
 30
0.0
 40
0.0650075298346441
 50
196.3311835054591938
 51
258.4534515414429166
  0
ARC
  5
CE7E
  8
0
 10
4766.8780334399880303
 20
217.0606611089100113
 30
0.0
 40
0.5161901906173415
 50
311.4570581008583758
 51
357.734554682781777
  0
ARC
  5
CE7F
  8
0
 10
4766.8625745439521779
 20
217.1899052435728095
 30
0.0
 40
0.6276624601950701
 50
271.7743606289785134
 51
304.6879685556654067
  0
ARC
  5
CE80
  8
0
 10
4766.8405107680991932
 20
217.6829613658653102
 30
0.0
 40
0.5541552497142783
 50
3.1660622141515851
 51
57.1521871293710788
  0
ARC
  5
CE81
  8
0
 10
4766.849449697367163
 20
217.5765869800756036
 30
0.0
 40
0.6419935583704925
 50
62.9818540155524218
 51
87.092929519983926
  0
ARC
  5
CE82
  8
0
 10
4766.8478544163463084
 20
217.7387352378484877
 30
0.0
 40
0.5465455515633164
 50
305.4116777243336855
 51
357.3606585277045724
  0
ARC
  5
CE83
  8
0
 10
4766.8379607697870597
 20
217.8765047074381869
 30
0.0
 40
0.6684257036492233
 50
273.7784560708849995
 51
299.2481325011345916
  0
ARC
  5
CE84
  8
0
 10
4766.8728981061067316
 20
217.8682252495665921
 30
0.0
 40
0.6857034850730181
 50
270.7613208678874912
 51
297.180715338888092
  0
ARC
  5
CE85
  8
0
 10
4771.0861378471709031
 20
210.7938855581531072
 30
0.0
 40
7.5497031314447671
 50
120.130174973455695
 51
121.1029966404912983
  0
ARC
  5
CE86
  8
0
 10
4766.9433723098181872
 20
217.4414832607263008
 30
0.0
 40
0.3722517718609895
 50
308.4172716129974106
 51
341.5261222983256175
  0
ARC
  5
CE87
  8
0
 10
4766.877745567605416
 20
217.4894198516145991
 30
0.0
 40
0.4511087484445569
 50
270.5415314232885748
 51
311.1658187411687777
  0
ARC
  5
CE88
  8
0
 10
4767.1594478571023501
 20
217.2269424361838048
 30
0.0
 40
0.0232966298700561
 50
12.4652835132547093
 51
70.4974745666266926
  0
ARC
  5
CE89
  8
0
 10
4767.1351325804462249
 20
217.2400625127459932
 30
0.0
 40
0.0477532624469506
 50
293.1141142935369999
 51
350.2444560557020736
  0
ARC
  5
CE8A
  8
0
 10
4767.0606531332841769
 20
217.3846630877922053
 30
0.0
 40
0.2103116151398882
 50
278.9431197625506229
 51
296.3129544746582269
  0
ARC
  5
CE8B
  8
0
 10
4766.9615012452568408
 20
217.8428772037214003
 30
0.0
 40
0.6788946816868568
 50
276.4765582919354188
 51
281.1983630337015256
  0
ARC
  5
CE8C
  8
0
 10
4766.9988968880334141
 20
217.5583178244463909
 30
0.0
 40
0.3888138118507644
 50
277.2680261173229042
 51
287.0641424183216941
  0
ARC
  5
CE8D
  8
0
 10
4767.0999616759409037
 20
217.2414759619964002
 30
0.0
 40
0.056381341176052
 50
283.3616602436777043
 51
315.3672217014438957
  0
ARC
  5
CE8E
  8
0
 10
4767.1329655412919237
 20
217.20736528528451
 30
0.0
 40
0.0089960701423326
 50
322.305843628624018
 51
40.2240561510225376
  0
ARC
  5
CE8F
  8
0
 10
4767.1155225336588046
 20
217.192404516898506
 30
0.0
 40
0.031975975033821
 50
40.5082499914936207
 51
64.3313796706668342
  0
ARC
  5
CE90
  8
0
 10
4767.0750092226608103
 20
217.1168229774604015
 30
0.0
 40
0.1177082522390358
 50
62.4930970927342671
 51
69.5500176895617841
  0
ARC
  5
CE91
  8
0
 10
4767.0875688871701641
 20
217.2044559419325083
 30
0.0
 40
0.0099584657123644
 50
309.743115508951405
 51
11.8372871123427004
  0
ARC
  5
CE92
  8
0
 10
4767.0727982616890586
 20
217.2014351709642028
 30
0.0
 40
0.0250347480979581
 50
11.66927309305213
 51
31.4927929479652313
  0
ARC
  5
CE93
  8
0
 10
4766.8827764824281985
 20
217.5612583433739928
 30
0.0
 40
0.4060900610559178
 50
285.411221914383475
 51
301.3656608936980774
  0
ARC
  5
CE94
  8
0
 10
4766.8741980948261698
 20
217.6216752237982917
 30
0.0
 40
0.4666791644783665
 50
270.9590358356693969
 51
284.4553201831919864
  0
LINE
  5
CE95
  8
0
 10
4765.9961823897219801
 20
219.0871191154114968
 30
0.0
 11
4767.7678359329220257
 21
219.0871191154114968
 31
0.0
  0
ENDSEC
  0
EOF
