  0
SECTION
  2
HEADER
  9
$ACADVER
  1
AC1009
  9
$INSBASE
 10
4493.2101276581252023
 20
271.3101036145927196
 30
0.0
  9
$EXTMIN
 10
4491.8321749022252334
 20
267.863053007692713
 30
0.0
  9
$EXTMAX
 10
4498.5880804140251712
 20
272.6880563704928022
 30
0.0
  9
$LIMMIN
 10
0.0
 20
0.0
  9
$LIMMAX
 10
11.6929133858000007
 20
8.2677165353999982
  9
$ORTHOMODE
 70
     0
  9
$REGENMODE
 70
     1
  9
$FILLMODE
 70
     1
  9
$QTEXTMODE
 70
     0
  9
$MIRRTEXT
 70
     0
  9
$DRAGMODE
 70
     2
  9
$LTSCALE
 40
0.6431102362
  9
$OSMODE
 70
  4095
  9
$ATTMODE
 70
     1
  9
$TEXTSIZE
 40
0.2
  9
$TRACEWID
 40
0.05
  9
$TEXTSTYLE
  7
STANDARD
  9
$CLAYER
  8
0
  9
$CELTYPE
  6
BYLAYER
  9
$CECOLOR
 62
   256
  9
$DIMSCALE
 40
1.0
  9
$DIMASZ
 40
0.1875
  9
$DIMEXO
 40
0.0625
  9
$DIMDLI
 40
0.4443307087
  9
$DIMRND
 40
0.0
  9
$DIMDLE
 40
0.0
  9
$DIMEXE
 40
0.125
  9
$DIMTP
 40
0.01
  9
$DIMTM
 40
0.01
  9
$DIMTXT
 40
2.0
  9
$DIMCEN
 40
0.1052362205
  9
$DIMTSZ
 40
0.0
  9
$DIMTOL
 70
     1
  9
$DIMLIM
 70
     0
  9
$DIMTIH
 70
     1
  9
$DIMTOH
 70
     1
  9
$DIMSE1
 70
     0
  9
$DIMSE2
 70
     0
  9
$DIMTAD
 70
     0
  9
$DIMZIN
 70
     0
  9
$DIMBLK
  1

  9
$DIMASO
 70
     1
  9
$DIMSHO
 70
     1
  9
$DIMPOST
  1
\X
  9
$DIMAPOST
  1

  9
$DIMALT
 70
     1
  9
$DIMALTD
 70
     2
  9
$DIMALTF
 40
25.3999999999999986
  9
$DIMLFAC
 40
1.0
  9
$DIMTOFL
 70
     0
  9
$DIMTVP
 40
0.0
  9
$DIMTIX
 70
     0
  9
$DIMSOXD
 70
     0
  9
$DIMSAH
 70
     0
  9
$DIMBLK1
  1

  9
$DIMBLK2
  1

  9
$DIMSTYLE
  2
STANDARD
  9
$DIMCLRD
 70
     0
  9
$DIMCLRE
 70
     0
  9
$DIMCLRT
 70
     0
  9
$DIMTFAC
 40
1.0
  9
$DIMGAP
 40
0.09
  9
$LUNITS
 70
     2
  9
$LUPREC
 70
     4
  9
$SKETCHINC
 40
0.1
  9
$FILLETRAD
 40
0.0
  9
$AUNITS
 70
     0
  9
$AUPREC
 70
     0
  9
$MENU
  1
.
  9
$ELEVATION
 40
0.0
  9
$PELEVATION
 40
0.0
  9
$THICKNESS
 40
0.0
  9
$LIMCHECK
 70
     0
  9
$BLIPMODE
 70
     0
  9
$CHAMFERA
 40
0.0
  9
$CHAMFERB
 40
0.0
  9
$SKPOLY
 70
     0
  9
$TDCREATE
 40
2458060.468368056230247
  9
$TDUPDATE
 40
2459999.4904050920158625
  9
$TDINDWG
 40
0.6717894676
  9
$TDUSRTIMER
 40
0.6717894676
  9
$USRTIMER
 70
     1
  9
$ANGBASE
 50
0.0
  9
$ANGDIR
 70
     0
  9
$PDMODE
 70
     0
  9
$PDSIZE
 40
0.3125
  9
$PLINEWID
 40
0.0
  9
$COORDS
 70
     1
  9
$SPLFRAME
 70
     0
  9
$SPLINETYPE
 70
     6
  9
$SPLINESEGS
 70
     8
  9
$ATTDIA
 70
     1
  9
$ATTREQ
 70
     1
  9
$HANDLING
 70
     1
  9
$HANDSEED
  5
C27B
  9
$SURFTAB1
 70
     6
  9
$SURFTAB2
 70
     6
  9
$SURFTYPE
 70
     6
  9
$SURFU
 70
     6
  9
$SURFV
 70
     6
  9
$UCSNAME
  2

  9
$UCSORG
 10
0.0
 20
0.0
 30
0.0
  9
$UCSXDIR
 10
1.0
 20
0.0
 30
0.0
  9
$UCSYDIR
 10
0.0
 20
1.0
 30
0.0
  9
$PUCSNAME
  2

  9
$PUCSORG
 10
0.0
 20
0.0
 30
0.0
  9
$PUCSXDIR
 10
1.0
 20
0.0
 30
0.0
  9
$PUCSYDIR
 10
0.0
 20
1.0
 30
0.0
  9
$USERI1
 70
     0
  9
$USERI2
 70
     0
  9
$USERI3
 70
     0
  9
$USERI4
 70
     0
  9
$USERI5
 70
     0
  9
$USERR1
 40
0.0
  9
$USERR2
 40
0.0
  9
$USERR3
 40
0.0
  9
$USERR4
 40
0.0
  9
$USERR5
 40
0.0
  9
$WORLDVIEW
 70
     1
  9
$SHADEDGE
 70
     3
  9
$SHADEDIF
 70
    70
  9
$TILEMODE
 70
     1
  9
$MAXACTVP
 70
    64
  9
$PLIMCHECK
 70
     0
  9
$PEXTMIN
 10
1.0000000000000000E+20
 20
1.0000000000000000E+20
 30
1.0000000000000000E+20
  9
$PEXTMAX
 10
-1.0000000000000000E+20
 20
-1.0000000000000000E+20
 30
-1.0000000000000000E+20
  9
$PLIMMIN
 10
0.0
 20
0.0
  9
$PLIMMAX
 10
12.0
 20
9.0
  9
$UNITMODE
 70
     0
  9
$VISRETAIN
 70
     1
  9
$PLINEGEN
 70
     0
  9
$PSLTSCALE
 70
     1
  0
ENDSEC
  0
SECTION
  2
TABLES
  0
TABLE
  2
VPORT
 70
     1
  0
VPORT
  2
*ACTIVE
 70
     0
 10
0.0
 20
0.0
 11
1.0
 21
1.0
 12
211.0966376390242942
 22
45.0314140544010613
 13
0.0
 23
0.0
 14
1.0
 24
1.0
 15
0.0
 25
0.0
 16
0.0
 26
0.0
 36
27.5337298366232197
 17
4284.0688476562490905
 27
225.2483596801758097
 37
0.0
 40
4.8946628311586444
 41
2.5251322751322749
 42
50.0
 43
0.0
 44
0.0
 50
0.0
 51
0.0
 71
     0
 72
   100
 73
     1
 74
     1
 75
     0
 76
     0
 77
     0
 78
     0
  0
ENDTAB
  0
TABLE
  2
LTYPE
 70
     2
  0
LTYPE
  2
CONTINUOUS
 70
     0
  3
Solid line
 72
    65
 73
     0
 40
0.0
  0
LTYPE
  2
PHANTOM2
 70
     0
  3
___ _ _ ___ _ _ ___ _ _ ___ _ _
 72
    65
 73
     6
 40
1.25
 49
0.625
 49
-0.125
 49
0.125
 49
-0.125
 49
0.125
 49
-0.125
  0
ENDTAB
  0
TABLE
  2
LAYER
 70
     2
  0
LAYER
  2
0
 70
     0
 62
   255
  6
CONTINUOUS
  0
LAYER
  2
DEFPOINTS
 70
     0
 62
     7
  6
CONTINUOUS
  0
ENDTAB
  0
TABLE
  2
STYLE
 70
     1
  0
STYLE
  2
STANDARD
 70
     0
 40
0.0
 41
0.8
 50
0.0
 71
     0
 42
0.2
  3
txt
  4

  0
ENDTAB
  0
TABLE
  2
VIEW
 70
     0
  0
ENDTAB
  0
TABLE
  2
UCS
 70
     0
  0
ENDTAB
  0
TABLE
  2
APPID
 70
     9
  0
APPID
  2
ACAD
 70
     0
  0
APPID
  2
ACAD_MLEADERVER
 70
     0
  0
APPID
  2
ACAD_EXEMPT_FROM_CAD_STANDARDS
 70
     0
  0
APPID
  2
ACAD_NAV_VCDISPLAY
 70
     0
  0
APPID
  2
ACAECLAYERSTANDARD
 70
     0
  0
APPID
  2
ACCMTRANSPARENCY
 70
     0
  0
APPID
  2
ACAD_DSTYLE_DIMJAG
 70
     0
  0
APPID
  2
ACAD_DSTYLE_DIMTALN
 70
     0
  0
APPID
  2
ACDBATTR
 70
     0
  0
ENDTAB
  0
TABLE
  2
DIMSTYLE
 70
     1
  0
DIMSTYLE
  2
STANDARD
 70
     0
  3

  4

  5

  6

  7

 40
1.0
 41
0.1875
 42
0.0625
 43
0.38
 44
0.125
 45
0.0
 46
0.0
 47
0.01
 48
0.01
140
0.15625
141
0.09
142
0.0
143
25.3999999999999986
144
1.0
145
0.0
146
1.0
147
0.09
 71
     1
 72
     0
 73
     1
 74
     1
 75
     0
 76
     0
 77
     0
 78
     4
170
     0
171
     2
172
     0
173
     0
174
     0
175
     0
176
     0
177
     0
178
     0
  0
ENDTAB
  0
ENDSEC
  0
SECTION
  2
BLOCKS
  0
BLOCK
  8
0
  2
$MODEL_SPACE
 70
     0
 10
0.0
 20
0.0
 30
0.0
  3
$MODEL_SPACE
  1

  0
ENDBLK
  5
21
  8
0
  0
BLOCK
 67
     1
  8
0
  2
$PAPER_SPACE
 70
     0
 10
0.0
 20
0.0
 30
0.0
  3
$PAPER_SPACE
  1

  0
ENDBLK
  5
1D
 67
     1
  8
0
  0
BLOCK
  8
0
  2
_FILLED
 70
     0
 10
0.0
 20
0.0
 30
0.0
  3
_FILLED
  1

  0
SOLID
  5
A158
  8
0
  6
BYBLOCK
 62
     0
 10
0.0
 20
0.0
 30
0.0
 11
-1.0
 21
0.1666666667
 31
0.0
 12
-1.0
 22
-0.1666666667
 32
0.0
 13
-1.0
 23
-0.1666666667
 33
0.0
  0
ENDBLK
  5
A159
  8
0
  6
BYBLOCK
 62
     0
  0
BLOCK
  8
0
  2
A$CFE7FEDC8
 70
     0
 10
0.0
 20
0.0
 30
0.0
  3
A$CFE7FEDC8
  1

  0
LINE
  5
B9D0
  8
0
 10
58.986076710890039
 20
27.0269391781641097
 30
0.0
 11
58.9852074081900284
 21
27.0518327497640989
 31
0.0
  0
LINE
  5
B9D1
  8
0
 10
58.9865625565900373
 20
27.0124626711641085
 30
0.0
 11
58.9865625565900373
 21
26.9924626711641089
 31
0.0
  0
LINE
  5
B9D2
  8
0
 10
60.3367260264900409
 20
24.9514626606641094
 30
0.0
 11
60.3432110053308293
 21
24.9514626606641094
 31
0.0
  0
LINE
  5
B9D3
  8
0
 10
59.8465625565900368
 20
27.0124626711641085
 30
0.0
 11
59.8465625565900368
 21
26.9924626711641089
 31
0.0
  0
LINE
  5
B9D4
  8
0
 10
59.8470484023900369
 20
27.0269391781641097
 30
0.0
 11
59.8572056620900312
 21
27.3178050402641013
 31
0.0
  0
LINE
  5
B9D5
  8
0
 10
60.3367260264900409
 20
24.9514626606641094
 30
0.0
 11
60.3367260264900409
 21
24.9114626606640996
 31
0.0
  0
LINE
  5
B9D6
  8
0
 10
59.9876266699900285
 20
25.7437116606641112
 30
0.0
 11
58.8458021050382172
 21
25.7437116883505794
 31
0.0
  0
LINE
  5
B9D7
  8
0
 10
60.9620625565900411
 20
28.2826757605640999
 30
0.0
 11
60.9620625565900411
 21
27.9281160778641002
 31
0.0
  0
LINE
  5
B9D8
  8
0
 10
58.9865625565900373
 20
26.9924626711641089
 30
0.0
 11
59.8465625565900368
 21
26.9924626711641089
 31
0.0
  0
LINE
  5
B9D9
  8
0
 10
59.8465625565900368
 20
27.0124626711641085
 30
0.0
 11
58.9865625565900373
 21
27.0124626711641085
 31
0.0
  0
ARC
  5
B9DA
  8
0
 10
58.8695625028918883
 20
25.7737116401591813
 30
0.0
 40
0.0299999523847888
 50
166.8322400017065945
 51
270.000102557806315
  0
ARC
  5
B9DB
  8
0
 10
59.9635637822601026
 20
25.7737106891225487
 30
0.0
 40
0.0299990278999821
 50
269.9976590824311984
 51
13.1700385533630104
  0
ARC
  5
B9DC
  8
0
 10
58.8467553479488075
 20
25.7225706145004196
 30
0.0
 40
0.0211625536168113
 50
92.5816960755873168
 51
167.1248064976153955
  0
ARC
  5
B9DD
  8
0
 10
53.5034606070900409
 20
27.029128271764101
 30
0.0
 40
5.480999999999999
 50
346.8323014961001149
 51
359.3094749348999244
  0
ARC
  5
B9DE
  8
0
 10
59.0140066747366205
 20
26.9627325704686989
 30
0.0
 40
0.0299460556033526
 50
96.8851069940240563
 51
179.3482404463032083
  0
ARC
  5
B9DF
  8
0
 10
59.8191184384434678
 20
26.9627325704686989
 30
0.0
 40
0.0299460556033528
 50
0.6517595536992546
 51
83.1148930059771942
  0
ARC
  5
B9E0
  8
0
 10
59.8320575399900321
 20
27.0274626711641091
 30
0.0
 40
0.0150000000000073
 50
269.999945960237028
 51
357.9999978287968929
  0
ARC
  5
B9E1
  8
0
 10
59.0010675689519388
 20
27.0274626666718589
 30
0.0
 40
0.0149999955077662
 50
181.9999856008371921
 51
270.0000706090414155
  0
ARC
  5
B9E2
  8
0
 10
65.3296645060900403
 20
27.029128271764101
 30
0.0
 40
5.480999999999999
 50
180.6905250650999903
 51
193.1676985038999135
  0
ARC
  5
B9E3
  8
0
 10
61.6236579111242122
 20
27.9280973273954203
 30
0.0
 40
0.6615953547998737
 50
179.9983761634483983
 51
197.332426815674097
  0
ARC
  5
B9E4
  8
0
 10
58.3141917568328978
 20
24.9265388586277901
 30
0.0
 40
0.0150764336981537
 50
167.6908442897544944
 51
269.6795941530949108
  0
LINE
  5
B9E5
  8
0
 10
58.2994619074250267
 20
24.9297529509531799
 30
0.0
 11
58.3257478173011634
 21
25.0519595747748482
 31
0.0
  0
ARC
  5
B9E6
  8
0
 10
60.4287863594051373
 20
24.9414222903403306
 30
0.0
 40
0.0861623482803339
 50
173.3082048042259089
 51
200.3473970883634081
  0
ARC
  5
B9E7
  8
0
 10
64.7097680885406703
 20
24.6004650035678303
 30
0.0
 40
4.3806415187980239
 50
173.0142835791677953
 51
175.4042655576751883
  0
ARC
  5
B9E8
  8
0
 10
79.4025605075465961
 20
22.4405403604859401
 30
0.0
 40
19.2303688084009217
 50
168.6861226445259945
 51
171.9507847256953994
  0
ARC
  5
B9E9
  8
0
 10
47.7060843657028215
 20
28.5812242949410091
 30
0.0
 40
13.0563428526922305
 50
349.5505603124382219
 51
353.0350177249475792
  0
ARC
  5
B9EA
  8
0
 10
30.4301244872942611
 20
30.4301244973686913
 30
0.0
 40
30.4301245230285708
 50
353.5239533357247979
 51
356.3156275064512215
  0
ARC
  5
B9EB
  8
0
 10
58.3735718688756293
 20
25.0404983663560792
 30
0.0
 40
0.0491782391654735
 50
112.0015685012148055
 51
166.5230319147314901
  0
ARC
  5
B9EC
  8
0
 10
58.585810377619822
 20
24.4655163161518416
 30
0.0
 40
0.662059770182824
 50
97.7125038073065184
 51
110.3895409238131009
  0
ARC
  5
B9ED
  8
0
 10
58.281530155536359
 20
25.5557923752058791
 30
0.0
 40
0.4847106623034166
 50
296.3882248373450921
 51
342.9242490448170884
  0
ARC
  5
B9EE
  8
0
 10
57.0287958566283919
 20
26.0252012111218782
 30
0.0
 40
1.8218520562921741
 50
340.3801656768814041
 51
350.5885480551855835
  0
ARC
  5
B9EF
  8
0
 10
72.9700961207892789
 20
-61.9510864092924578
 30
0.0
 40
88.2673332722939108
 50
99.17892761372444
 51
99.4373661831699991
  0
ARC
  5
B9F0
  8
0
 10
57.8788479349251688
 20
31.9775581473623909
 30
0.0
 40
6.8664126525163391
 50
278.4669977533818042
 51
283.6438953896562225
  0
ARC
  5
B9F1
  8
0
 10
59.161096819457093
 20
26.9830758609316703
 30
0.0
 40
1.71175490161133
 50
281.3694580986020242
 51
305.1538063702992076
  0
ARC
  5
B9F2
  8
0
 10
59.425569950196433
 20
26.4328081281003691
 30
0.0
 40
1.11412484782983
 50
310.3340681320711951
 51
345.783912646657086
  0
ARC
  5
B9F3
  8
0
 10
53.6090094695453772
 20
27.7620730935380386
 30
0.0
 40
7.0803835122559029
 50
346.9158428590540098
 51
354.8250044156745844
  0
ARC
  5
B9F4
  8
0
 10
32.1903359180979365
 20
30.2075120707189484
 30
0.0
 40
28.6367526562136909
 50
353.8174600304574255
 51
356.6286996763927277
  0
ARC
  5
B9F5
  8
0
 10
60.7945544013022214
 20
28.5246037973815696
 30
0.0
 40
0.0170607580726808
 50
154.5274432848117954
 51
183.745379298065501
  0
ARC
  5
B9F6
  8
0
 10
61.5070372515619468
 20
28.1523008053196691
 30
0.0
 40
0.8209407284703418
 50
123.0683673723336966
 51
152.4549668249009926
  0
ARC
  5
B9F7
  8
0
 10
61.4308335799316225
 20
28.2557783089845209
 30
0.0
 40
0.6926842934355645
 50
101.5372777826115964
 51
122.456359175854999
  0
ARC
  5
B9F8
  8
0
 10
61.4585013606265491
 20
27.9142660031659418
 30
0.0
 40
1.0336512156912181
 50
92.3255153970564777
 51
99.2531824620049719
  0
ARC
  5
B9F9
  8
0
 10
61.0389542052540293
 20
28.60124622783351
 30
0.0
 40
0.2727429292641479
 50
196.5643604993657902
 51
207.648500119773189
  0
ARC
  5
B9FA
  8
0
 10
61.4465249137356579
 20
28.8649078067643003
 30
0.0
 40
0.7574284990106677
 50
211.0107967879802118
 51
230.2369097839824121
  0
ARC
  5
B9FB
  8
0
 10
61.50583325833027
 20
29.0714052267115086
 30
0.0
 40
0.9580087404821597
 50
235.4166056455730995
 51
247.5615321059744929
  0
ARC
  5
B9FC
  8
0
 10
61.3759925889575726
 20
28.7888198649665306
 30
0.0
 40
0.6473729339831995
 50
248.636943544649597
 51
263.002066397482281
  0
ARC
  5
B9FD
  8
0
 10
61.4243563648794222
 20
29.3347261721723207
 30
0.0
 40
1.195248143556435
 50
263.889221144610417
 51
269.6262274839864972
  0
ARC
  5
B9FE
  8
0
 10
61.3331911809196697
 20
28.5026568414109285
 30
0.0
 40
0.4940058996188979
 50
200.2504857266536078
 51
221.2880907330942932
  0
ARC
  5
B9FF
  8
0
 10
60.8933907622996813
 20
28.3417183816544984
 30
0.0
 40
0.0257151108345409
 50
166.7665534720132996
 51
203.0039774880474965
  0
ARC
  5
BA00
  8
0
 10
60.8723662205585399
 20
28.3461471486663008
 30
0.0
 40
0.0042646569409215
 50
66.896803083224583
 51
160.0097793414333012
  0
ARC
  5
BA01
  8
0
 10
60.7885996556328365
 20
28.1940372914732791
 30
0.0
 40
0.1778935775945886
 50
45.2561608520659817
 51
61.2958539796735735
  0
ARC
  5
BA02
  8
0
 10
61.3332242268554779
 20
28.8071225346724411
 30
0.0
 40
0.6424993419038478
 50
229.2499120368075864
 51
234.7121793475488971
  0
ARC
  5
BA03
  8
0
 10
61.0256655704640494
 20
27.7461493784168596
 30
0.0
 40
0.0368230779391306
 50
204.2967963698856124
 51
243.6396097280513118
  0
ARC
  5
BA04
  8
0
 10
61.1215175609431611
 20
27.9204034468851887
 30
0.0
 40
0.2356716526220909
 50
241.5693513276804083
 51
258.0040845945429169
  0
ARC
  5
BA05
  8
0
 10
61.3154810522454028
 20
28.7408455122279598
 30
0.0
 40
1.0786819876829381
 50
256.9839016662434119
 51
266.3972518689143953
  0
ARC
  5
BA06
  8
0
 10
61.4594371692027508
 20
31.0339831606520598
 30
0.0
 40
3.376333741191043
 50
266.4044717857622118
 51
269.2723480566306193
  0
ARC
  5
BA07
  8
0
 10
61.0276942737759569
 20
27.7275231231142101
 30
0.0
 40
0.0357594609862869
 50
109.5527340263549974
 51
174.4235132662498131
  0
ARC
  5
BA08
  8
0
 10
61.2150846064188698
 20
27.2754877163563911
 30
0.0
 40
0.5250523461199909
 50
94.7139234407740815
 51
112.3145974936527978
  0
ARC
  5
BA09
  8
0
 10
61.394136970969619
 20
25.9950924197500015
 30
0.0
 40
1.817307032581196
 50
91.8483314409518385
 51
97.0231099193314037
  0
ARC
  5
BA0A
  8
0
 10
61.3401696960674911
 20
29.8586207749261909
 30
0.0
 40
2.0471721284436439
 50
269.8699150419677721
 51
272.1384666911724253
  0
ARC
  5
BA0B
  8
0
 10
61.1809695405419092
 20
33.8362817605238817
 30
0.0
 40
6.0335019296360173
 50
271.0758498844925839
 51
272.2377920240223261
  0
ARC
  5
BA0C
  8
0
 10
61.3700638512027012
 20
26.4054819238727809
 30
0.0
 40
1.400414930494041
 50
93.1031297377472384
 51
99.1472048771288428
  0
ARC
  5
BA0D
  8
0
 10
61.210882405159488
 20
27.3526731615463703
 30
0.0
 40
0.4400128598790947
 50
98.2902709220852557
 51
111.4388346517432069
  0
ARC
  5
BA0E
  8
0
 10
61.0715948281687204
 20
27.7049063066444887
 30
0.0
 40
0.0612473398460095
 50
110.5911798746636947
 51
140.7053837700879058
  0
ARC
  5
BA0F
  8
0
 10
61.0366070809642594
 20
27.7351897777329199
 30
0.0
 40
0.0150459668504553
 50
145.5792568771821038
 51
227.9746129497121103
  0
ARC
  5
BA10
  8
0
 10
61.1212039535120368
 20
27.8445453167353492
 30
0.0
 40
0.153265730207808
 50
231.8529127452601983
 51
260.4186466398177799
  0
ARC
  5
BA11
  8
0
 10
61.3368612118920424
 20
28.7351785122213208
 30
0.0
 40
1.0693118344321579
 50
256.9656178481449729
 51
268.3024295166642901
  0
ARC
  5
BA12
  8
0
 10
61.4714393283900407
 20
31.8809288528391015
 30
0.0
 40
4.2178707770548467
 50
267.7409945369129218
 51
269.2544836652674007
  0
ARC
  5
BA13
  8
0
 10
59.8098255040618625
 20
27.3193845204943884
 30
0.0
 40
0.0474064777490699
 50
358.0906764878703257
 51
47.516273699603957
  0
ARC
  5
BA14
  8
0
 10
58.2440736179426892
 20
25.5245184331878683
 30
0.0
 40
2.42922482830719
 50
48.8731697028250807
 51
67.3467924929648092
  0
ARC
  5
BA15
  8
0
 10
57.8737778642733787
 20
24.8043815262955611
 30
0.0
 40
3.2370656178386161
 50
66.207444774827394
 51
84.696645753165356
  0
ARC
  5
BA16
  8
0
 10
57.669075320559898
 20
22.9259953833002896
 30
0.0
 40
5.1264203686325951
 50
84.3590092786065924
 51
89.5451460623114031
  0
ARC
  5
BA17
  8
0
 10
57.714106744155643
 20
24.6239005995018587
 30
0.0
 40
3.4283563526218761
 50
90.072443631775883
 51
98.2682479741287835
  0
ARC
  5
BA18
  8
0
 10
57.396963373929097
 20
26.9356579939076113
 30
0.0
 40
1.0951785040330051
 50
99.2414785239804473
 51
113.3832157598889978
  0
ARC
  5
BA19
  8
0
 10
57.0519035530578122
 20
27.7189444074044715
 30
0.0
 40
0.2393471844030045
 50
111.9825799017040993
 51
146.6853929001821939
  0
ARC
  5
BA1A
  8
0
 10
56.8938689792951209
 20
27.8285664503574317
 30
0.0
 40
0.0473195195809176
 50
152.5187044977843129
 51
180.0000000006151026
  0
ARC
  5
BA1B
  8
0
 10
56.8938689792938135
 20
27.82856645035627
 30
0.0
 40
0.0473195195796046
 50
179.9999999992191988
 51
201.5767560196142085
  0
ARC
  5
BA1C
  8
0
 10
57.2581124156114996
 20
28.0399935035649293
 30
0.0
 40
0.4680045298710493
 50
209.2712918450476991
 51
246.8395607394994045
  0
ARC
  5
BA1D
  8
0
 10
57.8271778129586096
 20
29.2165572140777883
 30
0.0
 40
1.7745930454637491
 50
244.8873924091631125
 51
263.4176783492629284
  0
ARC
  5
BA1E
  8
0
 10
58.0035475644518712
 20
30.4957165812683115
 30
0.0
 40
3.065670992892406
 50
262.8835947458817941
 51
274.2153730093920103
  0
ARC
  5
BA1F
  8
0
 10
58.4819743710024582
 20
23.7587525830461708
 30
0.0
 40
3.6882795271449349
 50
87.8160466372144981
 51
93.93461191091356
  0
ARC
  5
BA20
  8
0
 10
58.6157031883040105
 20
27.0511485128684797
 30
0.0
 40
0.3932637450088979
 50
57.1367992738402606
 51
89.0057490320452871
  0
ARC
  5
BA21
  8
0
 10
58.6433363821110305
 20
27.1055141185537103
 30
0.0
 40
0.3326630703252316
 50
18.1812639255282988
 51
56.0534416862683216
  0
ARC
  5
BA22
  8
0
 10
58.4350658631050521
 20
27.0425018652580285
 30
0.0
 40
0.550220669399261
 50
0.9716936485670489
 51
17.6481879316029193
  0
ARC
  5
BA23
  8
0
 10
59.891596944934129
 20
28.4027131041464109
 30
0.0
 40
1.0854530240468749
 50
239.6176530019099005
 51
268.1843477831251903
  0
ARC
  5
BA24
  8
0
 10
57.6217425640951504
 20
24.935199002873599
 30
0.0
 40
3.0607166232409289
 50
55.7889305705351788
 51
62.8213894544609914
  0
ARC
  5
BA25
  8
0
 10
58.6560265840537269
 20
26.8099930799806607
 30
0.0
 40
0.9227030933375933
 50
66.7827425963137529
 51
90.9927864931318595
  0
ARC
  5
BA26
  8
0
 10
58.9590235365231408
 20
17.7349557949046286
 30
0.0
 40
10.0026893380103594
 50
91.8274632406517384
 51
94.8889066920238093
  0
ARC
  5
BA27
  8
0
 10
57.8733756790637628
 20
31.9158096255290111
 30
0.0
 40
4.2210017207348702
 50
264.6092373058618819
 51
273.1667718726546923
  0
ARC
  5
BA28
  8
0
 10
57.9942554111601183
 20
33.0950722730420566
 30
0.0
 40
5.4064134665501706
 50
257.7796059251911061
 51
264.5079656746642058
  0
ARC
  5
BA29
  8
0
 10
59.9874343346199979
 20
25.7234687047410695
 30
0.0
 40
0.0202438696250575
 50
13.8318245735841501
 51
89.4556292370584458
  0
ARC
  5
BA2A
  8
0
 10
60.2019490864703428
 20
25.7764983377675101
 30
0.0
 40
0.2007283572962918
 50
193.8909709115233113
 51
254.0174510684055065
  0
LINE
  5
BA2B
  8
0
 10
63.8470415809900516
 20
27.0269391781641097
 30
0.0
 11
63.847910883690048
 21
27.0518327497640989
 31
0.0
  0
LINE
  5
BA2C
  8
0
 10
63.846555735290039
 20
27.0124626711641085
 30
0.0
 11
63.846555735290039
 21
26.9924626711641089
 31
0.0
  0
LINE
  5
BA2D
  8
0
 10
64.5190108440900474
 20
24.9114626606640996
 30
0.0
 11
58.3141074477900574
 21
24.9114626606640996
 31
0.0
  0
LINE
  5
BA2E
  8
0
 10
62.4963922653900426
 20
24.9514626606641094
 30
0.0
 11
62.4899072865492471
 21
24.9514626606641094
 31
0.0
  0
LINE
  5
BA2F
  8
0
 10
62.9865557352900467
 20
27.0124626711641085
 30
0.0
 11
62.9865557352900467
 21
26.9924626711641089
 31
0.0
  0
LINE
  5
BA30
  8
0
 10
62.9860698894900466
 20
27.0269391781641097
 30
0.0
 11
62.975912629790038
 21
27.3178050402641013
 31
0.0
  0
LINE
  5
BA31
  8
0
 10
62.4963922653900426
 20
24.9514626606641094
 30
0.0
 11
62.4963922653900426
 21
24.9114626606640996
 31
0.0
  0
LINE
  5
BA32
  8
0
 10
62.8454916218900479
 20
25.7437116606641112
 30
0.0
 11
63.9873161868418521
 21
25.7437116883505794
 31
0.0
  0
LINE
  5
BA33
  8
0
 10
61.8710557352900423
 20
28.2826757605640999
 30
0.0
 11
61.8710557352900423
 21
27.9281160778641002
 31
0.0
  0
LINE
  5
BA34
  8
0
 10
63.846555735290039
 20
26.9924626711641089
 30
0.0
 11
62.9865557352900467
 21
26.9924626711641089
 31
0.0
  0
LINE
  5
BA35
  8
0
 10
62.9865557352900467
 20
27.0124626711641085
 30
0.0
 11
63.846555735290039
 21
27.0124626711641085
 31
0.0
  0
ARC
  5
BA36
  8
0
 10
63.9635557889881881
 20
25.7737116401591813
 30
0.0
 40
0.0299999523847888
 50
269.999897442193685
 51
13.1677599982933895
  0
ARC
  5
BA37
  8
0
 10
62.8695545096199879
 20
25.7737106891225487
 30
0.0
 40
0.0299990278999821
 50
166.8299614466369007
 51
270.0023409175688016
  0
ARC
  5
BA38
  8
0
 10
63.9863629439312689
 20
25.7225706145004196
 30
0.0
 40
0.0211625536168113
 50
12.8751935023845405
 51
87.4183039244126689
  0
ARC
  5
BA39
  8
0
 10
69.3296576847900354
 20
27.029128271764101
 30
0.0
 40
5.480999999999999
 50
180.6905250650999903
 51
193.1676985038999135
  0
ARC
  5
BA3A
  8
0
 10
63.8191116171434629
 20
26.9627325704686989
 30
0.0
 40
0.0299460556033526
 50
0.6517595536968074
 51
83.1148930059759437
  0
ARC
  5
BA3B
  8
0
 10
63.0139998534366299
 20
26.9627325704686989
 30
0.0
 40
0.0299460556033528
 50
96.88510699402282
 51
179.3482404463007072
  0
ARC
  5
BA3C
  8
0
 10
63.0010607518900514
 20
27.0274626711641091
 30
0.0
 40
0.0150000000000073
 50
182.0000021712029934
 51
270.000054039762972
  0
ARC
  5
BA3D
  8
0
 10
63.8320507229281375
 20
27.0274626666718589
 30
0.0
 40
0.0149999955077662
 50
269.9999293909585845
 51
358.0000143991628079
  0
ARC
  5
BA3E
  8
0
 10
57.5034537857900432
 20
27.029128271764101
 30
0.0
 40
5.480999999999999
 50
346.8323014961001149
 51
359.3094749348999244
  0
ARC
  5
BA3F
  8
0
 10
61.2094603807558784
 20
27.9280973273954203
 30
0.0
 40
0.6615953547998737
 50
342.6675731843258177
 51
0.0016238365515725
  0
ARC
  5
BA40
  8
0
 10
64.5189265350471857
 20
24.9265388586277901
 30
0.0
 40
0.0150764336981537
 50
270.3204058469050892
 51
12.3091557102455003
  0
LINE
  5
BA41
  8
0
 10
64.5336563844550568
 20
24.9297529509531799
 30
0.0
 11
64.5073704745789342
 21
25.0519595747748482
 31
0.0
  0
ARC
  5
BA42
  8
0
 10
62.404331932474939
 20
24.9414222903403306
 30
0.0
 40
0.0861623482803339
 50
339.6526029116363929
 51
6.6917951957740982
  0
ARC
  5
BA43
  8
0
 10
58.1233502033394132
 20
24.6004650035678303
 30
0.0
 40
4.3806415187980239
 50
4.5957344423247743
 51
6.9857164208321727
  0
ARC
  5
BA44
  8
0
 10
43.4305577843335016
 20
22.4405403604859401
 30
0.0
 40
19.2303688084009217
 50
8.0492152743045242
 51
11.3138773554739895
  0
ARC
  5
BA45
  8
0
 10
75.1270339261772619
 20
28.5812242949410091
 30
0.0
 40
13.0563428526922305
 50
186.9649822750523924
 51
190.4494396875616928
  0
ARC
  5
BA46
  8
0
 10
92.4029938045858188
 20
30.4301244973686913
 30
0.0
 40
30.4301245230285708
 50
183.6843724935486932
 51
186.4760466642750885
  0
ARC
  5
BA47
  8
0
 10
64.4595464230044541
 20
25.0404983663560792
 30
0.0
 40
0.0491782391654735
 50
13.4769680852684495
 51
67.9984314987851235
  0
ARC
  5
BA48
  8
0
 10
64.2473079142602614
 20
24.4655163161518416
 30
0.0
 40
0.662059770182824
 50
69.6104590761869275
 51
82.28749619269351
  0
ARC
  5
BA49
  8
0
 10
64.5515881363437387
 20
25.5557923752058791
 30
0.0
 40
0.4847106623034166
 50
197.075750955182798
 51
243.6117751626549079
  0
ARC
  5
BA4A
  8
0
 10
65.8043224352517058
 20
26.0252012111218782
 30
0.0
 40
1.8218520562921741
 50
189.4114519448141891
 51
199.6198343231185959
  0
ARC
  5
BA4B
  8
0
 10
49.8630221710908117
 20
-61.9510864092924578
 30
0.0
 40
88.2673332722939108
 50
80.5626338168300151
 51
80.8210723862755742
  0
ARC
  5
BA4C
  8
0
 10
64.9542703569549076
 20
31.9775581473623909
 30
0.0
 40
6.8664126525163391
 50
256.3561046103437775
 51
261.5330022466181958
  0
ARC
  5
BA4D
  8
0
 10
63.6720214724229905
 20
26.9830758609316703
 30
0.0
 40
1.71175490161133
 50
234.8461936297009061
 51
258.6305419013979758
  0
ARC
  5
BA4E
  8
0
 10
63.4075483416836434
 20
26.4328081281003691
 30
0.0
 40
1.11412484782983
 50
194.2160873533426013
 51
229.6659318679286912
  0
ARC
  5
BA4F
  8
0
 10
69.2241088223347134
 20
27.7620730935380386
 30
0.0
 40
7.0803835122559029
 50
185.1749955843253872
 51
193.084157140945905
  0
ARC
  5
BA50
  8
0
 10
90.6427823737821399
 20
30.2075120707189484
 30
0.0
 40
28.6367526562136909
 50
183.3713003236073007
 51
186.1825399695426029
  0
ARC
  5
BA51
  8
0
 10
62.038563890577862
 20
28.5246037973815696
 30
0.0
 40
0.0170607580726808
 50
356.2546207019345275
 51
25.4725567151881904
  0
ARC
  5
BA52
  8
0
 10
61.3260810403181296
 20
28.1523008053196691
 30
0.0
 40
0.8209407284703418
 50
27.5450331750989506
 51
56.9316326276663389
  0
ARC
  5
BA53
  8
0
 10
61.402284711948468
 20
28.2557783089845209
 30
0.0
 40
0.6926842934355645
 50
57.543640824145001
 51
78.4627222173887731
  0
ARC
  5
BA54
  8
0
 10
61.3746169312535201
 20
27.9142660031659418
 30
0.0
 40
1.0336512156912181
 50
80.7468175379946302
 51
87.6744846029439344
  0
ARC
  5
BA55
  8
0
 10
61.7941640866260471
 20
28.60124622783351
 30
0.0
 40
0.2727429292641479
 50
332.351499880226811
 51
343.4356395006341245
  0
ARC
  5
BA56
  8
0
 10
61.3865933781444184
 20
28.8649078067643003
 30
0.0
 40
0.7574284990106677
 50
309.7630902160175879
 51
328.9892032120196177
  0
ARC
  5
BA57
  8
0
 10
61.3272850335498205
 20
29.0714052267115086
 30
0.0
 40
0.9580087404821597
 50
292.4384678940249955
 51
304.5833943544270142
  0
ARC
  5
BA58
  8
0
 10
61.4571257029225109
 20
28.7888198649665306
 30
0.0
 40
0.6473729339831995
 50
276.997933602517719
 51
291.3630564553503746
  0
ARC
  5
BA59
  8
0
 10
61.4087619270006684
 20
29.3347261721723207
 30
0.0
 40
1.195248143556435
 50
270.3737725160135028
 51
276.1107788553895261
  0
ARC
  5
BA5A
  8
0
 10
61.499927110960428
 20
28.5026568414109285
 30
0.0
 40
0.4940058996188979
 50
318.7119092669057068
 51
339.7495142733462785
  0
ARC
  5
BA5B
  8
0
 10
61.939727529580388
 20
28.3417183816544984
 30
0.0
 40
0.0257151108345409
 50
336.9960225119525035
 51
13.2334465279866507
  0
ARC
  5
BA5C
  8
0
 10
61.9607520713215507
 20
28.3461471486663008
 30
0.0
 40
0.0042646569409215
 50
19.9902206585666384
 51
113.1031969167754028
  0
ARC
  5
BA5D
  8
0
 10
62.0445186362472612
 20
28.1940372914732791
 30
0.0
 40
0.1778935775945886
 50
118.7041460203264052
 51
134.7438391479340112
  0
ARC
  5
BA5E
  8
0
 10
61.4998940650245984
 20
28.8071225346724411
 30
0.0
 40
0.6424993419038478
 50
305.2878206524509892
 51
310.7500879631924136
  0
ARC
  5
BA5F
  8
0
 10
63.023292787818221
 20
27.3193845204943884
 30
0.0
 40
0.0474064777490699
 50
132.4837263003954888
 51
181.9093235121297027
  0
ARC
  5
BA60
  8
0
 10
64.58904467393738
 20
25.5245184331878683
 30
0.0
 40
2.42922482830719
 50
112.653207507035205
 51
131.1268302971749051
  0
ARC
  5
BA61
  8
0
 10
64.9593404276067048
 20
24.8043815262955611
 30
0.0
 40
3.2370656178386161
 50
95.303354246834644
 51
113.792555225172606
  0
ARC
  5
BA62
  8
0
 10
65.1640429713201854
 20
22.9259953833002896
 30
0.0
 40
5.1264203686325951
 50
90.4548539376885969
 51
95.6409907213933934
  0
ARC
  5
BA63
  8
0
 10
65.1190115477244404
 20
24.6239005995018587
 30
0.0
 40
3.4283563526218761
 50
81.7317520258712449
 51
89.9275563682241028
  0
ARC
  5
BA64
  8
0
 10
65.4361549179509865
 20
26.9356579939076113
 30
0.0
 40
1.0951785040330051
 50
66.6167842401110022
 51
80.7585214760195669
  0
ARC
  5
BA65
  8
0
 10
65.7812147388222712
 20
27.7189444074044715
 30
0.0
 40
0.2393471844030045
 50
33.314607099817799
 51
68.017420098295915
  0
ARC
  5
BA66
  8
0
 10
65.9392493125849626
 20
27.8285664503574317
 30
0.0
 40
0.0473195195809176
 50
359.9999999993848974
 51
27.4812955022156515
  0
ARC
  5
BA67
  8
0
 10
65.9392493125862842
 20
27.82856645035627
 30
0.0
 40
0.0473195195796046
 50
338.4232439803857915
 51
0.0000000007808389
  0
ARC
  5
BA68
  8
0
 10
65.5750058762685768
 20
28.0399935035649293
 30
0.0
 40
0.4680045298710493
 50
293.1604392605005955
 51
330.7287081549523009
  0
ARC
  5
BA69
  8
0
 10
65.0059404789214739
 20
29.2165572140777883
 30
0.0
 40
1.7745930454637491
 50
276.5823216507370148
 51
295.1126075908368875
  0
ARC
  5
BA6A
  8
0
 10
64.8295707274282051
 20
30.4957165812683115
 30
0.0
 40
3.065670992892406
 50
265.7846269906083876
 51
277.1164052541182059
  0
ARC
  5
BA6B
  8
0
 10
64.3511439208776039
 20
23.7587525830461708
 30
0.0
 40
3.6882795271449349
 50
86.0653880890864542
 51
92.1839533627855019
  0
ARC
  5
BA6C
  8
0
 10
64.217415103576073
 20
27.0511485128684797
 30
0.0
 40
0.3932637450088979
 50
90.9942509679547129
 51
122.8632007261597039
  0
ARC
  5
BA6D
  8
0
 10
64.189781909769053
 20
27.1055141185537103
 30
0.0
 40
0.3326630703252316
 50
123.9465583137316997
 51
161.8187360744717012
  0
ARC
  5
BA6E
  8
0
 10
64.3980524287750455
 20
27.0425018652580285
 30
0.0
 40
0.550220669399261
 50
162.3518120683970949
 51
179.0283063514328887
  0
ARC
  5
BA6F
  8
0
 10
62.9415213469459616
 20
28.4027131041464109
 30
0.0
 40
1.0854530240468749
 50
271.815652216874696
 51
300.3823469980900995
  0
ARC
  5
BA70
  8
0
 10
65.211375727784926
 20
24.935199002873599
 30
0.0
 40
3.0607166232409289
 50
117.1786105455390015
 51
124.2110694294647999
  0
ARC
  5
BA71
  8
0
 10
64.1770917078263636
 20
26.8099930799806607
 30
0.0
 40
0.9227030933375933
 50
89.0072135068681263
 51
113.2172574036862045
  0
ARC
  5
BA72
  8
0
 10
63.8740947553569498
 20
17.7349557949046286
 30
0.0
 40
10.0026893380103594
 50
85.1110933079762049
 51
88.1725367593482758
  0
ARC
  5
BA73
  8
0
 10
64.9597426128163136
 20
31.9158096255290111
 30
0.0
 40
4.2210017207348702
 50
266.8332281273454214
 51
275.3907626941380045
  0
ARC
  5
BA74
  8
0
 10
64.8388628807199581
 20
33.0950722730420566
 30
0.0
 40
5.4064134665501706
 50
275.4920343253357942
 51
282.2203940748088939
  0
ARC
  5
BA75
  8
0
 10
62.8456839572600927
 20
25.7234687047410695
 30
0.0
 40
0.0202438696250575
 50
90.5443707629415826
 51
166.168175426415786
  0
ARC
  5
BA76
  8
0
 10
62.6311692054097477
 20
25.7764983377675101
 30
0.0
 40
0.2007283572962918
 50
285.9825489315944083
 51
346.109029088476575
  0
LINE
  5
BA77
  8
0
 10
61.4165591459400417
 20
24.9114626606640996
 30
0.0
 11
54.185039388128061
 21
20.8563691262430986
 31
0.0
  0
ARC
  5
BA78
  8
0
 10
61.4161313420527506
 20
25.7279800342026412
 30
0.0
 40
2.0758491467572151
 50
89.9881921297544238
 51
93.6971401942675044
  0
ARC
  5
BA79
  8
0
 10
61.38046969959926
 20
26.2798727996758714
 30
0.0
 40
1.522805407687535
 50
93.6971401942675044
 51
96.7405174739498364
  0
ARC
  5
BA7A
  8
0
 10
61.329714079657343
 20
26.7093137605116802
 30
0.0
 40
1.09037544596047
 50
96.7405174739498364
 51
99.6104098551043649
  0
ARC
  5
BA7B
  8
0
 10
61.2605956401612914
 20
27.1175154678097385
 30
0.0
 40
0.6763633778761915
 50
99.6104098551039527
 51
102.7657920230992943
  0
ARC
  5
BA7C
  8
0
 10
61.1930233728114104
 20
27.4157600106159904
 30
0.0
 40
0.3705598157182039
 50
102.7657920230992943
 51
112.7991081029324931
  0
ARC
  5
BA7D
  8
0
 10
61.0725303558164896
 20
27.7024140618873496
 30
0.0
 40
0.0596110864157442
 50
112.7991081029324931
 51
138.2680258533681013
  0
ARC
  5
BA7E
  8
0
 10
61.0387860954656389
 20
27.7325128976829198
 30
0.0
 40
0.0143936669529367
 50
138.2680258533675044
 51
180.5984826855232086
  0
ARC
  5
BA7F
  8
0
 10
61.0394581596706871
 20
27.7325199179804507
 30
0.0
 40
0.0150657678235581
 50
180.5984826855236065
 51
218.6236569246773911
  0
LINE
  5
BA80
  8
0
 10
61.0494309861400595
 20
27.7573676854641107
 30
0.0
 11
61.0494750409160503
 21
27.7384532041088505
 31
0.0
  0
ARC
  5
BA81
  8
0
 10
61.0742746929201985
 20
27.7385109663648102
 30
0.0
 40
0.0247997192727209
 50
180.1334505620008031
 51
221.3500131045121861
  0
ARC
  5
BA82
  8
0
 10
61.1132711145618401
 20
27.7728305177466304
 30
0.0
 40
0.076747313133288
 50
221.3500131045121861
 51
246.1146535472987864
  0
ARC
  5
BA83
  8
0
 10
61.185878202452912
 20
27.9367909217180213
 30
0.0
 40
0.2560649176301147
 50
246.1146535472987864
 51
254.7401597247562961
  0
ARC
  5
BA84
  8
0
 10
61.2573372008398067
 20
28.1987222155370709
 30
0.0
 40
0.5275688607546691
 50
254.7401597247562961
 51
257.8085256036396231
  0
ARC
  5
BA85
  8
0
 10
61.2224588367541713
 20
27.4303557500408886
 30
0.0
 40
0.3650910467685991
 50
109.3268401016722038
 51
114.748417121506094
  0
ARC
  5
BA86
  8
0
 10
61.0904284210936765
 20
27.7167726726365089
 30
0.0
 40
0.0497076543576691
 50
114.748417121506094
 51
133.1691914061455861
  0
ARC
  5
BA87
  8
0
 10
61.0769946260639216
 20
27.7310936351018391
 30
0.0
 40
0.0300720536580496
 50
133.1691914061451882
 51
149.8165101107732937
  0
ARC
  5
BA88
  8
0
 10
61.0609327887734779
 20
27.7404356525683404
 30
0.0
 40
0.0114909905159824
 50
149.8165101107726969
 51
176.0862065515709105
  0
ARC
  5
BA89
  8
0
 10
61.4165651567445465
 20
25.9055017777873502
 30
0.0
 40
1.881826803389353
 50
90.0001830103226439
 51
91.2340775890241531
  0
ARC
  5
BA8A
  8
0
 10
61.4148252084516812
 20
25.9862716402014087
 30
0.0
 40
1.801038202123773
 50
91.2340775890241531
 51
93.0324459835185422
  0
ARC
  5
BA8B
  8
0
 10
61.4005241722186028
 20
26.2562265858836099
 30
0.0
 40
1.5307047185601961
 50
93.0324459835185422
 51
95.3463092111717856
  0
ARC
  5
BA8C
  8
0
 10
61.364300884390552
 20
26.6433000578870391
 30
0.0
 40
1.141940009115189
 50
95.3463092111717856
 51
98.5550832795597955
  0
ARC
  5
BA8D
  8
0
 10
61.2870263201495007
 20
27.1569775772058399
 30
0.0
 40
0.6224826459638255
 50
98.5550832795597955
 51
105.0053920136820977
  0
ARC
  5
BA8E
  8
0
 10
61.1695005875733528
 20
27.5954245320626512
 30
0.0
 40
0.1685575089194427
 50
105.0053920136820977
 51
120.8309265872847931
  0
ARC
  5
BA8F
  8
0
 10
61.096503196987058
 20
27.717728648934461
 30
0.0
 40
0.0261253635441708
 50
120.8309265872843952
 51
154.3414738141545968
  0
ARC
  5
BA90
  8
0
 10
61.083090765704938
 20
27.7241716630047605
 30
0.0
 40
0.0112456544338494
 50
154.3414738141547957
 51
224.4420720864887926
  0
ARC
  5
BA91
  8
0
 10
61.1283879853680432
 20
27.7685951832799702
 30
0.0
 40
0.0746908060441121
 50
224.4420720864887926
 51
253.0716070221851908
  0
ARC
  5
BA92
  8
0
 10
61.3693036823250893
 20
28.5601316896577408
 30
0.0
 40
0.9020785107926307
 50
253.0716070221851908
 51
256.610195359796478
  0
ARC
  5
BA93
  8
0
 10
61.2740332871388418
 20
28.1599125423378389
 30
0.0
 40
0.4906762574196061
 50
256.610195359796478
 51
262.6429166736002117
  0
ARC
  5
BA94
  8
0
 10
61.6081460716997071
 20
25.8030634854626086
 30
0.0
 40
2.0099879407928678
 50
100.7795771200233048
 51
103.0587671822264042
  0
ARC
  5
BA95
  8
0
 10
61.1824126239070409
 20
27.63852654055286
 30
0.0
 40
0.1257975058392567
 50
103.0587671822264042
 51
115.1335258484541981
  0
ARC
  5
BA96
  8
0
 10
61.1766610112042386
 20
27.65078623943214
 30
0.0
 40
0.1122556719422741
 50
115.1335258484540987
 51
125.3781806832333956
  0
ARC
  5
BA97
  8
0
 10
61.1222986769907379
 20
27.7273432012105303
 30
0.0
 40
0.0183608809372408
 50
125.3781806832333956
 51
158.2070755546945975
  0
ARC
  5
BA98
  8
0
 10
61.1150559557897282
 20
27.7302390455621115
 30
0.0
 40
0.0105606934456446
 50
158.2070755546943985
 51
214.5148905988845058
  0
ARC
  5
BA99
  8
0
 10
61.133199037559848
 20
27.7427153838898697
 30
0.0
 40
0.0325795588611403
 50
214.5148905988841932
 51
240.4889216075214904
  0
ARC
  5
BA9A
  8
0
 10
61.1908086121179906
 20
27.8444940399934389
 30
0.0
 40
0.1495315059121297
 50
240.4889216075214904
 51
256.6384370855408861
  0
ARC
  5
BA9B
  8
0
 10
61.3591670168173025
 20
28.5532975518140795
 30
0.0
 40
0.8780553358601791
 50
256.6384370855408861
 51
261.6064245602444203
  0
ARC
  5
BA9C
  8
0
 10
61.3506410133349007
 20
28.4955147363692483
 30
0.0
 40
0.8196468904424747
 50
261.6064245602444203
 51
267.3247440082706134
  0
ARC
  5
BA9D
  8
0
 10
61.470527851347768
 20
31.0612569755527197
 30
0.0
 40
3.3881885178760069
 50
267.3247440082706134
 51
269.0873265166766259
  0
ARC
  5
BA9E
  8
0
 10
61.1216026147847984
 20
27.7527226375579694
 30
0.0
 40
0.0404865210439789
 50
198.0737462588915037
 51
219.6353537244307006
  0
ARC
  5
BA9F
  8
0
 10
61.1359156845587393
 20
27.7645783222058711
 30
0.0
 40
0.0590720321971396
 50
219.6353537244307006
 51
239.6499445326207933
  0
ARC
  5
BAA0
  8
0
 10
61.1796680668405983
 20
27.8393016128608508
 30
0.0
 40
0.1456621073884954
 50
239.6499445326205091
 51
259.2783355696794843
  0
ARC
  5
BAA1
  8
0
 10
61.3027077657657316
 20
28.3068733721921397
 30
0.0
 40
0.6288759867658833
 50
256.1877619577617793
 51
262.457511695024607
  0
ARC
  5
BAA2
  8
0
 10
61.3796409918348118
 20
28.8541150537732882
 30
0.0
 40
1.1814895096561959
 50
262.2423948028850873
 51
265.8978709457027207
  0
ARC
  5
BAA3
  8
0
 10
61.414979939598588
 20
29.3411142122508011
 30
0.0
 40
1.669769042264595
 50
265.8837622752251946
 51
270.0541882557071176
  0
LINE
  5
BAA4
  8
0
 10
61.381570483748682
 20
27.6972311469640999
 30
0.0
 11
61.3492569921314512
 21
27.6972311469640999
 31
0.0
  0
LINE
  5
BAA5
  8
0
 10
61.3492569921314512
 20
27.6972311469640999
 30
0.0
 11
61.3425865230448082
 21
27.6950879695502117
 31
0.0
  0
LINE
  5
BAA6
  8
0
 10
61.3425865230448082
 20
27.6950879695502117
 30
0.0
 11
61.3514594921008012
 21
27.6922872951640997
 31
0.0
  0
LINE
  5
BAA7
  8
0
 10
61.3514594921008012
 20
27.6922872951640997
 30
0.0
 11
61.3798723991007975
 21
27.6922872951640997
 31
0.0
  0
LINE
  5
BAA8
  8
0
 10
61.3798723991007975
 20
27.6922872951640997
 30
0.0
 11
61.3887453682008086
 21
27.6950879695640992
 31
0.0
  0
LINE
  5
BAA9
  8
0
 10
61.3887453682008086
 20
27.6950879695640992
 30
0.0
 11
61.381570483748682
 21
27.6972311469640999
 31
0.0
  0
LINE
  5
BAAA
  8
0
 10
61.381570483748682
 20
27.7046469246641003
 30
0.0
 11
61.3492569921314512
 21
27.7046469246641003
 31
0.0
  0
LINE
  5
BAAB
  8
0
 10
61.3492569921314512
 20
27.7046469246641003
 30
0.0
 11
61.3425865230448082
 21
27.7025037472502191
 31
0.0
  0
LINE
  5
BAAC
  8
0
 10
61.3425865230448082
 20
27.7025037472502191
 30
0.0
 11
61.3514594921008012
 21
27.6997030728641001
 31
0.0
  0
LINE
  5
BAAD
  8
0
 10
61.3514594921008012
 20
27.6997030728641001
 30
0.0
 11
61.3798723991007975
 21
27.6997030728641001
 31
0.0
  0
LINE
  5
BAAE
  8
0
 10
61.3798723991007975
 20
27.6997030728641001
 30
0.0
 11
61.3887453682008086
 21
27.7025037472641102
 31
0.0
  0
LINE
  5
BAAF
  8
0
 10
61.3887453682008086
 20
27.7025037472641102
 30
0.0
 11
61.381570483748682
 21
27.7046469246641003
 31
0.0
  0
LINE
  5
BAB0
  8
0
 10
61.3813182760826379
 20
27.7154088646640986
 30
0.0
 11
61.3490047844654072
 21
27.7154088646640986
 31
0.0
  0
LINE
  5
BAB1
  8
0
 10
61.3490047844654072
 20
27.7154088646640986
 30
0.0
 11
61.3423343153787783
 21
27.7132656872502103
 31
0.0
  0
LINE
  5
BAB2
  8
0
 10
61.3423343153787783
 20
27.7132656872502103
 30
0.0
 11
61.3512072844347713
 21
27.7104650128640984
 31
0.0
  0
LINE
  5
BAB3
  8
0
 10
61.3512072844347713
 20
27.7104650128640984
 30
0.0
 11
61.3796201914347606
 21
27.7104650128640984
 31
0.0
  0
LINE
  5
BAB4
  8
0
 10
61.3796201914347606
 20
27.7104650128640984
 30
0.0
 11
61.3884931605347717
 21
27.7132656872641085
 31
0.0
  0
LINE
  5
BAB5
  8
0
 10
61.3884931605347717
 20
27.7132656872641085
 30
0.0
 11
61.3813182760826379
 21
27.7154088646640986
 31
0.0
  0
LINE
  5
BAB6
  8
0
 10
61.3813182760826379
 20
27.7261708046957907
 30
0.0
 11
61.3490047844654072
 21
27.7261708046957907
 31
0.0
  0
LINE
  5
BAB7
  8
0
 10
61.3490047844654072
 20
27.7261708046957907
 30
0.0
 11
61.3423343153787783
 21
27.7240276272818988
 31
0.0
  0
LINE
  5
BAB8
  8
0
 10
61.3423343153787783
 20
27.7240276272818988
 30
0.0
 11
61.3512072844347713
 21
27.7212269528957904
 31
0.0
  0
LINE
  5
BAB9
  8
0
 10
61.3512072844347713
 20
27.7212269528957904
 30
0.0
 11
61.3796201914347606
 21
27.7212269528957904
 31
0.0
  0
LINE
  5
BABA
  8
0
 10
61.3796201914347606
 20
27.7212269528957904
 30
0.0
 11
61.3884931605347717
 21
27.72402762729579
 31
0.0
  0
LINE
  5
BABB
  8
0
 10
61.3884931605347717
 20
27.72402762729579
 30
0.0
 11
61.3813182760826379
 21
27.7261708046957907
 31
0.0
  0
LINE
  5
BABC
  8
0
 10
61.3813182760927489
 20
27.7369327446980911
 30
0.0
 11
61.3490047844755182
 21
27.7369327446980911
 31
0.0
  0
LINE
  5
BABD
  8
0
 10
61.3490047844755182
 20
27.7369327446980911
 30
0.0
 11
61.3423343153888965
 21
27.7347895672841993
 31
0.0
  0
LINE
  5
BABE
  8
0
 10
61.3423343153888965
 20
27.7347895672841993
 30
0.0
 11
61.3512072844448895
 21
27.7319888928980909
 31
0.0
  0
LINE
  5
BABF
  8
0
 10
61.3512072844448895
 20
27.7319888928980909
 30
0.0
 11
61.3796201914448929
 21
27.7319888928980909
 31
0.0
  0
LINE
  5
BAC0
  8
0
 10
61.3796201914448929
 20
27.7319888928980909
 30
0.0
 11
61.3884931605448898
 21
27.7347895672980904
 31
0.0
  0
LINE
  5
BAC1
  8
0
 10
61.3884931605448898
 20
27.7347895672980904
 30
0.0
 11
61.3813182760927489
 21
27.7369327446980911
 31
0.0
  0
LINE
  5
BAC2
  8
0
 10
61.3813182760879172
 20
27.7476946847641095
 30
0.0
 11
61.3490047844706865
 21
27.7476946847641095
 31
0.0
  0
LINE
  5
BAC3
  8
0
 10
61.3490047844706865
 20
27.7476946847641095
 30
0.0
 11
61.3423343153840719
 21
27.7455515073502106
 31
0.0
  0
LINE
  5
BAC4
  8
0
 10
61.3423343153840719
 20
27.7455515073502106
 30
0.0
 11
61.3512072844400578
 21
27.7427508329640986
 31
0.0
  0
LINE
  5
BAC5
  8
0
 10
61.3512072844400578
 20
27.7427508329640986
 30
0.0
 11
61.3796201914400612
 21
27.7427508329640986
 31
0.0
  0
LINE
  5
BAC6
  8
0
 10
61.3796201914400612
 20
27.7427508329640986
 30
0.0
 11
61.3884931605400581
 21
27.7455515073641088
 31
0.0
  0
LINE
  5
BAC7
  8
0
 10
61.3884931605400581
 20
27.7455515073641088
 30
0.0
 11
61.3813182760879172
 21
27.7476946847641095
 31
0.0
  0
LINE
  5
BAC8
  8
0
 10
61.3813182760879172
 20
27.7584566247641007
 30
0.0
 11
61.3490047844706865
 21
27.7584566247641007
 31
0.0
  0
LINE
  5
BAC9
  8
0
 10
61.3490047844706865
 20
27.7584566247641007
 30
0.0
 11
61.3423343153840719
 21
27.7563134473502195
 31
0.0
  0
LINE
  5
BACA
  8
0
 10
61.3423343153840719
 20
27.7563134473502195
 30
0.0
 11
61.3512072844400578
 21
27.7535127729641005
 31
0.0
  0
LINE
  5
BACB
  8
0
 10
61.3512072844400578
 20
27.7535127729641005
 30
0.0
 11
61.379620191440047
 21
27.7535127729641005
 31
0.0
  0
LINE
  5
BACC
  8
0
 10
61.379620191440047
 20
27.7535127729641005
 30
0.0
 11
61.3884931605400581
 21
27.7563134473641107
 31
0.0
  0
LINE
  5
BACD
  8
0
 10
61.3884931605400581
 20
27.7563134473641107
 30
0.0
 11
61.3813182760879172
 21
27.7584566247641007
 31
0.0
  0
LINE
  5
BACE
  8
0
 10
61.381570483748682
 20
27.769218564764099
 30
0.0
 11
61.3492569921314512
 21
27.769218564764099
 31
0.0
  0
LINE
  5
BACF
  8
0
 10
61.3492569921314512
 20
27.769218564764099
 30
0.0
 11
61.3425865230448082
 21
27.7670753873502107
 31
0.0
  0
LINE
  5
BAD0
  8
0
 10
61.3425865230448082
 20
27.7670753873502107
 30
0.0
 11
61.3514594921008012
 21
27.7642747129640988
 31
0.0
  0
LINE
  5
BAD1
  8
0
 10
61.3514594921008012
 20
27.7642747129640988
 30
0.0
 11
61.3798723991007975
 21
27.7642747129640988
 31
0.0
  0
LINE
  5
BAD2
  8
0
 10
61.3798723991007975
 20
27.7642747129640988
 30
0.0
 11
61.3887453682008086
 21
27.7670753873640983
 31
0.0
  0
LINE
  5
BAD3
  8
0
 10
61.3887453682008086
 20
27.7670753873640983
 30
0.0
 11
61.381570483748682
 21
27.769218564764099
 31
0.0
  0
LINE
  5
BAD4
  8
0
 10
61.350104747452427
 20
27.7861465990352983
 30
0.0
 11
61.3512072844400578
 21
27.7857985929641096
 31
0.0
  0
LINE
  5
BAD5
  8
0
 10
61.3512072844400578
 20
27.7857985929641096
 30
0.0
 11
61.379620191440047
 21
27.7857985929641096
 31
0.0
  0
LINE
  5
BAD6
  8
0
 10
61.379620191440047
 20
27.7857985929641096
 30
0.0
 11
61.3835498127316299
 21
27.7870389432492217
 31
0.0
  0
LINE
  5
BAD7
  8
0
 10
61.3813182760879172
 20
27.7799805047641115
 30
0.0
 11
61.3490047844706865
 21
27.7799805047641115
 31
0.0
  0
LINE
  5
BAD8
  8
0
 10
61.3490047844706865
 20
27.7799805047641115
 30
0.0
 11
61.3423343153840719
 21
27.7778373273502091
 31
0.0
  0
LINE
  5
BAD9
  8
0
 10
61.3423343153840719
 20
27.7778373273502091
 30
0.0
 11
61.3512072844400578
 21
27.7750366529641113
 31
0.0
  0
LINE
  5
BADA
  8
0
 10
61.3512072844400578
 20
27.7750366529641113
 30
0.0
 11
61.379620191440047
 21
27.7750366529641113
 31
0.0
  0
LINE
  5
BADB
  8
0
 10
61.379620191440047
 20
27.7750366529641113
 30
0.0
 11
61.3884931605400581
 21
27.7778373273641002
 31
0.0
  0
LINE
  5
BADC
  8
0
 10
61.3884931605400581
 20
27.7778373273641002
 30
0.0
 11
61.3813182760879172
 21
27.7799805047641115
 31
0.0
  0
LINE
  5
BADD
  8
0
 10
61.3304272512486719
 20
27.6992659546640994
 30
0.0
 11
61.2981137596314412
 21
27.6992659546640994
 31
0.0
  0
LINE
  5
BADE
  8
0
 10
61.2981137596314412
 20
27.6992659546640994
 30
0.0
 11
61.2914432905448194
 21
27.6971227772502111
 31
0.0
  0
LINE
  5
BADF
  8
0
 10
61.2914432905448194
 20
27.6971227772502111
 30
0.0
 11
61.3003162596007982
 21
27.6943221028641098
 31
0.0
  0
LINE
  5
BAE0
  8
0
 10
61.3003162596007982
 20
27.6943221028641098
 30
0.0
 11
61.3287291666008088
 21
27.6943221028641098
 31
0.0
  0
LINE
  5
BAE1
  8
0
 10
61.3287291666008088
 20
27.6943221028641098
 30
0.0
 11
61.3376021357008128
 21
27.6971227772640987
 31
0.0
  0
LINE
  5
BAE2
  8
0
 10
61.3376021357008128
 20
27.6971227772640987
 30
0.0
 11
61.3304272512486719
 21
27.6992659546640994
 31
0.0
  0
LINE
  5
BAE3
  8
0
 10
61.330175043582642
 20
27.7100278946641083
 30
0.0
 11
61.2978615519654113
 21
27.7100278946641012
 31
0.0
  0
LINE
  5
BAE4
  8
0
 10
61.2978615519654113
 20
27.7100278946641012
 30
0.0
 11
61.2911910828787825
 21
27.7078847172502094
 31
0.0
  0
LINE
  5
BAE5
  8
0
 10
61.2911910828787825
 20
27.7078847172502094
 30
0.0
 11
61.3000640519347613
 21
27.705084042864101
 31
0.0
  0
LINE
  5
BAE6
  8
0
 10
61.3000640519347613
 20
27.705084042864101
 30
0.0
 11
61.3284769589347718
 21
27.705084042864101
 31
0.0
  0
LINE
  5
BAE7
  8
0
 10
61.3284769589347718
 20
27.705084042864101
 30
0.0
 11
61.3373499280347687
 21
27.7078847172641005
 31
0.0
  0
LINE
  5
BAE8
  8
0
 10
61.3373499280347687
 20
27.7078847172641005
 30
0.0
 11
61.330175043582642
 21
27.7100278946641012
 31
0.0
  0
LINE
  5
BAE9
  8
0
 10
61.330175043582642
 20
27.7207898346957897
 30
0.0
 11
61.2978615519654113
 21
27.7207898346957897
 31
0.0
  0
LINE
  5
BAEA
  8
0
 10
61.2978615519654113
 20
27.7207898346957897
 30
0.0
 11
61.2911910828787825
 21
27.7186466572819015
 31
0.0
  0
LINE
  5
BAEB
  8
0
 10
61.2911910828787825
 20
27.7186466572819015
 30
0.0
 11
61.3000640519347613
 21
27.7158459828957895
 31
0.0
  0
LINE
  5
BAEC
  8
0
 10
61.3000640519347613
 20
27.7158459828957895
 30
0.0
 11
61.3284769589347718
 21
27.7158459828957895
 31
0.0
  0
LINE
  5
BAED
  8
0
 10
61.3284769589347718
 20
27.7158459828957895
 30
0.0
 11
61.3373499280347687
 21
27.718646657295789
 31
0.0
  0
LINE
  5
BAEE
  8
0
 10
61.3373499280347687
 20
27.718646657295789
 30
0.0
 11
61.330175043582642
 21
27.7207898346957897
 31
0.0
  0
LINE
  5
BAEF
  8
0
 10
61.3301750435927602
 20
27.7315517746980902
 30
0.0
 11
61.2978615519755294
 21
27.7315517746980902
 31
0.0
  0
LINE
  5
BAF0
  8
0
 10
61.2978615519755294
 20
27.7315517746980902
 30
0.0
 11
61.2911910828889006
 21
27.7294085972841984
 31
0.0
  0
LINE
  5
BAF1
  8
0
 10
61.2911910828889006
 20
27.7294085972841984
 30
0.0
 11
61.3000640519448865
 21
27.72660792289809
 31
0.0
  0
LINE
  5
BAF2
  8
0
 10
61.3000640519448865
 20
27.72660792289809
 30
0.0
 11
61.3284769589448899
 21
27.72660792289809
 31
0.0
  0
LINE
  5
BAF3
  8
0
 10
61.3284769589448899
 20
27.72660792289809
 30
0.0
 11
61.3373499280448797
 21
27.7294085972980895
 31
0.0
  0
LINE
  5
BAF4
  8
0
 10
61.3373499280448797
 20
27.7294085972980895
 30
0.0
 11
61.3301750435927602
 21
27.7315517746980902
 31
0.0
  0
LINE
  5
BAF5
  8
0
 10
61.3301750435879214
 20
27.7423137147641086
 30
0.0
 11
61.2978615519706906
 21
27.7423137147641086
 31
0.0
  0
LINE
  5
BAF6
  8
0
 10
61.2978615519706906
 20
27.7423137147641086
 30
0.0
 11
61.2911910828840618
 21
27.7401705373502097
 31
0.0
  0
LINE
  5
BAF7
  8
0
 10
61.2911910828840618
 20
27.7401705373502097
 30
0.0
 11
61.3000640519400619
 21
27.7373698629641083
 31
0.0
  0
LINE
  5
BAF8
  8
0
 10
61.3000640519400619
 20
27.7373698629641083
 30
0.0
 11
61.3284769589400582
 21
27.7373698629641083
 31
0.0
  0
LINE
  5
BAF9
  8
0
 10
61.3284769589400582
 20
27.7373698629641083
 30
0.0
 11
61.337349928040048
 21
27.7401705373641114
 31
0.0
  0
LINE
  5
BAFA
  8
0
 10
61.337349928040048
 20
27.7401705373641114
 30
0.0
 11
61.3301750435879214
 21
27.7423137147641086
 31
0.0
  0
LINE
  5
BAFB
  8
0
 10
61.3301750435879214
 20
27.7530756547640998
 30
0.0
 11
61.2978615519706906
 21
27.7530756547640998
 31
0.0
  0
LINE
  5
BAFC
  8
0
 10
61.2978615519706906
 20
27.7530756547640998
 30
0.0
 11
61.2911910828840618
 21
27.7509324773502115
 31
0.0
  0
LINE
  5
BAFD
  8
0
 10
61.2911910828840618
 20
27.7509324773502115
 30
0.0
 11
61.3000640519400619
 21
27.7481318029641102
 31
0.0
  0
LINE
  5
BAFE
  8
0
 10
61.3000640519400619
 20
27.7481318029641102
 30
0.0
 11
61.3284769589400582
 21
27.7481318029641102
 31
0.0
  0
LINE
  5
BAFF
  8
0
 10
61.3284769589400582
 20
27.7481318029641102
 30
0.0
 11
61.337349928040048
 21
27.7509324773640991
 31
0.0
  0
LINE
  5
BB00
  8
0
 10
61.337349928040048
 20
27.7509324773640991
 30
0.0
 11
61.3301750435879214
 21
27.7530756547640998
 31
0.0
  0
LINE
  5
BB01
  8
0
 10
61.3304272512486719
 20
27.7638375947641087
 30
0.0
 11
61.2981137596314412
 21
27.7638375947641016
 31
0.0
  0
LINE
  5
BB02
  8
0
 10
61.2981137596314412
 20
27.7638375947641016
 30
0.0
 11
61.2914432905448194
 21
27.7616944173502098
 31
0.0
  0
LINE
  5
BB03
  8
0
 10
61.2914432905448194
 20
27.7616944173502098
 30
0.0
 11
61.3003162596007982
 21
27.7588937429641085
 31
0.0
  0
LINE
  5
BB04
  8
0
 10
61.3003162596007982
 20
27.7588937429641085
 30
0.0
 11
61.3287291666008088
 21
27.7588937429641085
 31
0.0
  0
LINE
  5
BB05
  8
0
 10
61.3287291666008088
 20
27.7588937429641085
 30
0.0
 11
61.3376021357008128
 21
27.7616944173641009
 31
0.0
  0
LINE
  5
BB06
  8
0
 10
61.3376021357008128
 20
27.7616944173641009
 30
0.0
 11
61.3304272512486719
 21
27.7638375947641016
 31
0.0
  0
LINE
  5
BB07
  8
0
 10
61.2916990694115
 20
27.7830579558853792
 30
0.0
 11
61.3000640519400619
 21
27.7804176229641016
 31
0.0
  0
LINE
  5
BB08
  8
0
 10
61.3000640519400619
 20
27.7804176229641016
 30
0.0
 11
61.3284769589400582
 21
27.7804176229641016
 31
0.0
  0
LINE
  5
BB09
  8
0
 10
61.3284769589400582
 20
27.7804176229641016
 30
0.0
 11
61.337349928040048
 21
27.7832182973641117
 31
0.0
  0
LINE
  5
BB0A
  8
0
 10
61.337349928040048
 20
27.7832182973641117
 30
0.0
 11
61.330296653008169
 21
27.7853251493622402
 31
0.0
  0
LINE
  5
BB0B
  8
0
 10
61.3301750435879214
 20
27.7745995347641106
 30
0.0
 11
61.2978615519706906
 21
27.7745995347641106
 31
0.0
  0
LINE
  5
BB0C
  8
0
 10
61.2978615519706906
 20
27.7745995347641106
 30
0.0
 11
61.2911910828840618
 21
27.7724563573502117
 31
0.0
  0
LINE
  5
BB0D
  8
0
 10
61.2911910828840618
 20
27.7724563573502117
 30
0.0
 11
61.3000640519400619
 21
27.7696556829640997
 31
0.0
  0
LINE
  5
BB0E
  8
0
 10
61.3000640519400619
 20
27.7696556829640997
 30
0.0
 11
61.3284769589400582
 21
27.7696556829640997
 31
0.0
  0
LINE
  5
BB0F
  8
0
 10
61.3284769589400582
 20
27.7696556829640997
 30
0.0
 11
61.337349928040048
 21
27.7724563573640992
 31
0.0
  0
LINE
  5
BB10
  8
0
 10
61.337349928040048
 20
27.7724563573640992
 30
0.0
 11
61.3301750435879214
 21
27.7745995347641106
 31
0.0
  0
LINE
  5
BB11
  8
0
 10
61.2790318110326311
 20
27.7046469246641003
 30
0.0
 11
61.2467183194154003
 21
27.7046469246641003
 31
0.0
  0
LINE
  5
BB12
  8
0
 10
61.2467183194154003
 20
27.7046469246641003
 30
0.0
 11
61.2400478503287786
 21
27.7025037472502191
 31
0.0
  0
LINE
  5
BB13
  8
0
 10
61.2400478503287786
 20
27.7025037472502191
 30
0.0
 11
61.2489208193847716
 21
27.6997030728641001
 31
0.0
  0
LINE
  5
BB14
  8
0
 10
61.2489208193847716
 20
27.6997030728641001
 30
0.0
 11
61.2773337263847679
 21
27.6997030728641001
 31
0.0
  0
LINE
  5
BB15
  8
0
 10
61.2773337263847679
 20
27.6997030728641001
 30
0.0
 11
61.286206695484772
 21
27.7025037472641102
 31
0.0
  0
LINE
  5
BB16
  8
0
 10
61.286206695484772
 20
27.7025037472641102
 30
0.0
 11
61.2790318110326311
 21
27.7046469246641003
 31
0.0
  0
LINE
  5
BB17
  8
0
 10
61.2790318110326311
 20
27.7154088646957888
 30
0.0
 11
61.2467183194154003
 21
27.7154088646957888
 31
0.0
  0
LINE
  5
BB18
  8
0
 10
61.2467183194154003
 20
27.7154088646957888
 30
0.0
 11
61.2400478503287786
 21
27.7132656872819005
 31
0.0
  0
LINE
  5
BB19
  8
0
 10
61.2400478503287786
 20
27.7132656872819005
 30
0.0
 11
61.2489208193847716
 21
27.7104650128957886
 31
0.0
  0
LINE
  5
BB1A
  8
0
 10
61.2489208193847716
 20
27.7104650128957886
 30
0.0
 11
61.2773337263847679
 21
27.7104650128957886
 31
0.0
  0
LINE
  5
BB1B
  8
0
 10
61.2773337263847679
 20
27.7104650128957886
 30
0.0
 11
61.286206695484772
 21
27.7132656872957917
 31
0.0
  0
LINE
  5
BB1C
  8
0
 10
61.286206695484772
 20
27.7132656872957917
 30
0.0
 11
61.2790318110326311
 21
27.7154088646957888
 31
0.0
  0
LINE
  5
BB1D
  8
0
 10
61.2790318110427634
 20
27.7261708046980893
 30
0.0
 11
61.2467183194255327
 21
27.7261708046980893
 31
0.0
  0
LINE
  5
BB1E
  8
0
 10
61.2467183194255327
 20
27.7261708046980893
 30
0.0
 11
61.2400478503388968
 21
27.724027627284201
 31
0.0
  0
LINE
  5
BB1F
  8
0
 10
61.2400478503388968
 20
27.724027627284201
 30
0.0
 11
61.2489208193948826
 21
27.721226952898089
 31
0.0
  0
LINE
  5
BB20
  8
0
 10
61.2489208193948826
 20
27.721226952898089
 30
0.0
 11
61.2773337263949003
 21
27.721226952898089
 31
0.0
  0
LINE
  5
BB21
  8
0
 10
61.2773337263949003
 20
27.721226952898089
 30
0.0
 11
61.2862066954948901
 21
27.7240276272980886
 31
0.0
  0
LINE
  5
BB22
  8
0
 10
61.2862066954948901
 20
27.7240276272980886
 30
0.0
 11
61.2790318110427634
 21
27.7261708046980893
 31
0.0
  0
LINE
  5
BB23
  8
0
 10
61.2790318110379317
 20
27.7369327447641112
 30
0.0
 11
61.246718319420701
 21
27.7369327447641112
 31
0.0
  0
LINE
  5
BB24
  8
0
 10
61.246718319420701
 20
27.7369327447641112
 30
0.0
 11
61.2400478503340722
 21
27.7347895673502087
 31
0.0
  0
LINE
  5
BB25
  8
0
 10
61.2400478503340722
 20
27.7347895673502087
 30
0.0
 11
61.248920819390051
 21
27.731988892964111
 31
0.0
  0
LINE
  5
BB26
  8
0
 10
61.248920819390051
 20
27.731988892964111
 30
0.0
 11
61.2773337263900473
 21
27.731988892964111
 31
0.0
  0
LINE
  5
BB27
  8
0
 10
61.2773337263900473
 20
27.731988892964111
 30
0.0
 11
61.2862066954900584
 21
27.7347895673640998
 31
0.0
  0
LINE
  5
BB28
  8
0
 10
61.2862066954900584
 20
27.7347895673640998
 30
0.0
 11
61.2790318110379317
 21
27.7369327447641112
 31
0.0
  0
LINE
  5
BB29
  8
0
 10
61.2790318110379317
 20
27.7476946847641095
 30
0.0
 11
61.246718319420701
 21
27.7476946847641095
 31
0.0
  0
LINE
  5
BB2A
  8
0
 10
61.246718319420701
 20
27.7476946847641095
 30
0.0
 11
61.2400478503340722
 21
27.7455515073502106
 31
0.0
  0
LINE
  5
BB2B
  8
0
 10
61.2400478503340722
 20
27.7455515073502106
 30
0.0
 11
61.248920819390051
 21
27.7427508329640986
 31
0.0
  0
LINE
  5
BB2C
  8
0
 10
61.248920819390051
 20
27.7427508329640986
 30
0.0
 11
61.2773337263900473
 21
27.7427508329640986
 31
0.0
  0
LINE
  5
BB2D
  8
0
 10
61.2773337263900473
 20
27.7427508329640986
 30
0.0
 11
61.2862066954900584
 21
27.7455515073641088
 31
0.0
  0
LINE
  5
BB2E
  8
0
 10
61.2862066954900584
 20
27.7455515073641088
 30
0.0
 11
61.2790318110379317
 21
27.7476946847641095
 31
0.0
  0
LINE
  5
BB2F
  8
0
 10
61.279284018698668
 20
27.7584566247641007
 30
0.0
 11
61.2469705270814373
 21
27.7584566247641007
 31
0.0
  0
LINE
  5
BB30
  8
0
 10
61.2469705270814373
 20
27.7584566247641007
 30
0.0
 11
61.2403000579948227
 21
27.7563134473502195
 31
0.0
  0
LINE
  5
BB31
  8
0
 10
61.2403000579948227
 20
27.7563134473502195
 30
0.0
 11
61.2491730270508086
 21
27.7535127729641005
 31
0.0
  0
LINE
  5
BB32
  8
0
 10
61.2491730270508086
 20
27.7535127729641005
 30
0.0
 11
61.2775859340507978
 21
27.7535127729641005
 31
0.0
  0
LINE
  5
BB33
  8
0
 10
61.2775859340507978
 20
27.7535127729641005
 30
0.0
 11
61.2864589031508018
 21
27.7563134473641107
 31
0.0
  0
LINE
  5
BB34
  8
0
 10
61.2864589031508018
 20
27.7563134473641107
 30
0.0
 11
61.279284018698668
 21
27.7584566247641007
 31
0.0
  0
LINE
  5
BB35
  8
0
 10
61.2790318110379317
 20
27.7799805047641115
 30
0.0
 11
61.2548269326698502
 21
27.7799805047641115
 31
0.0
  0
LINE
  5
BB36
  8
0
 10
61.2429694738978867
 20
27.7787760255965495
 30
0.0
 11
61.2400478503340722
 21
27.7778373273502091
 31
0.0
  0
LINE
  5
BB37
  8
0
 10
61.2400478503340722
 20
27.7778373273502091
 30
0.0
 11
61.248920819390051
 21
27.7750366529641113
 31
0.0
  0
LINE
  5
BB38
  8
0
 10
61.248920819390051
 20
27.7750366529641113
 30
0.0
 11
61.2773337263900473
 21
27.7750366529641113
 31
0.0
  0
LINE
  5
BB39
  8
0
 10
61.2773337263900473
 20
27.7750366529641113
 30
0.0
 11
61.2862066954900584
 21
27.7778373273641002
 31
0.0
  0
LINE
  5
BB3A
  8
0
 10
61.2862066954900584
 20
27.7778373273641002
 30
0.0
 11
61.2790318110379317
 21
27.7799805047641115
 31
0.0
  0
LINE
  5
BB3B
  8
0
 10
61.2790318110379317
 20
27.769218564764099
 30
0.0
 11
61.246718319420701
 21
27.769218564764099
 31
0.0
  0
LINE
  5
BB3C
  8
0
 10
61.246718319420701
 20
27.769218564764099
 30
0.0
 11
61.2400478503340722
 21
27.7670753873502107
 31
0.0
  0
LINE
  5
BB3D
  8
0
 10
61.2400478503340722
 20
27.7670753873502107
 30
0.0
 11
61.248920819390051
 21
27.7642747129640988
 31
0.0
  0
LINE
  5
BB3E
  8
0
 10
61.248920819390051
 20
27.7642747129640988
 30
0.0
 11
61.2773337263900473
 21
27.7642747129640988
 31
0.0
  0
LINE
  5
BB3F
  8
0
 10
61.2773337263900473
 20
27.7642747129640988
 30
0.0
 11
61.2862066954900584
 21
27.767075387364109
 31
0.0
  0
LINE
  5
BB40
  8
0
 10
61.2862066954900584
 20
27.767075387364109
 30
0.0
 11
61.2790318110379317
 21
27.769218564764099
 31
0.0
  0
LINE
  5
BB41
  8
0
 10
61.2278885785326281
 20
27.7100278947957896
 30
0.0
 11
61.1955750869153974
 21
27.7100278947957896
 31
0.0
  0
LINE
  5
BB42
  8
0
 10
61.1955750869153974
 20
27.7100278947957896
 30
0.0
 11
61.1889046178287828
 21
27.7078847173819014
 31
0.0
  0
LINE
  5
BB43
  8
0
 10
61.1889046178287828
 20
27.7078847173819014
 30
0.0
 11
61.1977775868847687
 21
27.7050840429957894
 31
0.0
  0
LINE
  5
BB44
  8
0
 10
61.1977775868847687
 20
27.7050840429957894
 30
0.0
 11
61.2261904938847721
 21
27.7050840429957894
 31
0.0
  0
LINE
  5
BB45
  8
0
 10
61.2261904938847721
 20
27.7050840429957894
 30
0.0
 11
61.2350634629847619
 21
27.707884717395789
 31
0.0
  0
LINE
  5
BB46
  8
0
 10
61.2350634629847619
 20
27.707884717395789
 30
0.0
 11
61.2278885785326281
 21
27.7100278947957896
 31
0.0
  0
LINE
  5
BB47
  8
0
 10
61.2278885785427605
 20
27.7207898347980901
 30
0.0
 11
61.1955750869255297
 21
27.7207898347980901
 31
0.0
  0
LINE
  5
BB48
  8
0
 10
61.1955750869255297
 20
27.7207898347980901
 30
0.0
 11
61.1889046178389009
 21
27.7186466573841983
 31
0.0
  0
LINE
  5
BB49
  8
0
 10
61.1889046178389009
 20
27.7186466573841983
 30
0.0
 11
61.1977775868948868
 21
27.7158459829980899
 31
0.0
  0
LINE
  5
BB4A
  8
0
 10
61.1977775868948868
 20
27.7158459829980899
 30
0.0
 11
61.2261904938948902
 21
27.7158459829980899
 31
0.0
  0
LINE
  5
BB4B
  8
0
 10
61.2261904938948902
 20
27.7158459829980899
 30
0.0
 11
61.2350634629948871
 21
27.7186466573980894
 31
0.0
  0
LINE
  5
BB4C
  8
0
 10
61.2350634629948871
 20
27.7186466573980894
 30
0.0
 11
61.2278885785427605
 21
27.7207898347980901
 31
0.0
  0
LINE
  5
BB4D
  8
0
 10
61.2278885785379217
 20
27.7315517748641014
 30
0.0
 11
61.1955750869206909
 21
27.7315517748641014
 31
0.0
  0
LINE
  5
BB4E
  8
0
 10
61.1955750869206909
 20
27.7315517748641014
 30
0.0
 11
61.1889046178340692
 21
27.7294085974502202
 31
0.0
  0
LINE
  5
BB4F
  8
0
 10
61.1889046178340692
 20
27.7294085974502202
 30
0.0
 11
61.197777586890048
 21
27.7266079230641083
 31
0.0
  0
LINE
  5
BB50
  8
0
 10
61.197777586890048
 20
27.7266079230641083
 30
0.0
 11
61.2261904938900585
 21
27.7266079230641083
 31
0.0
  0
LINE
  5
BB51
  8
0
 10
61.2261904938900585
 20
27.7266079230641083
 30
0.0
 11
61.2350634629900625
 21
27.7294085974641114
 31
0.0
  0
LINE
  5
BB52
  8
0
 10
61.2350634629900625
 20
27.7294085974641114
 30
0.0
 11
61.2278885785379217
 21
27.7315517748641014
 31
0.0
  0
LINE
  5
BB53
  8
0
 10
61.2278885785379217
 20
27.7423137148640997
 30
0.0
 11
61.1955750869206909
 21
27.7423137148640997
 31
0.0
  0
LINE
  5
BB54
  8
0
 10
61.1955750869206909
 20
27.7423137148640997
 30
0.0
 11
61.1889046178340692
 21
27.7401705374502114
 31
0.0
  0
LINE
  5
BB55
  8
0
 10
61.1889046178340692
 20
27.7401705374502114
 30
0.0
 11
61.197777586890048
 21
27.7373698630640995
 31
0.0
  0
LINE
  5
BB56
  8
0
 10
61.197777586890048
 20
27.7373698630640995
 30
0.0
 11
61.2261904938900585
 21
27.7373698630640995
 31
0.0
  0
LINE
  5
BB57
  8
0
 10
61.2261904938900585
 20
27.7373698630640995
 30
0.0
 11
61.2350634629900625
 21
27.7401705374641097
 31
0.0
  0
LINE
  5
BB58
  8
0
 10
61.2350634629900625
 20
27.7401705374641097
 30
0.0
 11
61.2278885785379217
 21
27.7423137148640997
 31
0.0
  0
LINE
  5
BB59
  8
0
 10
61.2281407861986722
 20
27.7530756548641087
 30
0.0
 11
61.1958272945814414
 21
27.7530756548641016
 31
0.0
  0
LINE
  5
BB5A
  8
0
 10
61.1958272945814414
 20
27.7530756548641016
 30
0.0
 11
61.1891568254948197
 21
27.7509324774502097
 31
0.0
  0
LINE
  5
BB5B
  8
0
 10
61.1891568254948197
 20
27.7509324774502097
 30
0.0
 11
61.1980297945507985
 21
27.7481318030641084
 31
0.0
  0
LINE
  5
BB5C
  8
0
 10
61.1980297945507985
 20
27.7481318030641084
 30
0.0
 11
61.226442701550809
 21
27.7481318030641084
 31
0.0
  0
LINE
  5
BB5D
  8
0
 10
61.226442701550809
 20
27.7481318030641084
 30
0.0
 11
61.2353156706507988
 21
27.7509324774641009
 31
0.0
  0
LINE
  5
BB5E
  8
0
 10
61.2353156706507988
 20
27.7509324774641009
 30
0.0
 11
61.2281407861986722
 21
27.7530756548641016
 31
0.0
  0
LINE
  5
BB5F
  8
0
 10
61.2278885785379217
 20
27.7745995348641017
 30
0.0
 11
61.2168697907381514
 21
27.7745995348641017
 31
0.0
  0
LINE
  5
BB60
  8
0
 10
61.1957603923265765
 20
27.770292392728031
 30
0.0
 11
61.197777586890048
 21
27.7696556830641015
 31
0.0
  0
LINE
  5
BB61
  8
0
 10
61.197777586890048
 20
27.7696556830641015
 30
0.0
 11
61.2261904938900585
 21
27.7696556830641015
 31
0.0
  0
LINE
  5
BB62
  8
0
 10
61.2261904938900585
 20
27.7696556830641015
 30
0.0
 11
61.2350634629900625
 21
27.7724563574641117
 31
0.0
  0
LINE
  5
BB63
  8
0
 10
61.2350634629900625
 20
27.7724563574641117
 30
0.0
 11
61.2278885785379217
 21
27.7745995348641017
 31
0.0
  0
LINE
  5
BB64
  8
0
 10
61.2278885785379217
 20
27.7638375948641105
 30
0.0
 11
61.1955750869206909
 21
27.7638375948641105
 31
0.0
  0
LINE
  5
BB65
  8
0
 10
61.1955750869206909
 20
27.7638375948641105
 30
0.0
 11
61.1889046178340692
 21
27.7616944174502116
 31
0.0
  0
LINE
  5
BB66
  8
0
 10
61.1889046178340692
 20
27.7616944174502116
 30
0.0
 11
61.197777586890048
 21
27.7588937430641103
 31
0.0
  0
LINE
  5
BB67
  8
0
 10
61.197777586890048
 20
27.7588937430641103
 30
0.0
 11
61.2261904938900585
 21
27.7588937430641103
 31
0.0
  0
LINE
  5
BB68
  8
0
 10
61.2261904938900585
 20
27.7588937430641103
 30
0.0
 11
61.2350634629900625
 21
27.7616944174640992
 31
0.0
  0
LINE
  5
BB69
  8
0
 10
61.2350634629900625
 20
27.7616944174640992
 30
0.0
 11
61.2278885785379217
 21
27.7638375948641105
 31
0.0
  0
LINE
  5
BB6A
  8
0
 10
61.1767453460427575
 20
27.7154088647980892
 30
0.0
 11
61.1444318544255268
 21
27.7154088647980892
 31
0.0
  0
LINE
  5
BB6B
  8
0
 10
61.1444318544255268
 20
27.7154088647980892
 30
0.0
 11
61.1377613853388979
 21
27.7132656873842009
 31
0.0
  0
LINE
  5
BB6C
  8
0
 10
61.1377613853388979
 20
27.7132656873842009
 30
0.0
 11
61.1466343543948909
 21
27.710465012998089
 31
0.0
  0
LINE
  5
BB6D
  8
0
 10
61.1466343543948909
 20
27.710465012998089
 30
0.0
 11
61.1750472613948872
 21
27.710465012998089
 31
0.0
  0
LINE
  5
BB6E
  8
0
 10
61.1750472613948872
 20
27.710465012998089
 30
0.0
 11
61.1839202304948913
 21
27.7132656873980885
 31
0.0
  0
LINE
  5
BB6F
  8
0
 10
61.1839202304948913
 20
27.7132656873980885
 30
0.0
 11
61.1767453460427575
 21
27.7154088647980892
 31
0.0
  0
LINE
  5
BB70
  8
0
 10
61.1767453460379329
 20
27.7261708048641111
 30
0.0
 11
61.1444318544207022
 21
27.7261708048641111
 31
0.0
  0
LINE
  5
BB71
  8
0
 10
61.1444318544207022
 20
27.7261708048641111
 30
0.0
 11
61.1377613853340591
 21
27.7240276274502087
 31
0.0
  0
LINE
  5
BB72
  8
0
 10
61.1377613853340591
 20
27.7240276274502087
 30
0.0
 11
61.1466343543900521
 21
27.7212269530641109
 31
0.0
  0
LINE
  5
BB73
  8
0
 10
61.1466343543900521
 20
27.7212269530641109
 30
0.0
 11
61.1750472613900627
 21
27.7212269530641109
 31
0.0
  0
LINE
  5
BB74
  8
0
 10
61.1750472613900627
 20
27.7212269530641109
 30
0.0
 11
61.1839202304900596
 21
27.7240276274640998
 31
0.0
  0
LINE
  5
BB75
  8
0
 10
61.1839202304900596
 20
27.7240276274640998
 30
0.0
 11
61.1767453460379329
 21
27.7261708048641111
 31
0.0
  0
LINE
  5
BB76
  8
0
 10
61.1767453460379329
 20
27.7369327448640988
 30
0.0
 11
61.1444318544207022
 21
27.7369327448640988
 31
0.0
  0
LINE
  5
BB77
  8
0
 10
61.1444318544207022
 20
27.7369327448640988
 30
0.0
 11
61.1377613853340591
 21
27.7347895674502105
 31
0.0
  0
LINE
  5
BB78
  8
0
 10
61.1377613853340591
 20
27.7347895674502105
 30
0.0
 11
61.1466343543900521
 21
27.7319888930641092
 31
0.0
  0
LINE
  5
BB79
  8
0
 10
61.1466343543900521
 20
27.7319888930641092
 30
0.0
 11
61.1750472613900627
 21
27.7319888930641092
 31
0.0
  0
LINE
  5
BB7A
  8
0
 10
61.1750472613900627
 20
27.7319888930641092
 30
0.0
 11
61.1839202304900596
 21
27.7347895674641087
 31
0.0
  0
LINE
  5
BB7B
  8
0
 10
61.1839202304900596
 20
27.7347895674641087
 30
0.0
 11
61.1767453460379329
 21
27.7369327448640988
 31
0.0
  0
LINE
  5
BB7C
  8
0
 10
61.1769975536986692
 20
27.7476946848641113
 30
0.0
 11
61.1446840620814385
 21
27.7476946848641113
 31
0.0
  0
LINE
  5
BB7D
  8
0
 10
61.1446840620814385
 20
27.7476946848641113
 30
0.0
 11
61.1380135929948167
 21
27.7455515074502088
 31
0.0
  0
LINE
  5
BB7E
  8
0
 10
61.1380135929948167
 20
27.7455515074502088
 30
0.0
 11
61.1468865620508026
 21
27.7427508330641004
 31
0.0
  0
LINE
  5
BB7F
  8
0
 10
61.1468865620508026
 20
27.7427508330641004
 30
0.0
 11
61.175299469050799
 21
27.7427508330641004
 31
0.0
  0
LINE
  5
BB80
  8
0
 10
61.175299469050799
 20
27.7427508330641004
 30
0.0
 11
61.1841724381508101
 21
27.7455515074640999
 31
0.0
  0
LINE
  5
BB81
  8
0
 10
61.1841724381508101
 20
27.7455515074640999
 30
0.0
 11
61.1769975536986692
 21
27.7476946848641113
 31
0.0
  0
LINE
  5
BB82
  8
0
 10
61.1680301291770618
 20
27.7642747130641112
 30
0.0
 11
61.1750472613900627
 21
27.7642747130641112
 31
0.0
  0
LINE
  5
BB83
  8
0
 10
61.1750472613900627
 20
27.7642747130641112
 30
0.0
 11
61.1839202304900596
 21
27.7670753874641107
 31
0.0
  0
LINE
  5
BB84
  8
0
 10
61.1839202304900596
 20
27.7670753874641107
 30
0.0
 11
61.1825653771743134
 21
27.7674800895922012
 31
0.0
  0
LINE
  5
BB85
  8
0
 10
61.1767453460379329
 20
27.7584566248640989
 30
0.0
 11
61.1444318544207022
 21
27.7584566248640989
 31
0.0
  0
LINE
  5
BB86
  8
0
 10
61.1444318544207022
 20
27.7584566248640989
 30
0.0
 11
61.1377613853340591
 21
27.7563134474502107
 31
0.0
  0
LINE
  5
BB87
  8
0
 10
61.1377613853340591
 20
27.7563134474502107
 30
0.0
 11
61.1466343543900521
 21
27.7535127730640987
 31
0.0
  0
LINE
  5
BB88
  8
0
 10
61.1466343543900521
 20
27.7535127730640987
 30
0.0
 11
61.1750472613900627
 21
27.7535127730640987
 31
0.0
  0
LINE
  5
BB89
  8
0
 10
61.1750472613900627
 20
27.7535127730640987
 30
0.0
 11
61.1839202304900596
 21
27.7563134474641089
 31
0.0
  0
LINE
  5
BB8A
  8
0
 10
61.1839202304900596
 20
27.7563134474641089
 30
0.0
 11
61.1767453460379329
 21
27.7584566248640989
 31
0.0
  0
LINE
  5
BB8B
  8
0
 10
61.125554859333171
 20
27.7315859575731096
 30
0.0
 11
61.1045815071604466
 21
27.7315859575731096
 31
0.0
  0
LINE
  5
BB8C
  8
0
 10
61.105126692463223
 20
27.7266421057731094
 30
0.0
 11
61.1238567746853008
 21
27.7266421057731094
 31
0.0
  0
LINE
  5
BB8D
  8
0
 10
61.1238567746853008
 20
27.7266421057731094
 30
0.0
 11
61.1327297437852977
 21
27.7294427801731089
 31
0.0
  0
LINE
  5
BB8E
  8
0
 10
61.1327297437852977
 20
27.7294427801731089
 30
0.0
 11
61.125554859333171
 21
27.7315859575731096
 31
0.0
  0
LINE
  5
BB8F
  8
0
 10
61.1258070669939073
 20
27.7423478975731115
 30
0.0
 11
61.1117164298930504
 21
27.7423478975731115
 31
0.0
  0
LINE
  5
BB90
  8
0
 10
61.1069395964362627
 20
27.7374040457731112
 30
0.0
 11
61.1241089823460371
 21
27.7374040457731112
 31
0.0
  0
LINE
  5
BB91
  8
0
 10
61.1241089823460371
 20
27.7374040457731112
 30
0.0
 11
61.1329819514460411
 21
27.7402047201731214
 31
0.0
  0
LINE
  5
BB92
  8
0
 10
61.1329819514460411
 20
27.7402047201731214
 30
0.0
 11
61.1258070669939073
 21
27.7423478975731115
 31
0.0
  0
LINE
  5
BB93
  8
0
 10
61.120817292794932
 20
27.7481659857731202
 30
0.0
 11
61.1238567746853008
 21
27.7481659857731202
 31
0.0
  0
LINE
  5
BB94
  8
0
 10
61.1238567746853008
 20
27.7481659857731202
 30
0.0
 11
61.1327297437852977
 21
27.7509666601731091
 31
0.0
  0
LINE
  5
BB95
  8
0
 10
61.1327297437852977
 20
27.7509666601731091
 30
0.0
 11
61.1285574103025127
 21
27.7522129591045115
 31
0.0
  0
LINE
  5
BB96
  8
0
 10
61.4165591459400417
 20
27.7075559687641118
 30
0.0
 11
61.40040022463144
 21
27.7075559687641118
 31
0.0
  0
LINE
  5
BB97
  8
0
 10
61.40040022463144
 20
27.7075559687641118
 30
0.0
 11
61.3937297555448183
 21
27.7054127913502093
 31
0.0
  0
LINE
  5
BB98
  8
0
 10
61.3937297555448183
 20
27.7054127913502093
 30
0.0
 11
61.402602724600797
 21
27.7026121169641115
 31
0.0
  0
LINE
  5
BB99
  8
0
 10
61.402602724600797
 20
27.7026121169641115
 30
0.0
 11
61.4165591459400417
 21
27.7026121169641115
 31
0.0
  0
LINE
  5
BB9A
  8
0
 10
61.4165591459400417
 20
27.7149717464641014
 30
0.0
 11
61.40040022463144
 21
27.7149717464641014
 31
0.0
  0
LINE
  5
BB9B
  8
0
 10
61.40040022463144
 20
27.7149717464641014
 30
0.0
 11
61.3937297555448183
 21
27.7128285690502096
 31
0.0
  0
LINE
  5
BB9C
  8
0
 10
61.3937297555448183
 20
27.7128285690502096
 30
0.0
 11
61.402602724600797
 21
27.7100278946641083
 31
0.0
  0
LINE
  5
BB9D
  8
0
 10
61.402602724600797
 20
27.7100278946641083
 30
0.0
 11
61.4165591459400417
 21
27.7100278946641083
 31
0.0
  0
LINE
  5
BB9E
  8
0
 10
61.4165591459400417
 20
27.7257336864641104
 30
0.0
 11
61.4001480169654101
 21
27.7257336864641104
 31
0.0
  0
LINE
  5
BB9F
  8
0
 10
61.4001480169654101
 20
27.7257336864641104
 30
0.0
 11
61.3934775478787813
 21
27.7235905090502115
 31
0.0
  0
LINE
  5
BBA0
  8
0
 10
61.3934775478787813
 20
27.7235905090502115
 30
0.0
 11
61.4023505169347601
 21
27.7207898346641102
 31
0.0
  0
LINE
  5
BBA1
  8
0
 10
61.4023505169347601
 20
27.7207898346641102
 30
0.0
 11
61.4165591459400417
 21
27.7207898346641102
 31
0.0
  0
LINE
  5
BBA2
  8
0
 10
61.4165591459400417
 20
27.7364956264957883
 30
0.0
 11
61.4001480169654101
 21
27.7364956264957883
 31
0.0
  0
LINE
  5
BBA3
  8
0
 10
61.4001480169654101
 20
27.7364956264957883
 30
0.0
 11
61.3934775478787813
 21
27.7343524490819
 31
0.0
  0
LINE
  5
BBA4
  8
0
 10
61.3934775478787813
 20
27.7343524490819
 30
0.0
 11
61.4023505169347601
 21
27.7315517746957916
 31
0.0
  0
LINE
  5
BBA5
  8
0
 10
61.4023505169347601
 20
27.7315517746957916
 30
0.0
 11
61.4165591459400417
 21
27.7315517746957916
 31
0.0
  0
LINE
  5
BBA6
  8
0
 10
61.4165591459400417
 20
27.7472575664980887
 30
0.0
 11
61.4001480169755283
 21
27.7472575664980887
 31
0.0
  0
LINE
  5
BBA7
  8
0
 10
61.4001480169755283
 20
27.7472575664980887
 30
0.0
 11
61.3934775478888923
 21
27.7451143890841898
 31
0.0
  0
LINE
  5
BBA8
  8
0
 10
61.3934775478888923
 20
27.7451143890841898
 30
0.0
 11
61.4023505169448924
 21
27.7423137146980885
 31
0.0
  0
LINE
  5
BBA9
  8
0
 10
61.4023505169448924
 20
27.7423137146980885
 30
0.0
 11
61.4165591459400417
 21
27.7423137146980885
 31
0.0
  0
LINE
  5
BBAA
  8
0
 10
61.4165591459400417
 20
27.7580195065641
 30
0.0
 11
61.4001480169706966
 21
27.7580195065641
 31
0.0
  0
LINE
  5
BBAB
  8
0
 10
61.4001480169706966
 20
27.7580195065641
 30
0.0
 11
61.3934775478840606
 21
27.7558763291502117
 31
0.0
  0
LINE
  5
BBAC
  8
0
 10
61.3934775478840606
 20
27.7558763291502117
 30
0.0
 11
61.4023505169400607
 21
27.7530756547640998
 31
0.0
  0
LINE
  5
BBAD
  8
0
 10
61.4023505169400607
 20
27.7530756547640998
 30
0.0
 11
61.4165591459400417
 21
27.7530756547640998
 31
0.0
  0
LINE
  5
BBAE
  8
0
 10
61.4165591459400417
 20
27.7687814465640983
 30
0.0
 11
61.4001480169706966
 21
27.7687814465640983
 31
0.0
  0
LINE
  5
BBAF
  8
0
 10
61.4001480169706966
 20
27.7687814465640983
 30
0.0
 11
61.3934775478840606
 21
27.76663826915021
 31
0.0
  0
LINE
  5
BBB0
  8
0
 10
61.3934775478840606
 20
27.76663826915021
 30
0.0
 11
61.4023505169400607
 21
27.7638375947641016
 31
0.0
  0
LINE
  5
BBB1
  8
0
 10
61.4023505169400607
 20
27.7638375947641016
 30
0.0
 11
61.4165591459400417
 21
27.7638375947641016
 31
0.0
  0
LINE
  5
BBB2
  8
0
 10
61.4165591459400417
 20
27.7795433865641108
 30
0.0
 11
61.40040022463144
 21
27.7795433865641108
 31
0.0
  0
LINE
  5
BBB3
  8
0
 10
61.40040022463144
 20
27.7795433865641108
 30
0.0
 11
61.3937297555448183
 21
27.7774002091502084
 31
0.0
  0
LINE
  5
BBB4
  8
0
 10
61.3937297555448183
 20
27.7774002091502084
 30
0.0
 11
61.402602724600797
 21
27.7745995347641106
 31
0.0
  0
LINE
  5
BBB5
  8
0
 10
61.402602724600797
 20
27.7745995347641106
 30
0.0
 11
61.4165591459400417
 21
27.7745995347641106
 31
0.0
  0
LINE
  5
BBB6
  8
0
 10
61.3964587331467726
 20
27.7872211643284714
 30
0.0
 11
61.4023505169400607
 21
27.7853614747640982
 31
0.0
  0
LINE
  5
BBB7
  8
0
 10
61.4023505169400607
 20
27.7853614747640982
 30
0.0
 11
61.4165591459400417
 21
27.7853614747640982
 31
0.0
  0
ARC
  5
BBB8
  8
0
 10
61.8074527214160625
 20
27.7461493784168596
 30
0.0
 40
0.0368230779391306
 50
296.3603902719486882
 51
335.7032036301143876
  0
ARC
  5
BBB9
  8
0
 10
61.7116007309369579
 20
27.9204034468851887
 30
0.0
 40
0.2356716526220909
 50
281.9959154054570831
 51
298.4306486723195917
  0
ARC
  5
BBBA
  8
0
 10
61.5176372396347304
 20
28.7408455122279598
 30
0.0
 40
1.0786819876829381
 50
273.6027481310856047
 51
283.0160983337567018
  0
ARC
  5
BBBB
  8
0
 10
61.3736811226773611
 20
31.0339831606520598
 30
0.0
 40
3.376333741191043
 50
270.7276519433693807
 51
273.5955282142377882
  0
ARC
  5
BBBC
  8
0
 10
61.8054240181041621
 20
27.7275231231142101
 30
0.0
 40
0.0357594609862869
 50
5.5764867337501451
 51
70.4472659736449742
  0
ARC
  5
BBBD
  8
0
 10
61.6180336854612491
 20
27.2754877163563911
 30
0.0
 40
0.5250523461199909
 50
67.6854025063471312
 51
85.2860765592259042
  0
ARC
  5
BBBE
  8
0
 10
61.4389813209105
 20
25.9950924197500015
 30
0.0
 40
1.817307032581196
 50
82.9768900806686105
 51
88.1516685590481757
  0
ARC
  5
BBBF
  8
0
 10
61.4929485958126421
 20
29.8586207749261909
 30
0.0
 40
2.0471721284436439
 50
267.8615333088271768
 51
270.1300849580322279
  0
ARC
  5
BBC0
  8
0
 10
61.6521487513382169
 20
33.8362817605238817
 30
0.0
 40
6.0335019296360173
 50
267.7622079759776739
 51
268.9241501155074161
  0
ARC
  5
BBC1
  8
0
 10
61.4630544406774177
 20
26.4054819238727809
 30
0.0
 40
1.400414930494041
 50
80.8527951228711856
 51
86.8968702622527758
  0
ARC
  5
BBC2
  8
0
 10
61.622235886720631
 20
27.3526731615463703
 30
0.0
 40
0.4400128598790947
 50
68.561165348256722
 51
81.7097290779147443
  0
ARC
  5
BBC3
  8
0
 10
61.7615234637113915
 20
27.7049063066444887
 30
0.0
 40
0.0612473398460095
 50
39.2946162299121085
 51
69.4088201253363195
  0
ARC
  5
BBC4
  8
0
 10
61.7965112109158667
 20
27.7351897777329199
 30
0.0
 40
0.0150459668504553
 50
312.0253870502879181
 51
34.420743122817882
  0
ARC
  5
BBC5
  8
0
 10
61.7119143383680893
 20
27.8445453167353492
 30
0.0
 40
0.153265730207808
 50
279.5813533601822201
 51
308.147087254739688
  0
ARC
  5
BBC6
  8
0
 10
61.4962570799880766
 20
28.7351785122213208
 30
0.0
 40
1.0693118344321579
 50
271.6975704833357099
 51
283.0343821518550271
  0
ARC
  5
BBC7
  8
0
 10
61.3616789634900712
 20
31.8809288528391015
 30
0.0
 40
4.2178707770548467
 50
270.7455163347327129
 51
272.2590054630870782
  0
ARC
  5
BBC8
  8
0
 10
61.4169869498273684
 20
25.7279800342026412
 30
0.0
 40
2.0758491467572151
 50
86.302859805732524
 51
90.0118078702455762
  0
ARC
  5
BBC9
  8
0
 10
61.452648592280859
 20
26.2798727996758714
 30
0.0
 40
1.522805407687535
 50
83.2594825260505758
 51
86.302859805732524
  0
ARC
  5
BBCA
  8
0
 10
61.5034042122227831
 20
26.7093137605116802
 30
0.0
 40
1.09037544596047
 50
80.3895901448956351
 51
83.2594825260505758
  0
ARC
  5
BBCB
  8
0
 10
61.5725226517188418
 20
27.1175154678097385
 30
0.0
 40
0.6763633778761915
 50
77.2342079769007341
 51
80.3895901448960331
  0
ARC
  5
BBCC
  8
0
 10
61.6400949190687228
 20
27.4157600106159904
 30
0.0
 40
0.3705598157182039
 50
67.2008918970674642
 51
77.2342079769007341
  0
ARC
  5
BBCD
  8
0
 10
61.7605879360636294
 20
27.7024140618873496
 30
0.0
 40
0.0596110864157442
 50
41.731974146631913
 51
67.2008918970674642
  0
ARC
  5
BBCE
  8
0
 10
61.7943321964144872
 20
27.7325128976829198
 30
0.0
 40
0.0143936669529367
 50
359.4015173144767914
 51
41.7319741466325027
  0
ARC
  5
BBCF
  8
0
 10
61.793660132209439
 20
27.7325199179804507
 30
0.0
 40
0.0150657678235581
 50
321.3763430753226089
 51
359.4015173144763935
  0
LINE
  5
BBD0
  8
0
 10
61.7836873057400666
 20
27.7573676854641107
 30
0.0
 11
61.7836432509640829
 21
27.7384532041088505
 31
0.0
  0
ARC
  5
BBD1
  8
0
 10
61.7588435989599205
 20
27.7385109663648102
 30
0.0
 40
0.0247997192727209
 50
318.6499868954878139
 51
359.8665494379991969
  0
ARC
  5
BBD2
  8
0
 10
61.7198471773182717
 20
27.7728305177466304
 30
0.0
 40
0.076747313133288
 50
293.8853464527011852
 51
318.6499868954878139
  0
ARC
  5
BBD3
  8
0
 10
61.647240089427207
 20
27.9367909217180213
 30
0.0
 40
0.2560649176301147
 50
285.2598402752433913
 51
293.8853464527011852
  0
ARC
  5
BBD4
  8
0
 10
61.5757810910403194
 20
28.1987222155370709
 30
0.0
 40
0.5275688607546691
 50
282.1914743963603769
 51
285.2598402752433913
  0
ARC
  5
BBD5
  8
0
 10
61.6106594551259619
 20
27.4303557500408886
 30
0.0
 40
0.3650910467685991
 50
65.2515828784938918
 51
70.6731598983277536
  0
ARC
  5
BBD6
  8
0
 10
61.7426898707864424
 20
27.7167726726365089
 30
0.0
 40
0.0497076543576691
 50
46.830808593854357
 51
65.2515828784935223
  0
ARC
  5
BBD7
  8
0
 10
61.7561236658162116
 20
27.7310936351018391
 30
0.0
 40
0.0300720536580496
 50
30.1834898892267383
 51
46.8308085938548118
  0
ARC
  5
BBD8
  8
0
 10
61.7721855031066482
 20
27.7404356525683404
 30
0.0
 40
0.0114909905159824
 50
3.9137934484290531
 51
30.1834898892272889
  0
ARC
  5
BBD9
  8
0
 10
61.4165531351355725
 20
25.9055017777873502
 30
0.0
 40
1.881826803389353
 50
88.7659224109758469
 51
89.9998169896773561
  0
ARC
  5
BBDA
  8
0
 10
61.418293083428452
 20
25.9862716402014087
 30
0.0
 40
1.801038202123773
 50
86.9675540164814436
 51
88.7659224109758469
  0
ARC
  5
BBDB
  8
0
 10
61.4325941196615233
 20
26.2562265858836099
 30
0.0
 40
1.5307047185601961
 50
84.6536907888282144
 51
86.9675540164814436
  0
ARC
  5
BBDC
  8
0
 10
61.468817407489567
 20
26.6433000578870391
 30
0.0
 40
1.141940009115189
 50
81.4449167204402471
 51
84.6536907888282144
  0
ARC
  5
BBDD
  8
0
 10
61.5460919717306183
 20
27.1569775772058399
 30
0.0
 40
0.6224826459638255
 50
74.994607986317817
 51
81.4449167204402471
  0
ARC
  5
BBDE
  8
0
 10
61.6636177043067804
 20
27.5954245320626512
 30
0.0
 40
0.1685575089194427
 50
59.1690734127152211
 51
74.994607986317817
  0
ARC
  5
BBDF
  8
0
 10
61.736615094893061
 20
27.717728648934461
 30
0.0
 40
0.0261253635441708
 50
25.6585261858453997
 51
59.1690734127155622
  0
ARC
  5
BBE0
  8
0
 10
61.7500275261751881
 20
27.7241716630047605
 30
0.0
 40
0.0112456544338494
 50
315.5579279135110937
 51
25.6585261858452114
  0
ARC
  5
BBE1
  8
0
 10
61.70473030651209
 20
27.7685951832799702
 30
0.0
 40
0.0746908060441121
 50
286.9283929778147808
 51
315.5579279135110937
  0
ARC
  5
BBE2
  8
0
 10
61.4638146095550226
 20
28.5601316896577408
 30
0.0
 40
0.9020785107926307
 50
283.3898046402031241
 51
286.9283929778147808
  0
ARC
  5
BBE3
  8
0
 10
61.5590850047412772
 20
28.1599125423378389
 30
0.0
 40
0.4906762574196061
 50
277.3570833263996747
 51
283.3898046402031241
  0
ARC
  5
BBE4
  8
0
 10
61.2249722201804119
 20
25.8030634854626086
 30
0.0
 40
2.0099879407928678
 50
76.9412328177736242
 51
79.2204228799766952
  0
ARC
  5
BBE5
  8
0
 10
61.6507056679730781
 20
27.63852654055286
 30
0.0
 40
0.1257975058392567
 50
64.866474151545745
 51
76.9412328177736242
  0
ARC
  5
BBE6
  8
0
 10
61.6564572806758804
 20
27.65078623943214
 30
0.0
 40
0.1122556719422741
 50
54.6218193167665618
 51
64.8664741515458303
  0
ARC
  5
BBE7
  8
0
 10
61.7108196148893882
 20
27.7273432012105303
 30
0.0
 40
0.0183608809372408
 50
21.792924445305399
 51
54.6218193167665618
  0
ARC
  5
BBE8
  8
0
 10
61.7180623360903908
 20
27.7302390455621115
 30
0.0
 40
0.0105606934456446
 50
325.4851094011154942
 51
21.7929244453055908
  0
ARC
  5
BBE9
  8
0
 10
61.6999192543202781
 20
27.7427153838898697
 30
0.0
 40
0.0325795588611403
 50
299.5110783924785096
 51
325.4851094011157215
  0
ARC
  5
BBEA
  8
0
 10
61.6423096797621426
 20
27.8444940399934389
 30
0.0
 40
0.1495315059121297
 50
283.3615629144591139
 51
299.5110783924785096
  0
ARC
  5
BBEB
  8
0
 10
61.4739512750628165
 20
28.5532975518140795
 30
0.0
 40
0.8780553358601791
 50
278.3935754397555229
 51
283.3615629144591139
  0
ARC
  5
BBEC
  8
0
 10
61.4824772785452183
 20
28.4955147363692483
 30
0.0
 40
0.8196468904424747
 50
272.6752559917289886
 51
278.3935754397555229
  0
ARC
  5
BBED
  8
0
 10
61.3625904405323581
 20
31.0612569755527197
 30
0.0
 40
3.3881885178760069
 50
270.9126734833233741
 51
272.6752559917293866
  0
ARC
  5
BBEE
  8
0
 10
61.7115156770953206
 20
27.7527226375579694
 30
0.0
 40
0.0404865210439789
 50
320.3646462755693278
 51
341.9262537411084963
  0
ARC
  5
BBEF
  8
0
 10
61.6972026073213726
 20
27.7645783222058711
 30
0.0
 40
0.0590720321971396
 50
300.3500554673792067
 51
320.3646462755693278
  0
ARC
  5
BBF0
  8
0
 10
61.6534502250395207
 20
27.8393016128608508
 30
0.0
 40
0.1456621073884954
 50
280.7216644303205157
 51
300.3500554673796046
  0
ARC
  5
BBF1
  8
0
 10
61.5304105261144016
 20
28.3068733721921397
 30
0.0
 40
0.6288759867658833
 50
277.5424883049751088
 51
283.8122380422382207
  0
ARC
  5
BBF2
  8
0
 10
61.4534773000453072
 20
28.8541150537732882
 30
0.0
 40
1.1814895096561959
 50
274.1021290542972793
 51
277.7576051971144011
  0
ARC
  5
BBF3
  8
0
 10
61.418138352281531
 20
29.3411142122508011
 30
0.0
 40
1.669769042264595
 50
269.9458117442928824
 51
274.1162377247748054
  0
LINE
  5
BBF4
  8
0
 10
61.4515478081314512
 20
27.6972311469640999
 30
0.0
 11
61.483861299748682
 21
27.6972311469640999
 31
0.0
  0
LINE
  5
BBF5
  8
0
 10
61.483861299748682
 20
27.6972311469640999
 30
0.0
 11
61.4905317688353108
 21
27.6950879695502117
 31
0.0
  0
LINE
  5
BBF6
  8
0
 10
61.4905317688353108
 20
27.6950879695502117
 30
0.0
 11
61.4816587997793107
 21
27.6922872951640997
 31
0.0
  0
LINE
  5
BBF7
  8
0
 10
61.4816587997793107
 20
27.6922872951640997
 30
0.0
 11
61.4532458927793215
 21
27.6922872951640997
 31
0.0
  0
LINE
  5
BBF8
  8
0
 10
61.4532458927793215
 20
27.6922872951640997
 30
0.0
 11
61.4443729236793175
 21
27.6950879695640992
 31
0.0
  0
LINE
  5
BBF9
  8
0
 10
61.4443729236793175
 20
27.6950879695640992
 30
0.0
 11
61.4515478081314512
 21
27.6972311469640999
 31
0.0
  0
LINE
  5
BBFA
  8
0
 10
61.4515478081314512
 20
27.7046469246641003
 30
0.0
 11
61.483861299748682
 21
27.7046469246641003
 31
0.0
  0
LINE
  5
BBFB
  8
0
 10
61.483861299748682
 20
27.7046469246641003
 30
0.0
 11
61.4905317688353108
 21
27.7025037472502191
 31
0.0
  0
LINE
  5
BBFC
  8
0
 10
61.4905317688353108
 20
27.7025037472502191
 30
0.0
 11
61.4816587997793107
 21
27.6997030728641001
 31
0.0
  0
LINE
  5
BBFD
  8
0
 10
61.4816587997793107
 20
27.6997030728641001
 30
0.0
 11
61.4532458927793215
 21
27.6997030728641001
 31
0.0
  0
LINE
  5
BBFE
  8
0
 10
61.4532458927793215
 20
27.6997030728641001
 30
0.0
 11
61.4443729236793175
 21
27.7025037472641102
 31
0.0
  0
LINE
  5
BBFF
  8
0
 10
61.4443729236793175
 20
27.7025037472641102
 30
0.0
 11
61.4515478081314512
 21
27.7046469246641003
 31
0.0
  0
LINE
  5
BC00
  8
0
 10
61.4518000157974882
 20
27.7154088646640986
 30
0.0
 11
61.4841135074147189
 21
27.7154088646640986
 31
0.0
  0
LINE
  5
BC01
  8
0
 10
61.4841135074147189
 20
27.7154088646640986
 30
0.0
 11
61.4907839765013478
 21
27.7132656872502103
 31
0.0
  0
LINE
  5
BC02
  8
0
 10
61.4907839765013478
 20
27.7132656872502103
 30
0.0
 11
61.4819110074453619
 21
27.7104650128640984
 31
0.0
  0
LINE
  5
BC03
  8
0
 10
61.4819110074453619
 20
27.7104650128640984
 30
0.0
 11
61.4534981004453513
 21
27.7104650128640984
 31
0.0
  0
LINE
  5
BC04
  8
0
 10
61.4534981004453513
 20
27.7104650128640984
 30
0.0
 11
61.4446251313453473
 21
27.7132656872641085
 31
0.0
  0
LINE
  5
BC05
  8
0
 10
61.4446251313453473
 20
27.7132656872641085
 30
0.0
 11
61.4518000157974882
 21
27.7154088646640986
 31
0.0
  0
LINE
  5
BC06
  8
0
 10
61.4518000157974882
 20
27.7261708046957907
 30
0.0
 11
61.4841135074147189
 21
27.7261708046957907
 31
0.0
  0
LINE
  5
BC07
  8
0
 10
61.4841135074147189
 20
27.7261708046957907
 30
0.0
 11
61.4907839765013478
 21
27.7240276272818988
 31
0.0
  0
LINE
  5
BC08
  8
0
 10
61.4907839765013478
 20
27.7240276272818988
 30
0.0
 11
61.4819110074453619
 21
27.7212269528957904
 31
0.0
  0
LINE
  5
BC09
  8
0
 10
61.4819110074453619
 20
27.7212269528957904
 30
0.0
 11
61.4534981004453513
 21
27.7212269528957904
 31
0.0
  0
LINE
  5
BC0A
  8
0
 10
61.4534981004453513
 20
27.7212269528957904
 30
0.0
 11
61.4446251313453473
 21
27.72402762729579
 31
0.0
  0
LINE
  5
BC0B
  8
0
 10
61.4446251313453473
 20
27.72402762729579
 30
0.0
 11
61.4518000157974882
 21
27.7261708046957907
 31
0.0
  0
LINE
  5
BC0C
  8
0
 10
61.4518000157873701
 20
27.7369327446980911
 30
0.0
 11
61.4841135074046008
 21
27.7369327446980911
 31
0.0
  0
LINE
  5
BC0D
  8
0
 10
61.4841135074046008
 20
27.7369327446980911
 30
0.0
 11
61.4907839764912225
 21
27.7347895672841993
 31
0.0
  0
LINE
  5
BC0E
  8
0
 10
61.4907839764912225
 20
27.7347895672841993
 30
0.0
 11
61.4819110074352366
 21
27.7319888928980909
 31
0.0
  0
LINE
  5
BC0F
  8
0
 10
61.4819110074352366
 20
27.7319888928980909
 30
0.0
 11
61.4534981004352332
 21
27.7319888928980909
 31
0.0
  0
LINE
  5
BC10
  8
0
 10
61.4534981004352332
 20
27.7319888928980909
 30
0.0
 11
61.4446251313352292
 21
27.7347895672980904
 31
0.0
  0
LINE
  5
BC11
  8
0
 10
61.4446251313352292
 20
27.7347895672980904
 30
0.0
 11
61.4518000157873701
 21
27.7369327446980911
 31
0.0
  0
LINE
  5
BC12
  8
0
 10
61.4518000157922017
 20
27.7476946847641095
 30
0.0
 11
61.4841135074094325
 21
27.7476946847641095
 31
0.0
  0
LINE
  5
BC13
  8
0
 10
61.4841135074094325
 20
27.7476946847641095
 30
0.0
 11
61.4907839764960471
 21
27.7455515073502106
 31
0.0
  0
LINE
  5
BC14
  8
0
 10
61.4907839764960471
 20
27.7455515073502106
 30
0.0
 11
61.4819110074400683
 21
27.7427508329640986
 31
0.0
  0
LINE
  5
BC15
  8
0
 10
61.4819110074400683
 20
27.7427508329640986
 30
0.0
 11
61.4534981004400578
 21
27.7427508329640986
 31
0.0
  0
LINE
  5
BC16
  8
0
 10
61.4534981004400578
 20
27.7427508329640986
 30
0.0
 11
61.444625131340068
 21
27.7455515073641088
 31
0.0
  0
LINE
  5
BC17
  8
0
 10
61.444625131340068
 20
27.7455515073641088
 30
0.0
 11
61.4518000157922017
 21
27.7476946847641095
 31
0.0
  0
LINE
  5
BC18
  8
0
 10
61.4518000157922017
 20
27.7584566247641007
 30
0.0
 11
61.4841135074094325
 21
27.7584566247641007
 31
0.0
  0
LINE
  5
BC19
  8
0
 10
61.4841135074094325
 20
27.7584566247641007
 30
0.0
 11
61.4907839764960471
 21
27.7563134473502195
 31
0.0
  0
LINE
  5
BC1A
  8
0
 10
61.4907839764960471
 20
27.7563134473502195
 30
0.0
 11
61.4819110074400683
 21
27.7535127729641005
 31
0.0
  0
LINE
  5
BC1B
  8
0
 10
61.4819110074400683
 20
27.7535127729641005
 30
0.0
 11
61.453498100440072
 21
27.7535127729641005
 31
0.0
  0
LINE
  5
BC1C
  8
0
 10
61.453498100440072
 20
27.7535127729641005
 30
0.0
 11
61.444625131340068
 21
27.7563134473641107
 31
0.0
  0
LINE
  5
BC1D
  8
0
 10
61.444625131340068
 20
27.7563134473641107
 30
0.0
 11
61.4518000157922017
 21
27.7584566247641007
 31
0.0
  0
LINE
  5
BC1E
  8
0
 10
61.4515478081314512
 20
27.769218564764099
 30
0.0
 11
61.483861299748682
 21
27.769218564764099
 31
0.0
  0
LINE
  5
BC1F
  8
0
 10
61.483861299748682
 20
27.769218564764099
 30
0.0
 11
61.4905317688353108
 21
27.7670753873502107
 31
0.0
  0
LINE
  5
BC20
  8
0
 10
61.4905317688353108
 20
27.7670753873502107
 30
0.0
 11
61.4816587997793107
 21
27.7642747129640988
 31
0.0
  0
LINE
  5
BC21
  8
0
 10
61.4816587997793107
 20
27.7642747129640988
 30
0.0
 11
61.4532458927793215
 21
27.7642747129640988
 31
0.0
  0
LINE
  5
BC22
  8
0
 10
61.4532458927793215
 20
27.7642747129640988
 30
0.0
 11
61.4443729236793175
 21
27.7670753873640983
 31
0.0
  0
LINE
  5
BC23
  8
0
 10
61.4443729236793175
 20
27.7670753873640983
 30
0.0
 11
61.4515478081314512
 21
27.769218564764099
 31
0.0
  0
LINE
  5
BC24
  8
0
 10
61.4830135444276991
 20
27.7861465990352983
 30
0.0
 11
61.4819110074400683
 21
27.7857985929641096
 31
0.0
  0
LINE
  5
BC25
  8
0
 10
61.4819110074400683
 20
27.7857985929641096
 30
0.0
 11
61.453498100440072
 21
27.7857985929641096
 31
0.0
  0
LINE
  5
BC26
  8
0
 10
61.453498100440072
 20
27.7857985929641096
 30
0.0
 11
61.4495684791484891
 21
27.7870389432492217
 31
0.0
  0
LINE
  5
BC27
  8
0
 10
61.4518000157922017
 20
27.7799805047641115
 30
0.0
 11
61.4841135074094325
 21
27.7799805047641115
 31
0.0
  0
LINE
  5
BC28
  8
0
 10
61.4841135074094325
 20
27.7799805047641115
 30
0.0
 11
61.4907839764960471
 21
27.7778373273502091
 31
0.0
  0
LINE
  5
BC29
  8
0
 10
61.4907839764960471
 20
27.7778373273502091
 30
0.0
 11
61.4819110074400683
 21
27.7750366529641113
 31
0.0
  0
LINE
  5
BC2A
  8
0
 10
61.4819110074400683
 20
27.7750366529641113
 30
0.0
 11
61.453498100440072
 21
27.7750366529641113
 31
0.0
  0
LINE
  5
BC2B
  8
0
 10
61.453498100440072
 20
27.7750366529641113
 30
0.0
 11
61.444625131340068
 21
27.7778373273641002
 31
0.0
  0
LINE
  5
BC2C
  8
0
 10
61.444625131340068
 20
27.7778373273641002
 30
0.0
 11
61.4518000157922017
 21
27.7799805047641115
 31
0.0
  0
LINE
  5
BC2D
  8
0
 10
61.5026910406314471
 20
27.6992659546640994
 30
0.0
 11
61.5350045322486778
 21
27.6992659546640994
 31
0.0
  0
LINE
  5
BC2E
  8
0
 10
61.5350045322486778
 20
27.6992659546640994
 30
0.0
 11
61.5416750013353067
 21
27.6971227772502111
 31
0.0
  0
LINE
  5
BC2F
  8
0
 10
61.5416750013353067
 20
27.6971227772502111
 30
0.0
 11
61.5328020322793208
 21
27.6943221028641098
 31
0.0
  0
LINE
  5
BC30
  8
0
 10
61.5328020322793208
 20
27.6943221028641098
 30
0.0
 11
61.5043891252793102
 21
27.6943221028641098
 31
0.0
  0
LINE
  5
BC31
  8
0
 10
61.5043891252793102
 20
27.6943221028641098
 30
0.0
 11
61.4955161561793204
 21
27.6971227772640987
 31
0.0
  0
LINE
  5
BC32
  8
0
 10
61.4955161561793204
 20
27.6971227772640987
 30
0.0
 11
61.5026910406314471
 21
27.6992659546640994
 31
0.0
  0
LINE
  5
BC33
  8
0
 10
61.5029432482974912
 20
27.7100278946641083
 30
0.0
 11
61.5352567399147219
 21
27.7100278946641012
 31
0.0
  0
LINE
  5
BC34
  8
0
 10
61.5352567399147219
 20
27.7100278946641012
 30
0.0
 11
61.5419272090013365
 21
27.7078847172502094
 31
0.0
  0
LINE
  5
BC35
  8
0
 10
61.5419272090013365
 20
27.7078847172502094
 30
0.0
 11
61.5330542399453506
 21
27.705084042864101
 31
0.0
  0
LINE
  5
BC36
  8
0
 10
61.5330542399453506
 20
27.705084042864101
 30
0.0
 11
61.5046413329453472
 21
27.705084042864101
 31
0.0
  0
LINE
  5
BC37
  8
0
 10
61.5046413329453472
 20
27.705084042864101
 30
0.0
 11
61.4957683638453574
 21
27.7078847172641005
 31
0.0
  0
LINE
  5
BC38
  8
0
 10
61.4957683638453574
 20
27.7078847172641005
 30
0.0
 11
61.5029432482974912
 21
27.7100278946641012
 31
0.0
  0
LINE
  5
BC39
  8
0
 10
61.5029432482974912
 20
27.7207898346957897
 30
0.0
 11
61.5352567399147219
 21
27.7207898346957897
 31
0.0
  0
LINE
  5
BC3A
  8
0
 10
61.5352567399147219
 20
27.7207898346957897
 30
0.0
 11
61.5419272090013365
 21
27.7186466572819015
 31
0.0
  0
LINE
  5
BC3B
  8
0
 10
61.5419272090013365
 20
27.7186466572819015
 30
0.0
 11
61.5330542399453506
 21
27.7158459828957895
 31
0.0
  0
LINE
  5
BC3C
  8
0
 10
61.5330542399453506
 20
27.7158459828957895
 30
0.0
 11
61.5046413329453472
 21
27.7158459828957895
 31
0.0
  0
LINE
  5
BC3D
  8
0
 10
61.5046413329453472
 20
27.7158459828957895
 30
0.0
 11
61.4957683638453574
 21
27.718646657295789
 31
0.0
  0
LINE
  5
BC3E
  8
0
 10
61.4957683638453574
 20
27.718646657295789
 30
0.0
 11
61.5029432482974912
 21
27.7207898346957897
 31
0.0
  0
LINE
  5
BC3F
  8
0
 10
61.5029432482873588
 20
27.7315517746980902
 30
0.0
 11
61.5352567399045967
 21
27.7315517746980902
 31
0.0
  0
LINE
  5
BC40
  8
0
 10
61.5352567399045967
 20
27.7315517746980902
 30
0.0
 11
61.5419272089912184
 21
27.7294085972841984
 31
0.0
  0
LINE
  5
BC41
  8
0
 10
61.5419272089912184
 20
27.7294085972841984
 30
0.0
 11
61.5330542399352325
 21
27.72660792289809
 31
0.0
  0
LINE
  5
BC42
  8
0
 10
61.5330542399352325
 20
27.72660792289809
 30
0.0
 11
61.5046413329352433
 21
27.72660792289809
 31
0.0
  0
LINE
  5
BC43
  8
0
 10
61.5046413329352433
 20
27.72660792289809
 30
0.0
 11
61.4957683638352322
 21
27.7294085972980895
 31
0.0
  0
LINE
  5
BC44
  8
0
 10
61.4957683638352322
 20
27.7294085972980895
 30
0.0
 11
61.5029432482873588
 21
27.7315517746980902
 31
0.0
  0
LINE
  5
BC45
  8
0
 10
61.5029432482922118
 20
27.7423137147641086
 30
0.0
 11
61.5352567399094426
 21
27.7423137147641086
 31
0.0
  0
LINE
  5
BC46
  8
0
 10
61.5352567399094426
 20
27.7423137147641086
 30
0.0
 11
61.5419272089960501
 21
27.7401705373502097
 31
0.0
  0
LINE
  5
BC47
  8
0
 10
61.5419272089960501
 20
27.7401705373502097
 30
0.0
 11
61.5330542399400713
 21
27.7373698629641083
 31
0.0
  0
LINE
  5
BC48
  8
0
 10
61.5330542399400713
 20
27.7373698629641083
 30
0.0
 11
61.5046413329400679
 21
27.7373698629641083
 31
0.0
  0
LINE
  5
BC49
  8
0
 10
61.5046413329400679
 20
27.7373698629641083
 30
0.0
 11
61.4957683638400709
 21
27.7401705373641114
 31
0.0
  0
LINE
  5
BC4A
  8
0
 10
61.4957683638400709
 20
27.7401705373641114
 30
0.0
 11
61.5029432482922118
 21
27.7423137147641086
 31
0.0
  0
LINE
  5
BC4B
  8
0
 10
61.5029432482922118
 20
27.7530756547640998
 30
0.0
 11
61.5352567399094426
 21
27.7530756547640998
 31
0.0
  0
LINE
  5
BC4C
  8
0
 10
61.5352567399094426
 20
27.7530756547640998
 30
0.0
 11
61.5419272089960501
 21
27.7509324773502115
 31
0.0
  0
LINE
  5
BC4D
  8
0
 10
61.5419272089960501
 20
27.7509324773502115
 30
0.0
 11
61.5330542399400713
 21
27.7481318029641102
 31
0.0
  0
LINE
  5
BC4E
  8
0
 10
61.5330542399400713
 20
27.7481318029641102
 30
0.0
 11
61.5046413329400679
 21
27.7481318029641102
 31
0.0
  0
LINE
  5
BC4F
  8
0
 10
61.5046413329400679
 20
27.7481318029641102
 30
0.0
 11
61.4957683638400709
 21
27.7509324773640991
 31
0.0
  0
LINE
  5
BC50
  8
0
 10
61.4957683638400709
 20
27.7509324773640991
 30
0.0
 11
61.5029432482922118
 21
27.7530756547640998
 31
0.0
  0
LINE
  5
BC51
  8
0
 10
61.5026910406314471
 20
27.7638375947641087
 30
0.0
 11
61.5350045322486778
 21
27.7638375947641016
 31
0.0
  0
LINE
  5
BC52
  8
0
 10
61.5350045322486778
 20
27.7638375947641016
 30
0.0
 11
61.5416750013353067
 21
27.7616944173502098
 31
0.0
  0
LINE
  5
BC53
  8
0
 10
61.5416750013353067
 20
27.7616944173502098
 30
0.0
 11
61.5328020322793208
 21
27.7588937429641085
 31
0.0
  0
LINE
  5
BC54
  8
0
 10
61.5328020322793208
 20
27.7588937429641085
 30
0.0
 11
61.5043891252793102
 21
27.7588937429641085
 31
0.0
  0
LINE
  5
BC55
  8
0
 10
61.5043891252793102
 20
27.7588937429641085
 30
0.0
 11
61.4955161561793204
 21
27.7616944173641009
 31
0.0
  0
LINE
  5
BC56
  8
0
 10
61.4955161561793204
 20
27.7616944173641009
 30
0.0
 11
61.5026910406314471
 21
27.7638375947641016
 31
0.0
  0
LINE
  5
BC57
  8
0
 10
61.541419222468619
 20
27.7830579558853792
 30
0.0
 11
61.5330542399400713
 21
27.7804176229641016
 31
0.0
  0
LINE
  5
BC58
  8
0
 10
61.5330542399400713
 20
27.7804176229641016
 30
0.0
 11
61.5046413329400679
 21
27.7804176229641016
 31
0.0
  0
LINE
  5
BC59
  8
0
 10
61.5046413329400679
 20
27.7804176229641016
 30
0.0
 11
61.4957683638400709
 21
27.7832182973641117
 31
0.0
  0
LINE
  5
BC5A
  8
0
 10
61.4957683638400709
 20
27.7832182973641117
 30
0.0
 11
61.5028216388719571
 21
27.7853251493622402
 31
0.0
  0
LINE
  5
BC5B
  8
0
 10
61.5029432482922118
 20
27.7745995347641106
 30
0.0
 11
61.5352567399094426
 21
27.7745995347641106
 31
0.0
  0
LINE
  5
BC5C
  8
0
 10
61.5352567399094426
 20
27.7745995347641106
 30
0.0
 11
61.5419272089960501
 21
27.7724563573502117
 31
0.0
  0
LINE
  5
BC5D
  8
0
 10
61.5419272089960501
 20
27.7724563573502117
 30
0.0
 11
61.5330542399400713
 21
27.7696556829640997
 31
0.0
  0
LINE
  5
BC5E
  8
0
 10
61.5330542399400713
 20
27.7696556829640997
 30
0.0
 11
61.5046413329400679
 21
27.7696556829640997
 31
0.0
  0
LINE
  5
BC5F
  8
0
 10
61.5046413329400679
 20
27.7696556829640997
 30
0.0
 11
61.4957683638400709
 21
27.7724563573640992
 31
0.0
  0
LINE
  5
BC60
  8
0
 10
61.4957683638400709
 20
27.7724563573640992
 30
0.0
 11
61.5029432482922118
 21
27.7745995347641106
 31
0.0
  0
LINE
  5
BC61
  8
0
 10
61.5540864808474808
 20
27.7046469246641003
 30
0.0
 11
61.5863999724647186
 21
27.7046469246641003
 31
0.0
  0
LINE
  5
BC62
  8
0
 10
61.5863999724647186
 20
27.7046469246641003
 30
0.0
 11
61.5930704415513404
 21
27.7025037472502191
 31
0.0
  0
LINE
  5
BC63
  8
0
 10
61.5930704415513404
 20
27.7025037472502191
 30
0.0
 11
61.5841974724953474
 21
27.6997030728641001
 31
0.0
  0
LINE
  5
BC64
  8
0
 10
61.5841974724953474
 20
27.6997030728641001
 30
0.0
 11
61.5557845654953582
 21
27.6997030728641001
 31
0.0
  0
LINE
  5
BC65
  8
0
 10
61.5557845654953582
 20
27.6997030728641001
 30
0.0
 11
61.546911596395347
 21
27.7025037472641102
 31
0.0
  0
LINE
  5
BC66
  8
0
 10
61.546911596395347
 20
27.7025037472641102
 30
0.0
 11
61.5540864808474808
 21
27.7046469246641003
 31
0.0
  0
LINE
  5
BC67
  8
0
 10
61.5540864808474808
 20
27.7154088646957888
 30
0.0
 11
61.5863999724647186
 21
27.7154088646957888
 31
0.0
  0
LINE
  5
BC68
  8
0
 10
61.5863999724647186
 20
27.7154088646957888
 30
0.0
 11
61.5930704415513404
 21
27.7132656872819005
 31
0.0
  0
LINE
  5
BC69
  8
0
 10
61.5930704415513404
 20
27.7132656872819005
 30
0.0
 11
61.5841974724953474
 21
27.7104650128957886
 31
0.0
  0
LINE
  5
BC6A
  8
0
 10
61.5841974724953474
 20
27.7104650128957886
 30
0.0
 11
61.5557845654953582
 21
27.7104650128957886
 31
0.0
  0
LINE
  5
BC6B
  8
0
 10
61.5557845654953582
 20
27.7104650128957886
 30
0.0
 11
61.546911596395347
 21
27.7132656872957917
 31
0.0
  0
LINE
  5
BC6C
  8
0
 10
61.546911596395347
 20
27.7132656872957917
 30
0.0
 11
61.5540864808474808
 21
27.7154088646957888
 31
0.0
  0
LINE
  5
BC6D
  8
0
 10
61.5540864808373698
 20
27.7261708046980893
 30
0.0
 11
61.5863999724546005
 21
27.7261708046980893
 31
0.0
  0
LINE
  5
BC6E
  8
0
 10
61.5863999724546005
 20
27.7261708046980893
 30
0.0
 11
61.5930704415412222
 21
27.724027627284201
 31
0.0
  0
LINE
  5
BC6F
  8
0
 10
61.5930704415412222
 20
27.724027627284201
 30
0.0
 11
61.5841974724852292
 21
27.721226952898089
 31
0.0
  0
LINE
  5
BC70
  8
0
 10
61.5841974724852292
 20
27.721226952898089
 30
0.0
 11
61.5557845654852329
 21
27.721226952898089
 31
0.0
  0
LINE
  5
BC71
  8
0
 10
61.5557845654852329
 20
27.721226952898089
 30
0.0
 11
61.5469115963852431
 21
27.7240276272980886
 31
0.0
  0
LINE
  5
BC72
  8
0
 10
61.5469115963852431
 20
27.7240276272980886
 30
0.0
 11
61.5540864808373698
 21
27.7261708046980893
 31
0.0
  0
LINE
  5
BC73
  8
0
 10
61.5540864808422015
 20
27.7369327447641112
 30
0.0
 11
61.5863999724594322
 21
27.7369327447641112
 31
0.0
  0
LINE
  5
BC74
  8
0
 10
61.5863999724594322
 20
27.7369327447641112
 30
0.0
 11
61.5930704415460468
 21
27.7347895673502087
 31
0.0
  0
LINE
  5
BC75
  8
0
 10
61.5930704415460468
 20
27.7347895673502087
 30
0.0
 11
61.5841974724900609
 21
27.731988892964111
 31
0.0
  0
LINE
  5
BC76
  8
0
 10
61.5841974724900609
 20
27.731988892964111
 30
0.0
 11
61.5557845654900717
 21
27.731988892964111
 31
0.0
  0
LINE
  5
BC77
  8
0
 10
61.5557845654900717
 20
27.731988892964111
 30
0.0
 11
61.5469115963900677
 21
27.7347895673640998
 31
0.0
  0
LINE
  5
BC78
  8
0
 10
61.5469115963900677
 20
27.7347895673640998
 30
0.0
 11
61.5540864808422015
 21
27.7369327447641112
 31
0.0
  0
LINE
  5
BC79
  8
0
 10
61.5540864808422015
 20
27.7476946847641095
 30
0.0
 11
61.5863999724594322
 21
27.7476946847641095
 31
0.0
  0
LINE
  5
BC7A
  8
0
 10
61.5863999724594322
 20
27.7476946847641095
 30
0.0
 11
61.5930704415460468
 21
27.7455515073502106
 31
0.0
  0
LINE
  5
BC7B
  8
0
 10
61.5930704415460468
 20
27.7455515073502106
 30
0.0
 11
61.5841974724900609
 21
27.7427508329640986
 31
0.0
  0
LINE
  5
BC7C
  8
0
 10
61.5841974724900609
 20
27.7427508329640986
 30
0.0
 11
61.5557845654900717
 21
27.7427508329640986
 31
0.0
  0
LINE
  5
BC7D
  8
0
 10
61.5557845654900717
 20
27.7427508329640986
 30
0.0
 11
61.5469115963900677
 21
27.7455515073641088
 31
0.0
  0
LINE
  5
BC7E
  8
0
 10
61.5469115963900677
 20
27.7455515073641088
 30
0.0
 11
61.5540864808422015
 21
27.7476946847641095
 31
0.0
  0
LINE
  5
BC7F
  8
0
 10
61.553834273181451
 20
27.7584566247641007
 30
0.0
 11
61.5861477647986817
 21
27.7584566247641007
 31
0.0
  0
LINE
  5
BC80
  8
0
 10
61.5861477647986817
 20
27.7584566247641007
 30
0.0
 11
61.5928182338853105
 21
27.7563134473502195
 31
0.0
  0
LINE
  5
BC81
  8
0
 10
61.5928182338853105
 20
27.7563134473502195
 30
0.0
 11
61.5839452648293175
 21
27.7535127729641005
 31
0.0
  0
LINE
  5
BC82
  8
0
 10
61.5839452648293175
 20
27.7535127729641005
 30
0.0
 11
61.5555323578293212
 21
27.7535127729641005
 31
0.0
  0
LINE
  5
BC83
  8
0
 10
61.5555323578293212
 20
27.7535127729641005
 30
0.0
 11
61.5466593887293101
 21
27.7563134473641107
 31
0.0
  0
LINE
  5
BC84
  8
0
 10
61.5466593887293101
 20
27.7563134473641107
 30
0.0
 11
61.553834273181451
 21
27.7584566247641007
 31
0.0
  0
LINE
  5
BC85
  8
0
 10
61.5540864808422015
 20
27.7799805047641115
 30
0.0
 11
61.578291359210283
 21
27.7799805047641115
 31
0.0
  0
LINE
  5
BC86
  8
0
 10
61.5901488179822323
 20
27.7787760255965495
 30
0.0
 11
61.5930704415460468
 21
27.7778373273502091
 31
0.0
  0
LINE
  5
BC87
  8
0
 10
61.5930704415460468
 20
27.7778373273502091
 30
0.0
 11
61.5841974724900609
 21
27.7750366529641113
 31
0.0
  0
LINE
  5
BC88
  8
0
 10
61.5841974724900609
 20
27.7750366529641113
 30
0.0
 11
61.5557845654900717
 21
27.7750366529641113
 31
0.0
  0
LINE
  5
BC89
  8
0
 10
61.5557845654900717
 20
27.7750366529641113
 30
0.0
 11
61.5469115963900677
 21
27.7778373273641002
 31
0.0
  0
LINE
  5
BC8A
  8
0
 10
61.5469115963900677
 20
27.7778373273641002
 30
0.0
 11
61.5540864808422015
 21
27.7799805047641115
 31
0.0
  0
LINE
  5
BC8B
  8
0
 10
61.5540864808422015
 20
27.769218564764099
 30
0.0
 11
61.5863999724594322
 21
27.769218564764099
 31
0.0
  0
LINE
  5
BC8C
  8
0
 10
61.5863999724594322
 20
27.769218564764099
 30
0.0
 11
61.5930704415460468
 21
27.7670753873502107
 31
0.0
  0
LINE
  5
BC8D
  8
0
 10
61.5930704415460468
 20
27.7670753873502107
 30
0.0
 11
61.5841974724900609
 21
27.7642747129640988
 31
0.0
  0
LINE
  5
BC8E
  8
0
 10
61.5841974724900609
 20
27.7642747129640988
 30
0.0
 11
61.5557845654900717
 21
27.7642747129640988
 31
0.0
  0
LINE
  5
BC8F
  8
0
 10
61.5557845654900717
 20
27.7642747129640988
 30
0.0
 11
61.5469115963900677
 21
27.767075387364109
 31
0.0
  0
LINE
  5
BC90
  8
0
 10
61.5469115963900677
 20
27.767075387364109
 30
0.0
 11
61.5540864808422015
 21
27.769218564764099
 31
0.0
  0
LINE
  5
BC91
  8
0
 10
61.6052297133474909
 20
27.7100278947957896
 30
0.0
 11
61.6375432049647216
 21
27.7100278947957896
 31
0.0
  0
LINE
  5
BC92
  8
0
 10
61.6375432049647216
 20
27.7100278947957896
 30
0.0
 11
61.6442136740513433
 21
27.7078847173819014
 31
0.0
  0
LINE
  5
BC93
  8
0
 10
61.6442136740513433
 20
27.7078847173819014
 30
0.0
 11
61.6353407049953574
 21
27.7050840429957894
 31
0.0
  0
LINE
  5
BC94
  8
0
 10
61.6353407049953574
 20
27.7050840429957894
 30
0.0
 11
61.6069277979953611
 21
27.7050840429957894
 31
0.0
  0
LINE
  5
BC95
  8
0
 10
61.6069277979953611
 20
27.7050840429957894
 30
0.0
 11
61.59805482889535
 21
27.707884717395789
 31
0.0
  0
LINE
  5
BC96
  8
0
 10
61.59805482889535
 20
27.707884717395789
 30
0.0
 11
61.6052297133474909
 21
27.7100278947957896
 31
0.0
  0
LINE
  5
BC97
  8
0
 10
61.6052297133373727
 20
27.7207898347980901
 30
0.0
 11
61.6375432049546035
 21
27.7207898347980901
 31
0.0
  0
LINE
  5
BC98
  8
0
 10
61.6375432049546035
 20
27.7207898347980901
 30
0.0
 11
61.6442136740412323
 21
27.7186466573841983
 31
0.0
  0
LINE
  5
BC99
  8
0
 10
61.6442136740412323
 20
27.7186466573841983
 30
0.0
 11
61.6353407049852393
 21
27.7158459829980899
 31
0.0
  0
LINE
  5
BC9A
  8
0
 10
61.6353407049852393
 20
27.7158459829980899
 30
0.0
 11
61.6069277979852288
 21
27.7158459829980899
 31
0.0
  0
LINE
  5
BC9B
  8
0
 10
61.6069277979852288
 20
27.7158459829980899
 30
0.0
 11
61.598054828885239
 21
27.7186466573980894
 31
0.0
  0
LINE
  5
BC9C
  8
0
 10
61.598054828885239
 20
27.7186466573980894
 30
0.0
 11
61.6052297133373727
 21
27.7207898347980901
 31
0.0
  0
LINE
  5
BC9D
  8
0
 10
61.6052297133421973
 20
27.7315517748641014
 30
0.0
 11
61.6375432049594281
 21
27.7315517748641014
 31
0.0
  0
LINE
  5
BC9E
  8
0
 10
61.6375432049594281
 20
27.7315517748641014
 30
0.0
 11
61.6442136740460569
 21
27.7294085974502202
 31
0.0
  0
LINE
  5
BC9F
  8
0
 10
61.6442136740460569
 20
27.7294085974502202
 30
0.0
 11
61.635340704990071
 21
27.7266079230641083
 31
0.0
  0
LINE
  5
BCA0
  8
0
 10
61.635340704990071
 20
27.7266079230641083
 30
0.0
 11
61.6069277979900605
 21
27.7266079230641083
 31
0.0
  0
LINE
  5
BCA1
  8
0
 10
61.6069277979900605
 20
27.7266079230641083
 30
0.0
 11
61.5980548288900707
 21
27.7294085974641114
 31
0.0
  0
LINE
  5
BCA2
  8
0
 10
61.5980548288900707
 20
27.7294085974641114
 30
0.0
 11
61.6052297133421973
 21
27.7315517748641014
 31
0.0
  0
LINE
  5
BCA3
  8
0
 10
61.6052297133421973
 20
27.7423137148640997
 30
0.0
 11
61.6375432049594281
 21
27.7423137148640997
 31
0.0
  0
LINE
  5
BCA4
  8
0
 10
61.6375432049594281
 20
27.7423137148640997
 30
0.0
 11
61.6442136740460569
 21
27.7401705374502114
 31
0.0
  0
LINE
  5
BCA5
  8
0
 10
61.6442136740460569
 20
27.7401705374502114
 30
0.0
 11
61.635340704990071
 21
27.7373698630640995
 31
0.0
  0
LINE
  5
BCA6
  8
0
 10
61.635340704990071
 20
27.7373698630640995
 30
0.0
 11
61.6069277979900605
 21
27.7373698630640995
 31
0.0
  0
LINE
  5
BCA7
  8
0
 10
61.6069277979900605
 20
27.7373698630640995
 30
0.0
 11
61.5980548288900707
 21
27.7401705374641097
 31
0.0
  0
LINE
  5
BCA8
  8
0
 10
61.5980548288900707
 20
27.7401705374641097
 30
0.0
 11
61.6052297133421973
 21
27.7423137148640997
 31
0.0
  0
LINE
  5
BCA9
  8
0
 10
61.6049775056814468
 20
27.7530756548641087
 30
0.0
 11
61.6372909972986776
 21
27.7530756548641016
 31
0.0
  0
LINE
  5
BCAA
  8
0
 10
61.6372909972986776
 20
27.7530756548641016
 30
0.0
 11
61.6439614663852993
 21
27.7509324774502097
 31
0.0
  0
LINE
  5
BCAB
  8
0
 10
61.6439614663852993
 20
27.7509324774502097
 30
0.0
 11
61.6350884973293205
 21
27.7481318030641084
 31
0.0
  0
LINE
  5
BCAC
  8
0
 10
61.6350884973293205
 20
27.7481318030641084
 30
0.0
 11
61.6066755903293171
 21
27.7481318030641084
 31
0.0
  0
LINE
  5
BCAD
  8
0
 10
61.6066755903293171
 20
27.7481318030641084
 30
0.0
 11
61.5978026212293202
 21
27.7509324774641009
 31
0.0
  0
LINE
  5
BCAE
  8
0
 10
61.5978026212293202
 20
27.7509324774641009
 30
0.0
 11
61.6049775056814468
 21
27.7530756548641016
 31
0.0
  0
LINE
  5
BCAF
  8
0
 10
61.6052297133421973
 20
27.7745995348641017
 30
0.0
 11
61.6162485011419676
 21
27.7745995348641017
 31
0.0
  0
LINE
  5
BCB0
  8
0
 10
61.6373578995535425
 20
27.770292392728031
 30
0.0
 11
61.635340704990071
 21
27.7696556830641015
 31
0.0
  0
LINE
  5
BCB1
  8
0
 10
61.635340704990071
 20
27.7696556830641015
 30
0.0
 11
61.6069277979900605
 21
27.7696556830641015
 31
0.0
  0
LINE
  5
BCB2
  8
0
 10
61.6069277979900605
 20
27.7696556830641015
 30
0.0
 11
61.5980548288900707
 21
27.7724563574641117
 31
0.0
  0
LINE
  5
BCB3
  8
0
 10
61.5980548288900707
 20
27.7724563574641117
 30
0.0
 11
61.6052297133421973
 21
27.7745995348641017
 31
0.0
  0
LINE
  5
BCB4
  8
0
 10
61.6052297133421973
 20
27.7638375948641105
 30
0.0
 11
61.6375432049594281
 21
27.7638375948641105
 31
0.0
  0
LINE
  5
BCB5
  8
0
 10
61.6375432049594281
 20
27.7638375948641105
 30
0.0
 11
61.6442136740460569
 21
27.7616944174502116
 31
0.0
  0
LINE
  5
BCB6
  8
0
 10
61.6442136740460569
 20
27.7616944174502116
 30
0.0
 11
61.635340704990071
 21
27.7588937430641103
 31
0.0
  0
LINE
  5
BCB7
  8
0
 10
61.635340704990071
 20
27.7588937430641103
 30
0.0
 11
61.6069277979900605
 21
27.7588937430641103
 31
0.0
  0
LINE
  5
BCB8
  8
0
 10
61.6069277979900605
 20
27.7588937430641103
 30
0.0
 11
61.5980548288900707
 21
27.7616944174640992
 31
0.0
  0
LINE
  5
BCB9
  8
0
 10
61.5980548288900707
 20
27.7616944174640992
 30
0.0
 11
61.6052297133421973
 21
27.7638375948641105
 31
0.0
  0
LINE
  5
BCBA
  8
0
 10
61.6563729458373686
 20
27.7154088647980892
 30
0.0
 11
61.6886864374545993
 21
27.7154088647980892
 31
0.0
  0
LINE
  5
BCBB
  8
0
 10
61.6886864374545993
 20
27.7154088647980892
 30
0.0
 11
61.6953569065412211
 21
27.7132656873842009
 31
0.0
  0
LINE
  5
BCBC
  8
0
 10
61.6953569065412211
 20
27.7132656873842009
 30
0.0
 11
61.6864839374852281
 21
27.710465012998089
 31
0.0
  0
LINE
  5
BCBD
  8
0
 10
61.6864839374852281
 20
27.710465012998089
 30
0.0
 11
61.6580710304852389
 21
27.710465012998089
 31
0.0
  0
LINE
  5
BCBE
  8
0
 10
61.6580710304852389
 20
27.710465012998089
 30
0.0
 11
61.6491980613852419
 21
27.7132656873980885
 31
0.0
  0
LINE
  5
BCBF
  8
0
 10
61.6491980613852419
 20
27.7132656873980885
 30
0.0
 11
61.6563729458373686
 21
27.7154088647980892
 31
0.0
  0
LINE
  5
BCC0
  8
0
 10
61.6563729458422003
 20
27.7261708048641111
 30
0.0
 11
61.688686437459431
 21
27.7261708048641111
 31
0.0
  0
LINE
  5
BCC1
  8
0
 10
61.688686437459431
 20
27.7261708048641111
 30
0.0
 11
61.6953569065460599
 21
27.7240276274502087
 31
0.0
  0
LINE
  5
BCC2
  8
0
 10
61.6953569065460599
 20
27.7240276274502087
 30
0.0
 11
61.6864839374900598
 21
27.7212269530641109
 31
0.0
  0
LINE
  5
BCC3
  8
0
 10
61.6864839374900598
 20
27.7212269530641109
 30
0.0
 11
61.6580710304900705
 21
27.7212269530641109
 31
0.0
  0
LINE
  5
BCC4
  8
0
 10
61.6580710304900705
 20
27.7212269530641109
 30
0.0
 11
61.6491980613900665
 21
27.7240276274640998
 31
0.0
  0
LINE
  5
BCC5
  8
0
 10
61.6491980613900665
 20
27.7240276274640998
 30
0.0
 11
61.6563729458422003
 21
27.7261708048641111
 31
0.0
  0
LINE
  5
BCC6
  8
0
 10
61.6563729458422003
 20
27.7369327448640988
 30
0.0
 11
61.688686437459431
 21
27.7369327448640988
 31
0.0
  0
LINE
  5
BCC7
  8
0
 10
61.688686437459431
 20
27.7369327448640988
 30
0.0
 11
61.6953569065460599
 21
27.7347895674502105
 31
0.0
  0
LINE
  5
BCC8
  8
0
 10
61.6953569065460599
 20
27.7347895674502105
 30
0.0
 11
61.6864839374900598
 21
27.7319888930641092
 31
0.0
  0
LINE
  5
BCC9
  8
0
 10
61.6864839374900598
 20
27.7319888930641092
 30
0.0
 11
61.6580710304900705
 21
27.7319888930641092
 31
0.0
  0
LINE
  5
BCCA
  8
0
 10
61.6580710304900705
 20
27.7319888930641092
 30
0.0
 11
61.6491980613900665
 21
27.7347895674641087
 31
0.0
  0
LINE
  5
BCCB
  8
0
 10
61.6491980613900665
 20
27.7347895674641087
 30
0.0
 11
61.6563729458422003
 21
27.7369327448640988
 31
0.0
  0
LINE
  5
BCCC
  8
0
 10
61.6561207381814498
 20
27.7476946848641113
 30
0.0
 11
61.6884342297986805
 21
27.7476946848641113
 31
0.0
  0
LINE
  5
BCCD
  8
0
 10
61.6884342297986805
 20
27.7476946848641113
 30
0.0
 11
61.6951046988853093
 21
27.7455515074502088
 31
0.0
  0
LINE
  5
BCCE
  8
0
 10
61.6951046988853093
 20
27.7455515074502088
 30
0.0
 11
61.6862317298293306
 21
27.7427508330641004
 31
0.0
  0
LINE
  5
BCCF
  8
0
 10
61.6862317298293306
 20
27.7427508330641004
 30
0.0
 11
61.65781882282932
 21
27.7427508330641004
 31
0.0
  0
LINE
  5
BCD0
  8
0
 10
61.65781882282932
 20
27.7427508330641004
 30
0.0
 11
61.6489458537293231
 21
27.7455515074640999
 31
0.0
  0
LINE
  5
BCD1
  8
0
 10
61.6489458537293231
 20
27.7455515074640999
 30
0.0
 11
61.6561207381814498
 21
27.7476946848641113
 31
0.0
  0
LINE
  5
BCD2
  8
0
 10
61.6650881627030572
 20
27.7642747130641112
 30
0.0
 11
61.6580710304900705
 21
27.7642747130641112
 31
0.0
  0
LINE
  5
BCD3
  8
0
 10
61.6580710304900705
 20
27.7642747130641112
 30
0.0
 11
61.6491980613900665
 21
27.7670753874641107
 31
0.0
  0
LINE
  5
BCD4
  8
0
 10
61.6491980613900665
 20
27.7670753874641107
 30
0.0
 11
61.6505529147058198
 21
27.7674800895922012
 31
0.0
  0
LINE
  5
BCD5
  8
0
 10
61.6563729458422003
 20
27.7584566248640989
 30
0.0
 11
61.688686437459431
 21
27.7584566248640989
 31
0.0
  0
LINE
  5
BCD6
  8
0
 10
61.688686437459431
 20
27.7584566248640989
 30
0.0
 11
61.6953569065460599
 21
27.7563134474502107
 31
0.0
  0
LINE
  5
BCD7
  8
0
 10
61.6953569065460599
 20
27.7563134474502107
 30
0.0
 11
61.6864839374900598
 21
27.7535127730640987
 31
0.0
  0
LINE
  5
BCD8
  8
0
 10
61.6864839374900598
 20
27.7535127730640987
 30
0.0
 11
61.6580710304900705
 21
27.7535127730640987
 31
0.0
  0
LINE
  5
BCD9
  8
0
 10
61.6580710304900705
 20
27.7535127730640987
 30
0.0
 11
61.6491980613900665
 21
27.7563134474641089
 31
0.0
  0
LINE
  5
BCDA
  8
0
 10
61.6491980613900665
 20
27.7563134474641089
 30
0.0
 11
61.6563729458422003
 21
27.7584566248640989
 31
0.0
  0
LINE
  5
BCDB
  8
0
 10
61.7075634325469622
 20
27.7315859575731096
 30
0.0
 11
61.7285367847196724
 21
27.7315859575731096
 31
0.0
  0
LINE
  5
BCDC
  8
0
 10
61.7279915994169031
 20
27.7266421057731094
 30
0.0
 11
61.7092615171948182
 21
27.7266421057731094
 31
0.0
  0
LINE
  5
BCDD
  8
0
 10
61.7092615171948182
 20
27.7266421057731094
 30
0.0
 11
61.7003885480948284
 21
27.7294427801731089
 31
0.0
  0
LINE
  5
BCDE
  8
0
 10
61.7003885480948284
 20
27.7294427801731089
 30
0.0
 11
61.7075634325469622
 21
27.7315859575731096
 31
0.0
  0
LINE
  5
BCDF
  8
0
 10
61.7073112248862117
 20
27.7423478975731115
 30
0.0
 11
61.7214018619870686
 21
27.7423478975731115
 31
0.0
  0
LINE
  5
BCE0
  8
0
 10
61.7261786954438634
 20
27.7374040457731112
 30
0.0
 11
61.7090093095340819
 21
27.7374040457731112
 31
0.0
  0
LINE
  5
BCE1
  8
0
 10
61.7090093095340819
 20
27.7374040457731112
 30
0.0
 11
61.7001363404340708
 21
27.7402047201731214
 31
0.0
  0
LINE
  5
BCE2
  8
0
 10
61.7001363404340708
 20
27.7402047201731214
 30
0.0
 11
61.7073112248862117
 21
27.7423478975731115
 31
0.0
  0
LINE
  5
BCE3
  8
0
 10
61.7123009990852012
 20
27.7481659857731202
 30
0.0
 11
61.7092615171948182
 21
27.7481659857731202
 31
0.0
  0
LINE
  5
BCE4
  8
0
 10
61.7092615171948182
 20
27.7481659857731202
 30
0.0
 11
61.7003885480948284
 21
27.7509666601731091
 31
0.0
  0
LINE
  5
BCE5
  8
0
 10
61.7003885480948284
 20
27.7509666601731091
 30
0.0
 11
61.7045608815776205
 21
27.7522129591045115
 31
0.0
  0
LINE
  5
BCE6
  8
0
 10
61.4165591459400773
 20
27.7075559687641118
 30
0.0
 11
61.432718067248679
 21
27.7075559687641118
 31
0.0
  0
LINE
  5
BCE7
  8
0
 10
61.432718067248679
 20
27.7075559687641118
 30
0.0
 11
61.4393885363353078
 21
27.7054127913502093
 31
0.0
  0
LINE
  5
BCE8
  8
0
 10
61.4393885363353078
 20
27.7054127913502093
 30
0.0
 11
61.4305155672793219
 21
27.7026121169641115
 31
0.0
  0
LINE
  5
BCE9
  8
0
 10
61.4305155672793219
 20
27.7026121169641115
 30
0.0
 11
61.4165591459400773
 21
27.7026121169641115
 31
0.0
  0
LINE
  5
BCEA
  8
0
 10
61.4165591459400773
 20
27.7149717464641014
 30
0.0
 11
61.432718067248679
 21
27.7149717464641014
 31
0.0
  0
LINE
  5
BCEB
  8
0
 10
61.432718067248679
 20
27.7149717464641014
 30
0.0
 11
61.4393885363353078
 21
27.7128285690502096
 31
0.0
  0
LINE
  5
BCEC
  8
0
 10
61.4393885363353078
 20
27.7128285690502096
 30
0.0
 11
61.4305155672793219
 21
27.7100278946641083
 31
0.0
  0
LINE
  5
BCED
  8
0
 10
61.4305155672793219
 20
27.7100278946641083
 30
0.0
 11
61.4165591459400773
 21
27.7100278946641083
 31
0.0
  0
LINE
  5
BCEE
  8
0
 10
61.4165591459400773
 20
27.7257336864641104
 30
0.0
 11
61.4329702749147231
 21
27.7257336864641104
 31
0.0
  0
LINE
  5
BCEF
  8
0
 10
61.4329702749147231
 20
27.7257336864641104
 30
0.0
 11
61.4396407440013377
 21
27.7235905090502115
 31
0.0
  0
LINE
  5
BCF0
  8
0
 10
61.4396407440013377
 20
27.7235905090502115
 30
0.0
 11
61.4307677749453589
 21
27.7207898346641102
 31
0.0
  0
LINE
  5
BCF1
  8
0
 10
61.4307677749453589
 20
27.7207898346641102
 30
0.0
 11
61.4165591459400773
 21
27.7207898346641102
 31
0.0
  0
LINE
  5
BCF2
  8
0
 10
61.4165591459400773
 20
27.7364956264957883
 30
0.0
 11
61.4329702749147231
 21
27.7364956264957883
 31
0.0
  0
LINE
  5
BCF3
  8
0
 10
61.4329702749147231
 20
27.7364956264957883
 30
0.0
 11
61.4396407440013377
 21
27.7343524490819
 31
0.0
  0
LINE
  5
BCF4
  8
0
 10
61.4396407440013377
 20
27.7343524490819
 30
0.0
 11
61.4307677749453589
 21
27.7315517746957916
 31
0.0
  0
LINE
  5
BCF5
  8
0
 10
61.4307677749453589
 20
27.7315517746957916
 30
0.0
 11
61.4165591459400773
 21
27.7315517746957916
 31
0.0
  0
LINE
  5
BCF6
  8
0
 10
61.4165591459400773
 20
27.7472575664980887
 30
0.0
 11
61.4329702749045978
 21
27.7472575664980887
 31
0.0
  0
LINE
  5
BCF7
  8
0
 10
61.4329702749045978
 20
27.7472575664980887
 30
0.0
 11
61.4396407439912196
 21
27.7451143890841898
 31
0.0
  0
LINE
  5
BCF8
  8
0
 10
61.4396407439912196
 20
27.7451143890841898
 30
0.0
 11
61.4307677749352266
 21
27.7423137146980885
 31
0.0
  0
LINE
  5
BCF9
  8
0
 10
61.4307677749352266
 20
27.7423137146980885
 30
0.0
 11
61.4165591459400773
 21
27.7423137146980885
 31
0.0
  0
LINE
  5
BCFA
  8
0
 10
61.4165591459400773
 20
27.7580195065641
 30
0.0
 11
61.4329702749094295
 21
27.7580195065641
 31
0.0
  0
LINE
  5
BCFB
  8
0
 10
61.4329702749094295
 20
27.7580195065641
 30
0.0
 11
61.4396407439960583
 21
27.7558763291502117
 31
0.0
  0
LINE
  5
BCFC
  8
0
 10
61.4396407439960583
 20
27.7558763291502117
 30
0.0
 11
61.4307677749400582
 21
27.7530756547640998
 31
0.0
  0
LINE
  5
BCFD
  8
0
 10
61.4307677749400582
 20
27.7530756547640998
 30
0.0
 11
61.4165591459400773
 21
27.7530756547640998
 31
0.0
  0
LINE
  5
BCFE
  8
0
 10
61.4165591459400773
 20
27.7687814465640983
 30
0.0
 11
61.4329702749094295
 21
27.7687814465640983
 31
0.0
  0
LINE
  5
BCFF
  8
0
 10
61.4329702749094295
 20
27.7687814465640983
 30
0.0
 11
61.4396407439960583
 21
27.76663826915021
 31
0.0
  0
LINE
  5
BD00
  8
0
 10
61.4396407439960583
 20
27.76663826915021
 30
0.0
 11
61.4307677749400582
 21
27.7638375947641016
 31
0.0
  0
LINE
  5
BD01
  8
0
 10
61.4307677749400582
 20
27.7638375947641016
 30
0.0
 11
61.4165591459400773
 21
27.7638375947641016
 31
0.0
  0
LINE
  5
BD02
  8
0
 10
61.4165591459400773
 20
27.7795433865641108
 30
0.0
 11
61.432718067248679
 21
27.7795433865641108
 31
0.0
  0
LINE
  5
BD03
  8
0
 10
61.432718067248679
 20
27.7795433865641108
 30
0.0
 11
61.4393885363353078
 21
27.7774002091502084
 31
0.0
  0
LINE
  5
BD04
  8
0
 10
61.4393885363353078
 20
27.7774002091502084
 30
0.0
 11
61.4305155672793219
 21
27.7745995347641106
 31
0.0
  0
LINE
  5
BD05
  8
0
 10
61.4305155672793219
 20
27.7745995347641106
 30
0.0
 11
61.4165591459400773
 21
27.7745995347641106
 31
0.0
  0
LINE
  5
BD06
  8
0
 10
61.4366595587333606
 20
27.7872211643284714
 30
0.0
 11
61.4307677749400582
 21
27.7853614747640982
 31
0.0
  0
LINE
  5
BD07
  8
0
 10
61.4307677749400582
 20
27.7853614747640982
 30
0.0
 11
61.4165591459400773
 21
27.7853614747640982
 31
0.0
  0
ENDBLK
  5
BD0B
  8
0
  0
ENDSEC
  0
SECTION
  2
ENTITIES
  0
ATTDEF
  5
3930
  8
DEFPOINTS
 10
4493.211637214593793
 20
271.312627133121282
 30
0.0
 40
0.001
  1
K-24845ME-4ND
  3

  2
MODELNUMBER
 70
     0
1001
ACDBATTR
1070
     0
1070
     1
  0
ATTDEF
  5
3931
  8
DEFPOINTS
 10
4493.211637214593793
 20
271.3109604664546737
 30
0.0
 40
0.001
  1
ELATE
  3

  2
TRADENAME
 70
     0
1001
ACDBATTR
1070
     0
1070
     1
  0
ATTDEF
  5
3932
  8
DEFPOINTS
 10
4493.211637214593793
 20
271.3092937997880085
 30
0.0
 40
0.001
  1
BATHROOM SINK FAUCET
  3

  2
PRODUCT
 70
     0
1001
ACDBATTR
1070
     0
1070
     1
  0
CIRCLE
  5
C121
  8
0
 10
4493.2101276581252023
 20
271.3101036145927196
 30
0.0
 40
1.3779527558999991
  0
CIRCLE
  5
C122
  8
0
 10
4493.2101276581252023
 20
271.3101036145927196
 30
0.0
 40
0.5118110236
  0
ARC
  5
C123
  8
0
 10
4497.2101276581252023
 20
271.3101036145927196
 30
0.0
 40
1.3779527558999991
 50
278.6438531440865063
 51
261.3866000709768969
  0
LINE
  5
C124
  8
0
 10
4497.0333634249172974
 20
267.9182530076927264
 30
0.0
 11
4497.0333634249172974
 21
269.7124196701756773
 31
0.0
  0
LINE
  5
C125
  8
0
 10
4497.088563424917993
 20
267.863053007692713
 30
0.0
 11
4497.3323892593325581
 21
267.863053007692713
 31
0.0
  0
LINE
  5
C126
  8
0
 10
4497.088563424917993
 20
267.8945456815783928
 30
0.0
 11
4497.3323892593325581
 21
267.8945456815783928
 31
0.0
  0
ARC
  5
C127
  8
0
 10
4497.088563424917993
 20
267.9497456815784062
 30
0.0
 40
0.0552
 50
180.0
 51
270.0
  0
ARC
  5
C128
  8
0
 10
4497.088563424917993
 20
267.9182530076927264
 30
0.0
 40
0.0552
 50
180.0
 51
270.0
  0
LINE
  5
C129
  8
0
 10
4497.3875892593323442
 20
267.9182530076927264
 30
0.0
 11
4497.3875892593323442
 21
269.7124405450285849
 31
0.0
  0
ARC
  5
C12A
  8
0
 10
4497.3323892593325581
 20
267.9497456815784062
 30
0.0
 40
0.0552
 50
270.0
 51
0.0
  0
ARC
  5
C12B
  8
0
 10
4497.3323892593325581
 20
267.9182530076927264
 30
0.0
 40
0.0552
 50
270.0
 51
0.0
  0
ARC
  5
C12C
  8
0
 10
4497.210462713124798
 20
271.3079815851926924
 30
0.0
 40
0.9648904476
 50
307.4462780191100251
 51
232.5547008075643873
  0
ARC
  5
C12D
  8
0
 10
4495.9885634249167197
 20
269.7124196701756773
 30
0.0
 40
1.0447999999999991
 50
0.0
 51
52.5547008075644371
  0
ARC
  5
C12E
  8
0
 10
4498.4323892593329219
 20
269.7124405450285849
 30
0.0
 40
1.0447999999999991
 50
127.4462780191098972
 51
180.0
  0
ARC
  5
C12F
  8
0
 10
4497.2104763421239113
 20
271.3079815851926924
 30
0.0
 40
0.9747465963000044
 50
301.5799575243498793
 51
238.4154694162841963
  0
ENDSEC
  0
EOF
