  0
SECTION
  2
HEADER
  9
$ACADVER
  1
AC1009
  9
$INSBASE
 10
3639.3500311448979119
 20
319.2117535178398953
 30
0.0
  9
$EXTMIN
 10
3631.8697161842978858
 20
316.0170224901588085
 30
0.0
  9
$EXTMAX
 10
3639.3625802380720415
 20
320.5897062738400223
 30
0.0
  9
$LIMMIN
 10
0.0
 20
0.0
  9
$LIMMAX
 10
11.6929133858000007
 20
8.2677165353999982
  9
$ORTHOMODE
 70
     0
  9
$REGENMODE
 70
     1
  9
$FILLMODE
 70
     1
  9
$QTEXTMODE
 70
     0
  9
$MIRRTEXT
 70
     0
  9
$DRAGMODE
 70
     2
  9
$LTSCALE
 40
0.6431102362
  9
$OSMODE
 70
  4095
  9
$ATTMODE
 70
     1
  9
$TEXTSIZE
 40
0.2
  9
$TRACEWID
 40
0.05
  9
$TEXTSTYLE
  7
STANDARD
  9
$CLAYER
  8
0
  9
$CELTYPE
  6
BYLAYER
  9
$CECOLOR
 62
   256
  9
$DIMSCALE
 40
1.0
  9
$DIMASZ
 40
0.1875
  9
$DIMEXO
 40
0.0625
  9
$DIMDLI
 40
0.4443307087
  9
$DIMRND
 40
0.0
  9
$DIMDLE
 40
0.0
  9
$DIMEXE
 40
0.125
  9
$DIMTP
 40
0.01
  9
$DIMTM
 40
0.01
  9
$DIMTXT
 40
2.0
  9
$DIMCEN
 40
0.1052362205
  9
$DIMTSZ
 40
0.0
  9
$DIMTOL
 70
     1
  9
$DIMLIM
 70
     0
  9
$DIMTIH
 70
     1
  9
$DIMTOH
 70
     1
  9
$DIMSE1
 70
     0
  9
$DIMSE2
 70
     0
  9
$DIMTAD
 70
     0
  9
$DIMZIN
 70
     0
  9
$DIMBLK
  1

  9
$DIMASO
 70
     1
  9
$DIMSHO
 70
     1
  9
$DIMPOST
  1
\X
  9
$DIMAPOST
  1

  9
$DIMALT
 70
     1
  9
$DIMALTD
 70
     2
  9
$DIMALTF
 40
25.3999999999999986
  9
$DIMLFAC
 40
1.0
  9
$DIMTOFL
 70
     0
  9
$DIMTVP
 40
0.0
  9
$DIMTIX
 70
     0
  9
$DIMSOXD
 70
     0
  9
$DIMSAH
 70
     0
  9
$DIMBLK1
  1

  9
$DIMBLK2
  1

  9
$DIMSTYLE
  2
STANDARD
  9
$DIMCLRD
 70
     0
  9
$DIMCLRE
 70
     0
  9
$DIMCLRT
 70
     0
  9
$DIMTFAC
 40
1.0
  9
$DIMGAP
 40
0.09
  9
$LUNITS
 70
     2
  9
$LUPREC
 70
     4
  9
$SKETCHINC
 40
0.1
  9
$FILLETRAD
 40
0.0
  9
$AUNITS
 70
     0
  9
$AUPREC
 70
     0
  9
$MENU
  1
.
  9
$ELEVATION
 40
0.0
  9
$PELEVATION
 40
0.0
  9
$THICKNESS
 40
0.0
  9
$LIMCHECK
 70
     0
  9
$BLIPMODE
 70
     0
  9
$CHAMFERA
 40
0.0
  9
$CHAMFERB
 40
0.0
  9
$SKPOLY
 70
     0
  9
$TDCREATE
 40
2458060.468368056230247
  9
$TDUPDATE
 40
2459423.6457870369777083
  9
$TDINDWG
 40
0.7438033565
  9
$TDUSRTIMER
 40
0.7438033565
  9
$USRTIMER
 70
     1
  9
$ANGBASE
 50
0.0
  9
$ANGDIR
 70
     0
  9
$PDMODE
 70
     0
  9
$PDSIZE
 40
0.3125
  9
$PLINEWID
 40
0.0
  9
$COORDS
 70
     1
  9
$SPLFRAME
 70
     0
  9
$SPLINETYPE
 70
     6
  9
$SPLINESEGS
 70
     8
  9
$ATTDIA
 70
     1
  9
$ATTREQ
 70
     1
  9
$HANDLING
 70
     1
  9
$HANDSEED
  5
D0B6
  9
$SURFTAB1
 70
     6
  9
$SURFTAB2
 70
     6
  9
$SURFTYPE
 70
     6
  9
$SURFU
 70
     6
  9
$SURFV
 70
     6
  9
$UCSNAME
  2

  9
$UCSORG
 10
0.0
 20
0.0
 30
0.0
  9
$UCSXDIR
 10
1.0
 20
0.0
 30
0.0
  9
$UCSYDIR
 10
0.0
 20
1.0
 30
0.0
  9
$PUCSNAME
  2

  9
$PUCSORG
 10
0.0
 20
0.0
 30
0.0
  9
$PUCSXDIR
 10
1.0
 20
0.0
 30
0.0
  9
$PUCSYDIR
 10
0.0
 20
1.0
 30
0.0
  9
$USERI1
 70
     0
  9
$USERI2
 70
     0
  9
$USERI3
 70
     0
  9
$USERI4
 70
     0
  9
$USERI5
 70
     0
  9
$USERR1
 40
0.0
  9
$USERR2
 40
0.0
  9
$USERR3
 40
0.0
  9
$USERR4
 40
0.0
  9
$USERR5
 40
0.0
  9
$WORLDVIEW
 70
     1
  9
$SHADEDGE
 70
     3
  9
$SHADEDIF
 70
    70
  9
$TILEMODE
 70
     1
  9
$MAXACTVP
 70
    64
  9
$PLIMCHECK
 70
     0
  9
$PEXTMIN
 10
1.0000000000000000E+20
 20
1.0000000000000000E+20
 30
1.0000000000000000E+20
  9
$PEXTMAX
 10
-1.0000000000000000E+20
 20
-1.0000000000000000E+20
 30
-1.0000000000000000E+20
  9
$PLIMMIN
 10
0.0
 20
0.0
  9
$PLIMMAX
 10
12.0
 20
9.0
  9
$UNITMODE
 70
     0
  9
$VISRETAIN
 70
     1
  9
$PLINEGEN
 70
     0
  9
$PSLTSCALE
 70
     1
  0
ENDSEC
  0
SECTION
  2
TABLES
  0
TABLE
  2
VPORT
 70
     1
  0
VPORT
  2
*ACTIVE
 70
     0
 10
0.0
 20
0.0
 11
1.0
 21
1.0
 12
54.9590722059165273
 22
-3.8709493376586002
 13
0.0
 23
0.0
 14
1.0
 24
1.0
 15
0.0
 25
0.0
 16
0.0
 26
0.0
 36
24.2172351446446505
 17
3580.69287109375
 27
322.4241180419921875
 37
0.0
 40
4.6494284731031792
 41
2.8440779610194902
 42
50.0
 43
0.0
 44
0.0
 50
0.0
 51
0.0
 71
     0
 72
   100
 73
     1
 74
     1
 75
     0
 76
     0
 77
     0
 78
     0
  0
ENDTAB
  0
TABLE
  2
LTYPE
 70
     2
  0
LTYPE
  2
CONTINUOUS
 70
     0
  3
Solid line
 72
    65
 73
     0
 40
0.0
  0
LTYPE
  2
PHANTOM2
 70
     0
  3
___ _ _ ___ _ _ ___ _ _ ___ _ _
 72
    65
 73
     6
 40
1.25
 49
0.625
 49
-0.125
 49
0.125
 49
-0.125
 49
0.125
 49
-0.125
  0
ENDTAB
  0
TABLE
  2
LAYER
 70
     2
  0
LAYER
  2
0
 70
     0
 62
   255
  6
CONTINUOUS
  0
LAYER
  2
DEFPOINTS
 70
     0
 62
     7
  6
CONTINUOUS
  0
ENDTAB
  0
TABLE
  2
STYLE
 70
     1
  0
STYLE
  2
STANDARD
 70
     0
 40
0.0
 41
0.8
 50
0.0
 71
     0
 42
0.2
  3
txt
  4

  0
ENDTAB
  0
TABLE
  2
VIEW
 70
     0
  0
ENDTAB
  0
TABLE
  2
UCS
 70
     0
  0
ENDTAB
  0
TABLE
  2
APPID
 70
     9
  0
APPID
  2
ACAD
 70
     0
  0
APPID
  2
ACAD_MLEADERVER
 70
     0
  0
APPID
  2
ACAD_EXEMPT_FROM_CAD_STANDARDS
 70
     0
  0
APPID
  2
ACAD_NAV_VCDISPLAY
 70
     0
  0
APPID
  2
ACAECLAYERSTANDARD
 70
     0
  0
APPID
  2
ACCMTRANSPARENCY
 70
     0
  0
APPID
  2
ACAD_DSTYLE_DIMJAG
 70
     0
  0
APPID
  2
ACAD_DSTYLE_DIMTALN
 70
     0
  0
APPID
  2
ACDBATTR
 70
     0
  0
ENDTAB
  0
TABLE
  2
DIMSTYLE
 70
     1
  0
DIMSTYLE
  2
STANDARD
 70
     0
  3

  4

  5

  6

  7

 40
1.0
 41
0.1875
 42
0.0625
 43
0.38
 44
0.125
 45
0.0
 46
0.0
 47
0.01
 48
0.01
140
0.15625
141
0.09
142
0.0
143
25.3999999999999986
144
1.0
145
0.0
146
1.0
147
0.09
 71
     1
 72
     0
 73
     1
 74
     1
 75
     0
 76
     0
 77
     0
 78
     4
170
     0
171
     2
172
     0
173
     0
174
     0
175
     0
176
     0
177
     0
178
     0
  0
ENDTAB
  0
ENDSEC
  0
SECTION
  2
BLOCKS
  0
BLOCK
  8
0
  2
$MODEL_SPACE
 70
     0
 10
0.0
 20
0.0
 30
0.0
  3
$MODEL_SPACE
  1

  0
ENDBLK
  5
21
  8
0
  0
BLOCK
 67
     1
  8
0
  2
$PAPER_SPACE
 70
     0
 10
0.0
 20
0.0
 30
0.0
  3
$PAPER_SPACE
  1

  0
ENDBLK
  5
1D
 67
     1
  8
0
  0
ENDSEC
  0
SECTION
  2
ENTITIES
  0
ATTDEF
  5
3930
  8
DEFPOINTS
 10
3639.3519135714032018
 20
319.2113540473640114
 30
0.0
 40
0.001
  1
K-24845T-4
  3

  2
MODELNUMBER
 70
     0
1001
ACDBATTR
1070
     0
1070
     1
  0
ATTDEF
  5
3931
  8
DEFPOINTS
 10
3639.3519135714032018
 20
319.2096873806972894
 30
0.0
 40
0.001
  1

  3

  2
TRADENAME
 70
     0
1001
ACDBATTR
1070
     0
1070
     1
  0
ATTDEF
  5
3932
  8
DEFPOINTS
 10
3639.3519135714032018
 20
319.2080207140306243
 30
0.0
 40
0.001
  1
BATHROOM SINK FAUCET
  3

  2
PRODUCT
 70
     0
1001
ACDBATTR
1070
     0
1070
     1
  0
LINE
  5
CF38
  8
0
 10
3631.8697161842978858
 20
319.684164541439884
 30
0.0
 11
3631.8697161842978858
 21
318.7393424942400202
 31
0.0
  0
ARC
  5
CF39
  8
0
 10
3631.909116184298
 20
318.7393424942400202
 30
0.0
 40
0.0394
 50
180.0
 51
270.0
  0
LINE
  5
CF3A
  8
0
 10
3632.4328147965948119
 20
318.8321897639820008
 30
0.0
 11
3632.4223319100328808
 21
318.772738360138419
 31
0.0
  0
LINE
  5
CF3B
  8
0
 10
3632.5208126853349313
 20
318.7553735423658168
 30
0.0
 11
3632.5312956193711216
 21
318.8148252155299929
 31
0.0
  0
LINE
  5
CF3C
  8
0
 10
3636.7765416814181663
 20
316.0815607466404913
 30
0.0
 11
3637.1408589797629247
 21
316.0173217774241721
 31
0.0
  0
LINE
  5
CF3D
  8
0
 10
3639.1124366764979641
 20
317.8420977435400232
 30
0.0
 11
3639.3500311448979119
 21
317.8338007618398819
 31
0.0
  0
LINE
  5
CF3E
  8
0
 10
3637.8933382314980918
 20
318.3062417068398986
 30
0.0
 11
3639.0744405936980002
 21
318.3062417068398986
 31
0.0
  0
LINE
  5
CF3F
  8
0
 10
3632.296168328998192
 20
318.8578488751410873
 30
0.0
 11
3632.7487604661978366
 21
318.7780446700398898
 31
0.0
  0
LINE
  5
CF40
  8
0
 10
3637.2182291249978334
 20
318.6999424942400196
 30
0.0
 11
3632.8820292061977852
 21
318.6999424942400196
 31
0.0
  0
LINE
  5
CF41
  8
0
 10
3632.0385055245978947
 20
318.6999424942400196
 30
0.0
 11
3631.909116184298
 21
318.6999424942400196
 31
0.0
  0
LINE
  5
CF42
  8
0
 10
3636.7605618377820065
 20
316.104382328475026
 30
0.0
 11
3637.4652709311471881
 21
320.1009861979397897
 31
0.0
  0
ARC
  5
CF43
  8
0
 10
3636.7799625505158474
 20
316.1009614593750143
 30
0.0
 40
0.0197
 50
170.0000000003579999
 51
260.0000000031964191
  0
LINE
  5
CF44
  8
0
 10
3637.3987213099981091
 20
319.7235645414398846
 30
0.0
 11
3631.909116184298
 21
319.7235645414398846
 31
0.0
  0
ARC
  5
CF45
  8
0
 10
3631.909116184298
 20
319.684164541439884
 30
0.0
 40
0.0394
 50
90.0
 51
180.0
  0
LINE
  5
CF46
  8
0
 10
3637.1636805615971753
 20
316.0333016210587971
 30
0.0
 11
3637.5332499816681775
 21
318.1292339542137029
 31
0.0
  0
ARC
  5
CF47
  8
0
 10
3637.1442798488619701
 20
316.0367224901588088
 30
0.0
 40
0.0197
 50
260.0000000031964191
 51
350.0000000000987939
  0
LINE
  5
CF48
  8
0
 10
3637.8933382314980918
 20
320.1172653288398919
 30
0.0
 11
3639.0744405936980002
 21
320.1172653288398919
 31
0.0
  0
LINE
  5
CF49
  8
0
 10
3637.5331258750979941
 20
318.128858444539901
 30
0.0
 11
3637.5331603588979306
 21
318.1287090887399245
 31
0.0
  0
LINE
  5
CF4A
  8
0
 10
3637.7831020110979807
 20
318.3272188297124785
 30
0.0
 11
3637.7831020110979807
 21
320.0975653288398917
 31
0.0
  0
LINE
  5
CF4B
  8
0
 10
3637.8618421684977875
 20
320.0857692658398719
 30
0.0
 11
3637.8618421684977875
 21
318.3377377698399187
 31
0.0
  0
LINE
  5
CF4C
  8
0
 10
3639.1124366764979641
 20
320.5814092920398934
 30
0.0
 11
3639.3500311448979119
 21
320.5897062738400223
 31
0.0
  0
LINE
  5
CF4D
  8
0
 10
3639.0744405936980002
 20
317.8814438393400224
 30
0.0
 11
3639.0744405936980002
 21
320.5420631963398819
 31
0.0
  0
LINE
  5
CF4E
  8
0
 10
3639.3500311448979119
 20
317.8338007619399264
 30
0.0
 11
3639.3500311448979119
 21
320.589706273739921
 31
0.0
  0
ARC
  5
CF4F
  8
0
 10
3639.6469384036981864
 20
319.2117535178398953
 30
0.0
 40
1.968503936999999
 50
155.0707410109135083
 51
161.231962222148411
  0
ARC
  5
CF50
  8
0
 10
3639.6469384036981864
 20
319.2117535178398953
 30
0.0
 40
1.968503936999999
 50
201.9601425204980956
 51
204.9292589890864065
  0
ARC
  5
CF51
  8
0
 10
3632.6231899277981938
 20
319.6239871820400253
 30
0.0
 40
0.8143716454
 50
259.9952009723169795
 51
260.3910440326698108
  0
ARC
  5
CF52
  8
0
 10
3632.622684755498085
 20
319.6215775508400156
 30
0.0
 40
0.8119121287
 50
260.7932073349065263
 51
263.5370687032660726
  0
ARC
  5
CF53
  8
0
 10
3632.6225028278981881
 20
319.6199248006399216
 30
0.0
 40
0.8102515667
 50
260.3909984584440735
 51
260.7872070591976126
  0
ARC
  5
CF54
  8
0
 10
3632.6223260727979323
 20
319.6190898843399282
 30
0.0
 40
0.8093987418000002
 50
256.4591637967865267
 51
259.9951944425416173
  0
ARC
  5
CF55
  8
0
 10
3632.5415367840978433
 20
319.1608442709398901
 30
0.0
 40
0.4060000000000001
 50
267.0740895605031255
 51
292.8702826023916259
  0
ARC
  5
CF56
  8
0
 10
3632.5415367840978433
 20
319.1608442709398901
 30
0.0
 40
0.4060000000000001
 50
229.9517855465153957
 51
252.9259104331102037
  0
ARC
  5
CF57
  8
0
 10
3639.113810672497948
 20
320.5420631965400275
 30
0.0
 40
0.0393700787
 50
92.0000000000036096
 51
180.0
  0
ARC
  5
CF58
  8
0
 10
3639.113810672497948
 20
317.8814438391398767
 30
0.0
 40
0.0393700787
 50
180.0
 51
267.9999999999964189
  0
ARC
  5
CF59
  8
0
 10
3637.8933382314980918
 20
318.3377377698399187
 30
0.0
 40
0.031496063
 50
180.0
 51
270.0
  0
ARC
  5
CF5A
  8
0
 10
3637.8933382314980918
 20
320.0857692658398719
 30
0.0
 40
0.031496063
 50
90.0
 51
180.0
  0
ARC
  5
CF5B
  8
0
 10
3632.7539699116978227
 20
318.8075889026400205
 30
0.0
 40
0.03
 50
259.9999999999949978
 51
324.0762184284703267
  0
LINE
  5
CF5C
  8
0
 10
3637.7621213917768728
 20
318.3071381297842208
 30
0.0
 11
3637.7553289661618692
 21
318.3074360049208167
 31
0.0
  0
ARC
  5
CF5D
  8
0
 10
3637.7630020110977966
 20
318.3272188297124785
 30
0.0
 40
0.0201
 50
267.4889589094684084
 51
0.0
  0
ARC
  5
CF5E
  8
0
 10
3637.7458699755429734
 20
318.0917433126559217
 30
0.0
 40
0.2159
 50
87.4889589094424167
 51
170.0000000000987086
  0
ARC
  5
CF5F
  8
0
 10
3590.7429822042217893
 20
303.0509697103698272
 30
0.0
 40
49.5580590506998604
 50
18.1556909816533292
 51
18.3425317318470711
  0
LINE
  5
CF60
  8
0
 10
3637.8251328381470557
 20
318.4877635306850721
 30
0.0
 11
3637.8337094316661933
 21
318.4932696058911006
 31
0.0
  0
ARC
  5
CF61
  8
0
 10
3637.8305352413690343
 20
318.4793484228769103
 30
0.0
 40
0.01
 50
122.7000001187619063
 51
201.9601425214410142
  0
ARC
  5
CF62
  8
0
 10
3633.6005229517440966
 20
316.4906477949082273
 30
0.0
 40
2.7057127547472128
 50
121.1421667805717988
 51
125.2611074091221042
  0
ARC
  5
CF63
  8
0
 10
3632.793173784064038
 20
317.826781557465381
 30
0.0
 40
1.1446022173419319
 50
114.4580950986493946
 51
121.1421667805717988
  0
ARC
  5
CF64
  8
0
 10
3632.546332639999946
 20
318.369476499402424
 30
0.0
 40
0.5484073243694252
 50
101.0484168016690063
 51
114.4580950986493946
  0
ARC
  5
CF65
  8
0
 10
3632.4988313890539757
 20
318.6127515170084052
 30
0.0
 40
0.3005381995623757
 50
66.0185200620785224
 51
101.0484168016690063
  0
ARC
  5
CF66
  8
0
 10
3632.3510511302911254
 20
318.2805426698013775
 30
0.0
 40
0.6641337482736384
 50
53.7713048512520473
 51
66.0185200620785224
  0
ARC
  5
CF67
  8
0
 10
3631.9385152026388823
 20
317.7174757132224272
 30
0.0
 40
1.362152579821774
 50
46.1586437069534128
 51
53.7713048512520473
  0
LINE
  5
CF68
  8
0
 10
3637.484671643881029
 20
320.1172653288398919
 30
0.0
 11
3637.763402011098151
 21
320.1172653288398919
 31
0.0
  0
ARC
  5
CF69
  8
0
 10
3637.484671643881029
 20
320.0975653288398917
 30
0.0
 40
0.0197
 50
90.0
 51
170.0000000003612115
  0
ARC
  5
CF6A
  8
0
 10
3637.763402011098151
 20
320.0975653288398917
 30
0.0
 40
0.0197
 50
359.9999999999935199
 51
90.0
  0
ENDSEC
  0
EOF
