  0
SECTION
  2
HEADER
  9
$ACADVER
  1
AC1009
  9
$INSBASE
 10
3502.935294652445009
 20
231.4386851495212056
 30
0.0
  9
$EXTMIN
 10
3496.3108635521070937
 20
225.5130597531145895
 30
-0.0000000000112498
  9
$EXTMAX
 10
3509.6376527072470708
 20
232.9760356749524988
 30
0.0000000000002956
  9
$LIMMIN
 10
0.0
 20
0.0
  9
$LIMMAX
 10
11.6929133858000007
 20
8.2677165353999982
  9
$ORTHOMODE
 70
     0
  9
$REGENMODE
 70
     1
  9
$FILLMODE
 70
     1
  9
$QTEXTMODE
 70
     0
  9
$MIRRTEXT
 70
     0
  9
$DRAGMODE
 70
     2
  9
$LTSCALE
 40
0.6431102362
  9
$OSMODE
 70
  4095
  9
$ATTMODE
 70
     1
  9
$TEXTSIZE
 40
0.2
  9
$TRACEWID
 40
0.05
  9
$TEXTSTYLE
  7
STANDARD
  9
$CLAYER
  8
0
  9
$CELTYPE
  6
BYLAYER
  9
$CECOLOR
 62
   256
  9
$DIMSCALE
 40
1.0
  9
$DIMASZ
 40
0.1875
  9
$DIMEXO
 40
0.0625
  9
$DIMDLI
 40
0.4443307087
  9
$DIMRND
 40
0.0
  9
$DIMDLE
 40
0.0
  9
$DIMEXE
 40
0.125
  9
$DIMTP
 40
0.01
  9
$DIMTM
 40
0.01
  9
$DIMTXT
 40
2.0
  9
$DIMCEN
 40
0.1052362205
  9
$DIMTSZ
 40
0.0
  9
$DIMTOL
 70
     1
  9
$DIMLIM
 70
     0
  9
$DIMTIH
 70
     1
  9
$DIMTOH
 70
     1
  9
$DIMSE1
 70
     0
  9
$DIMSE2
 70
     0
  9
$DIMTAD
 70
     0
  9
$DIMZIN
 70
     0
  9
$DIMBLK
  1

  9
$DIMASO
 70
     1
  9
$DIMSHO
 70
     1
  9
$DIMPOST
  1
\X
  9
$DIMAPOST
  1

  9
$DIMALT
 70
     1
  9
$DIMALTD
 70
     2
  9
$DIMALTF
 40
25.3999999999999986
  9
$DIMLFAC
 40
1.0
  9
$DIMTOFL
 70
     0
  9
$DIMTVP
 40
0.0
  9
$DIMTIX
 70
     0
  9
$DIMSOXD
 70
     0
  9
$DIMSAH
 70
     0
  9
$DIMBLK1
  1

  9
$DIMBLK2
  1

  9
$DIMSTYLE
  2
STANDARD
  9
$DIMCLRD
 70
     0
  9
$DIMCLRE
 70
     0
  9
$DIMCLRT
 70
     0
  9
$DIMTFAC
 40
1.0
  9
$DIMGAP
 40
0.09
  9
$LUNITS
 70
     2
  9
$LUPREC
 70
     4
  9
$SKETCHINC
 40
0.1
  9
$FILLETRAD
 40
0.0
  9
$AUNITS
 70
     0
  9
$AUPREC
 70
     0
  9
$MENU
  1
.
  9
$ELEVATION
 40
0.0
  9
$PELEVATION
 40
0.0
  9
$THICKNESS
 40
0.0
  9
$LIMCHECK
 70
     0
  9
$BLIPMODE
 70
     0
  9
$CHAMFERA
 40
0.0
  9
$CHAMFERB
 40
0.0
  9
$SKPOLY
 70
     0
  9
$TDCREATE
 40
2458060.468368056230247
  9
$TDUPDATE
 40
2459838.96902777813375
  9
$TDINDWG
 40
0.4754237269
  9
$TDUSRTIMER
 40
0.4754237269
  9
$USRTIMER
 70
     1
  9
$ANGBASE
 50
0.0
  9
$ANGDIR
 70
     0
  9
$PDMODE
 70
     0
  9
$PDSIZE
 40
0.3125
  9
$PLINEWID
 40
0.0
  9
$COORDS
 70
     1
  9
$SPLFRAME
 70
     0
  9
$SPLINETYPE
 70
     6
  9
$SPLINESEGS
 70
     8
  9
$ATTDIA
 70
     1
  9
$ATTREQ
 70
     1
  9
$HANDLING
 70
     1
  9
$HANDSEED
  5
1066D
  9
$SURFTAB1
 70
     6
  9
$SURFTAB2
 70
     6
  9
$SURFTYPE
 70
     6
  9
$SURFU
 70
     6
  9
$SURFV
 70
     6
  9
$UCSNAME
  2

  9
$UCSORG
 10
0.0
 20
0.0
 30
0.0
  9
$UCSXDIR
 10
1.0
 20
0.0
 30
0.0
  9
$UCSYDIR
 10
0.0
 20
1.0
 30
0.0
  9
$PUCSNAME
  2

  9
$PUCSORG
 10
0.0
 20
0.0
 30
0.0
  9
$PUCSXDIR
 10
1.0
 20
0.0
 30
0.0
  9
$PUCSYDIR
 10
0.0
 20
1.0
 30
0.0
  9
$USERI1
 70
     0
  9
$USERI2
 70
     0
  9
$USERI3
 70
     0
  9
$USERI4
 70
     0
  9
$USERI5
 70
     0
  9
$USERR1
 40
0.0
  9
$USERR2
 40
0.0
  9
$USERR3
 40
0.0
  9
$USERR4
 40
0.0
  9
$USERR5
 40
0.0
  9
$WORLDVIEW
 70
     1
  9
$SHADEDGE
 70
     3
  9
$SHADEDIF
 70
    70
  9
$TILEMODE
 70
     1
  9
$MAXACTVP
 70
    64
  9
$PLIMCHECK
 70
     0
  9
$PEXTMIN
 10
1.0000000000000000E+20
 20
1.0000000000000000E+20
 30
1.0000000000000000E+20
  9
$PEXTMAX
 10
-1.0000000000000000E+20
 20
-1.0000000000000000E+20
 30
-1.0000000000000000E+20
  9
$PLIMMIN
 10
0.0
 20
0.0
  9
$PLIMMAX
 10
12.0
 20
9.0
  9
$UNITMODE
 70
     0
  9
$VISRETAIN
 70
     1
  9
$PLINEGEN
 70
     0
  9
$PSLTSCALE
 70
     1
  0
ENDSEC
  0
SECTION
  2
TABLES
  0
TABLE
  2
VPORT
 70
     1
  0
VPORT
  2
*ACTIVE
 70
     0
 10
0.0
 20
0.0
 11
1.0
 21
1.0
 12
31.4237210203018513
 22
4.8857780240113291
 13
0.0
 23
0.0
 14
1.0
 24
1.0
 15
0.0
 25
0.0
 16
0.0
 26
0.0
 36
25.1798887926886188
 17
3471.550537109375
 27
224.3587696900221999
 37
0.0
 40
7.521204602632511
 41
2.0494791666666661
 42
50.0
 43
0.0
 44
0.0
 50
0.0
 51
0.0
 71
     0
 72
   100
 73
     1
 74
     1
 75
     0
 76
     0
 77
     0
 78
     0
  0
ENDTAB
  0
TABLE
  2
LTYPE
 70
     2
  0
LTYPE
  2
CONTINUOUS
 70
     0
  3
Solid line
 72
    65
 73
     0
 40
0.0
  0
LTYPE
  2
PHANTOM2
 70
     0
  3
___ _ _ ___ _ _ ___ _ _ ___ _ _
 72
    65
 73
     6
 40
1.25
 49
0.625
 49
-0.125
 49
0.125
 49
-0.125
 49
0.125
 49
-0.125
  0
ENDTAB
  0
TABLE
  2
LAYER
 70
     2
  0
LAYER
  2
0
 70
     0
 62
   255
  6
CONTINUOUS
  0
LAYER
  2
DEFPOINTS
 70
     0
 62
     7
  6
CONTINUOUS
  0
ENDTAB
  0
TABLE
  2
STYLE
 70
     1
  0
STYLE
  2
STANDARD
 70
     0
 40
0.0
 41
0.8
 50
0.0
 71
     0
 42
0.2
  3
txt
  4

  0
ENDTAB
  0
TABLE
  2
VIEW
 70
     0
  0
ENDTAB
  0
TABLE
  2
UCS
 70
     0
  0
ENDTAB
  0
TABLE
  2
APPID
 70
     9
  0
APPID
  2
ACAD
 70
     0
  0
APPID
  2
ACAD_MLEADERVER
 70
     0
  0
APPID
  2
ACAD_EXEMPT_FROM_CAD_STANDARDS
 70
     0
  0
APPID
  2
ACAD_NAV_VCDISPLAY
 70
     0
  0
APPID
  2
ACAECLAYERSTANDARD
 70
     0
  0
APPID
  2
ACCMTRANSPARENCY
 70
     0
  0
APPID
  2
ACAD_DSTYLE_DIMJAG
 70
     0
  0
APPID
  2
ACAD_DSTYLE_DIMTALN
 70
     0
  0
APPID
  2
ACDBATTR
 70
     0
  0
ENDTAB
  0
TABLE
  2
DIMSTYLE
 70
     1
  0
DIMSTYLE
  2
STANDARD
 70
     0
  3

  4

  5

  6

  7

 40
1.0
 41
0.1875
 42
0.0625
 43
0.38
 44
0.125
 45
0.0
 46
0.0
 47
0.01
 48
0.01
140
0.15625
141
0.09
142
0.0
143
25.3999999999999986
144
1.0
145
0.0
146
1.0
147
0.09
 71
     1
 72
     0
 73
     1
 74
     1
 75
     0
 76
     0
 77
     0
 78
     4
170
     0
171
     2
172
     0
173
     0
174
     0
175
     0
176
     0
177
     0
178
     0
  0
ENDTAB
  0
ENDSEC
  0
SECTION
  2
BLOCKS
  0
BLOCK
  8
0
  2
$MODEL_SPACE
 70
     0
 10
0.0
 20
0.0
 30
0.0
  3
$MODEL_SPACE
  1

  0
ENDBLK
  5
21
  8
0
  0
BLOCK
 67
     1
  8
0
  2
$PAPER_SPACE
 70
     0
 10
0.0
 20
0.0
 30
0.0
  3
$PAPER_SPACE
  1

  0
ENDBLK
  5
1D
 67
     1
  8
0
  0
ENDSEC
  0
SECTION
  2
ENTITIES
  0
ATTDEF
  5
3930
  8
DEFPOINTS
 10
3502.9299212963369428
 20
231.4372537152760003
 30
0.0
 40
0.001
  1
K-24857-4
  3

  2
MODELNUMBER
 70
     0
1001
ACDBATTR
1070
     0
1070
     1
  0
ATTDEF
  5
3931
  8
DEFPOINTS
 10
3502.9299212963369428
 20
231.435587048609392
 30
0.0
 40
0.001
  1
HONESTY
  3

  2
TRADENAME
 70
     0
1001
ACDBATTR
1070
     0
1070
     1
  0
ATTDEF
  5
3932
  8
DEFPOINTS
 10
3502.9299212963369428
 20
231.4339203819426984
 30
0.0
 40
0.001
  1
BATHROOM SINK FAUCET
  3

  2
PRODUCT
 70
     0
1001
ACDBATTR
1070
     0
1070
     1
  0
LINE
  5
105A4
  8
0
 10
3499.5912093817919413
 20
230.8683514968938937
 30
0.0
 11
3499.5912093817919413
 21
232.0090224195124904
 31
0.0
  0
ARC
  5
105A5
  8
0
 10
3499.5096934605571732
 20
232.0074670711709075
 30
0.0
 40
0.0815307581416693
 50
1.093088102684727
 51
90.3753051808198364
  0
LINE
  5
105A6
  8
0
 10
3499.5091594125460688
 20
232.0889960802159919
 30
0.0
 11
3496.4157225519247731
 21
232.0053511818308039
 31
0.0
  0
ARC
  5
105A7
  8
0
 10
3496.4174021567710042
 20
231.965743793390601
 30
0.0
 40
0.0396429854008039
 50
92.4282501031770067
 51
179.1356225961137056
  0
LINE
  5
105A8
  8
0
 10
3496.3777636825448099
 20
231.9663418339671068
 30
0.0
 11
3496.3777636825448099
 21
230.9110284650753897
 31
0.0
  0
LINE
  5
105A9
  8
0
 10
3497.9239905198451197
 20
230.4963731289670079
 30
0.0
 11
3497.915217339677838
 21
230.8314771997561934
 31
0.0
  0
LINE
  5
105AA
  8
0
 10
3497.8834457638217827
 20
232.0450376420523071
 30
0.0
 11
3497.8746563869449346
 21
232.3807603691670067
 31
0.0
  0
ARC
  5
105AB
  8
0
 10
3497.9963307418938712
 20
232.3839458602749914
 30
0.0
 40
0.1217160466245245
 50
90.0204231584120862
 51
181.4996875366499012
  0
LINE
  5
105AC
  8
0
 10
3497.9962873560448315
 20
232.505661899166995
 30
0.0
 11
3499.874347386044974
 21
232.5056045813670949
 31
0.0
  0
ARC
  5
105AD
  8
0
 10
3499.8743436712020412
 20
232.3838901030148065
 30
0.0
 40
0.1217144784089661
 50
358.4955458816849045
 51
89.9982512774877392
  0
LINE
  5
105AE
  8
0
 10
3499.9960161930448521
 20
232.3806945306916987
 30
0.0
 11
3499.9465252909449191
 21
230.4963114017670875
 31
0.0
  0
ARC
  5
105AF
  8
0
 10
3499.8248527691957861
 20
230.4995069743891065
 30
0.0
 40
0.1217144783220867
 50
270.0000000232150796
 51
358.4955457398115186
  0
LINE
  5
105B0
  8
0
 10
3499.8248527692448988
 20
230.377792496067002
 30
0.0
 11
3498.0456595216451205
 21
230.3778467964669971
 31
0.0
  0
ARC
  5
105B1
  8
0
 10
3498.0456632364939651
 20
230.4995612748029998
 30
0.0
 40
0.1217144783926352
 50
181.5009569470761051
 51
269.9982512752990829
  0
ARC
  5
105B2
  8
0
 10
3499.511209450160095
 20
230.8683515089252865
 30
0.0
 40
0.0799999316320585
 50
268.5316067191660068
 51
359.9999913831147182
  0
LINE
  5
105B3
  8
0
 10
3499.5091594125460688
 20
230.7883778482180901
 30
0.0
 11
3496.4157225519247731
 21
230.8720227466033066
 31
0.0
  0
ARC
  5
105B4
  8
0
 10
3496.4167875655498392
 20
230.9110320942523913
 30
0.0
 40
0.039023883174714
 50
180.0053284426834068
 51
268.4361278704355982
  0
LINE
  5
105B5
  8
0
 10
3503.0816879028448056
 20
232.9609928042671072
 30
0.0
 11
3502.7889014020452123
 21
232.9609928042671072
 31
0.0
  0
ARC
  5
105B6
  8
0
 10
3502.7889014020452123
 20
232.941306477352299
 30
0.0
 40
0.0196863269147834
 50
90.0
 51
177.8427553513718919
  0
LINE
  5
105B7
  8
0
 10
3502.7692290271447746
 20
232.9420475125670862
 30
0.0
 11
3502.7484619244878559
 21
232.3907400700855135
 31
0.0
  0
ARC
  5
105B8
  8
0
 10
3502.7680285124879447
 20
232.3900030197387991
 30
0.0
 40
0.01958046498777
 50
177.8427553513718919
 51
270.4648569786000962
  0
LINE
  5
105B9
  8
0
 10
3502.7681873726342019
 20
232.3704231991933966
 30
0.0
 11
3502.8371909458642222
 21
232.3704403439558064
 31
0.0
  0
ARC
  5
105BA
  8
0
 10
3502.8368624603658645
 20
232.3507510481564964
 30
0.0
 40
0.0196920357453367
 50
0.0197160050176374
 51
89.0441970604411352
  0
LINE
  5
105BB
  8
0
 10
3502.8565544949451578
 20
232.3507578243670082
 30
0.0
 11
3502.8565544949451578
 21
232.2656866030112042
 31
0.0
  0
ARC
  5
105BC
  8
0
 10
3502.9702882437459266
 20
230.9840188227647957
 30
0.0
 40
1.390772338648169
 50
91.4417864461865122
 51
93.8059303020977069
  0
ARC
  5
105BD
  8
0
 10
3502.8392147982058304
 20
232.9546223011689108
 30
0.0
 40
0.5841854629410845
 50
269.8015040824166135
 51
273.8040945861371256
  0
LINE
  5
105BE
  8
0
 10
3501.8745942355130865
 20
232.3807454739524871
 30
0.0
 11
3501.9239709820940334
 21
230.4963262121027014
 31
0.0
  0
LINE
  5
105BF
  8
0
 10
3502.045624648410012
 20
230.3778467961452918
 30
0.0
 11
3502.1495382218531631
 21
230.3778436261617912
 31
0.0
  0
ARC
  5
105C0
  8
0
 10
3502.0456283609851198
 20
230.4995467960887083
 30
0.0
 40
0.1217
 50
181.5164126063714889
 51
269.998252137149791
  0
LINE
  5
105C1
  8
0
 10
3503.6345333305448548
 20
232.2656869582671106
 30
0.0
 11
3502.2360559742451187
 21
232.2656863196669974
 31
0.0
  0
ARC
  5
105C2
  8
0
 10
3502.2360560313250062
 20
232.1406862775882018
 30
0.0
 40
0.1250000420788778
 50
90.0000261635192231
 51
181.2515169574213019
  0
LINE
  5
105C3
  8
0
 10
3502.1110858081110564
 20
232.1379561073406137
 30
0.0
 11
3502.2530885039768691
 21
225.6379553783820029
 31
0.0
  0
ARC
  5
105C4
  8
0
 10
3502.3869191423318625
 20
225.6497452140060034
 30
0.0
 40
0.1343489485881892
 50
185.0344856577600865
 51
266.2302206245004186
  0
LINE
  5
105C5
  8
0
 10
3502.3780860212091284
 20
225.5156869581693115
 30
0.0
 11
3503.4925032095698043
 21
225.5156869581693115
 31
0.0
  0
LINE
  5
105C6
  8
0
 10
3506.2793799230980767
 20
230.8683514968938937
 30
0.0
 11
3506.2793799230980767
 21
232.0090224195124904
 31
0.0
  0
ARC
  5
105C7
  8
0
 10
3506.3608958443328447
 20
232.0074670711709075
 30
0.0
 40
0.0815307581416693
 50
89.6246948191801636
 51
178.9069118973152115
  0
LINE
  5
105C8
  8
0
 10
3506.3614298923439492
 20
232.0889960802159919
 30
0.0
 11
3509.4548667529638806
 21
232.0053511818308039
 31
0.0
  0
ARC
  5
105C9
  8
0
 10
3509.4531871481190137
 20
231.965743793390601
 30
0.0
 40
0.0396429854008039
 50
0.8643774038862811
 51
87.5717498968230075
  0
LINE
  5
105CA
  8
0
 10
3509.4928256223452081
 20
231.9663418339671068
 30
0.0
 11
3509.4928256223452081
 21
230.9110284650753897
 31
0.0
  0
LINE
  5
105CB
  8
0
 10
3507.9465987850448982
 20
230.4963731289670079
 30
0.0
 11
3507.9553719652130894
 21
230.8314771997561934
 31
0.0
  0
LINE
  5
105CC
  8
0
 10
3507.987143541066871
 20
232.0450376420523071
 30
0.0
 11
3507.9959329179450833
 21
232.3807603691670067
 31
0.0
  0
ARC
  5
105CD
  8
0
 10
3507.8742585629961468
 20
232.3839458602749914
 30
0.0
 40
0.1217160466245245
 50
358.5003124633500988
 51
89.979576841587928
  0
LINE
  5
105CE
  8
0
 10
3507.8743019488451864
 20
232.505661899166995
 30
0.0
 11
3505.996241918845044
 21
232.5056045813670949
 31
0.0
  0
ARC
  5
105CF
  8
0
 10
3505.9962456336888863
 20
232.3838901030148065
 30
0.0
 40
0.1217144784089661
 50
90.001748722512275
 51
181.5044541183150955
  0
LINE
  5
105D0
  8
0
 10
3505.8745731118451658
 20
232.3806945306916987
 30
0.0
 11
3505.9240640139450988
 21
230.4963114017670875
 31
0.0
  0
ARC
  5
105D1
  8
0
 10
3506.0457365356951414
 20
230.4995069743891065
 30
0.0
 40
0.1217144783220867
 50
181.5044542601885098
 51
269.9999999767849204
  0
LINE
  5
105D2
  8
0
 10
3506.0457365356451191
 20
230.377792496067002
 30
0.0
 11
3507.8249297832448974
 21
230.3778467964669971
 31
0.0
  0
ARC
  5
105D3
  8
0
 10
3507.8249260683969624
 20
230.4995612748029998
 30
0.0
 40
0.1217144783926352
 50
270.0017487247009171
 51
358.4990430529239234
  0
ARC
  5
105D4
  8
0
 10
3506.3593798547308324
 20
230.8683515089252865
 30
0.0
 40
0.0799999316320585
 50
180.0000086168836901
 51
271.4683932808338795
  0
LINE
  5
105D5
  8
0
 10
3506.3614298923439492
 20
230.7883778482180901
 30
0.0
 11
3509.4548667529638806
 21
230.8720227466033066
 31
0.0
  0
ARC
  5
105D6
  8
0
 10
3509.4538017393388145
 20
230.9110320942523913
 30
0.0
 40
0.039023883174714
 50
271.5638721295642881
 51
359.9946715573166216
  0
ARC
  5
105D7
  8
0
 10
3503.0816879028448056
 20
232.941306477352299
 30
0.0
 40
0.0196863269147834
 50
2.157244648628128
 51
90.0
  0
LINE
  5
105D8
  8
0
 10
3503.1013602777447886
 20
232.9420475125670862
 30
0.0
 11
3503.1221273804021621
 21
232.3907400700855135
 31
0.0
  0
ARC
  5
105D9
  8
0
 10
3503.1025607924029828
 20
232.3900030197387991
 30
0.0
 40
0.01958046498777
 50
269.5351430213999038
 51
2.157244648628128
  0
LINE
  5
105DA
  8
0
 10
3503.1024019322558161
 20
232.3704231991933966
 30
0.0
 11
3503.0333983590257958
 21
232.3704403439558064
 31
0.0
  0
ARC
  5
105DB
  8
0
 10
3503.0337268445241534
 20
232.3507510481564964
 30
0.0
 40
0.0196920357453367
 50
90.955802939558879
 51
179.980283994982301
  0
LINE
  5
105DC
  8
0
 10
3503.0140348099448602
 20
232.3507578243670082
 30
0.0
 11
3503.0140348099448602
 21
232.2656866030112042
 31
0.0
  0
ARC
  5
105DD
  8
0
 10
3503.0313745066841875
 20
232.9546223011689108
 30
0.0
 40
0.5841854629410845
 50
266.1959054138628176
 51
270.1984959175833865
  0
ARC
  5
105DE
  8
0
 10
3503.6345322020501953
 20
232.1406858541814131
 30
0.0
 40
0.1250011040907899
 50
358.7486877971629724
 51
89.9994827408143152
  0
LINE
  5
105DF
  8
0
 10
3503.7595034967789616
 20
232.1379561073406137
 30
0.0
 11
3503.6175008009131489
 21
225.6379553783820029
 31
0.0
  0
ARC
  5
105E0
  8
0
 10
3503.4846622937880056
 20
225.64873094262461
 30
0.0
 40
0.1332748354342894
 50
273.372811899034275
 51
355.3624478565942013
  0
ARC
  5
105E1
  8
0
 10
3502.9003010611440914
 20
230.9840188227647957
 30
0.0
 40
1.390772338648169
 50
86.1940696979023073
 51
88.5582135538134878
  0
ARC
  5
105E2
  8
0
 10
3503.0313745066841875
 20
232.9546223011689108
 30
0.0
 40
0.5841854629410845
 50
266.1959054138628176
 51
270.1984959175833865
  0
LINE
  5
105E4
  8
0
 10
3501.9962524787438269
 20
232.5056332402670876
 30
0.0
 11
3502.7527898150187866
 21
232.5056332402670876
 31
0.0
  0
LINE
  5
105E5
  8
0
 10
3503.1177994898707766
 20
232.5056332402670876
 30
0.0
 11
3503.8743368260461466
 21
232.5056332402670876
 31
0.0
  0
ARC
  5
105E6
  8
0
 10
3501.9962524787438269
 20
232.3839332402671118
 30
0.0
 40
0.1217
 50
90.0
 51
181.5009568453477016
  0
LINE
  5
105E7
  8
0
 10
3503.9959950692768871
 20
232.3807454739524871
 30
0.0
 11
3503.9466183226968496
 21
230.4963262121027014
 31
0.0
  0
LINE
  5
105E8
  8
0
 10
3503.8249646563799615
 20
230.3778467961452918
 30
0.0
 11
3503.7210510829368104
 21
230.3778436261617912
 31
0.0
  0
ARC
  5
105E9
  8
0
 10
3503.8249609438048537
 20
230.4995467960887083
 30
0.0
 40
0.1217
 50
270.001747862850209
 51
358.4835873936285111
  0
ARC
  5
105EA
  8
0
 10
3503.8743368260461466
 20
232.3839332402671118
 30
0.0
 40
0.1217
 50
358.4990431546523268
 51
90.0
  0
ENDSEC
  0
EOF
