  0
SECTION
  2
HEADER
  9
$ACADVER
  1
AC1009
  9
$INSBASE
 10
3868.2911452456692132
 20
1088.5086037312080407
 30
0.0
  9
$EXTMIN
 10
3854.4175477591588788
 20
1002.3661440027140088
 30
0.0
  9
$EXTMAX
 10
3936.8623611932807762
 20
1094.5769159694270911
 30
0.0
  9
$LIMMIN
 10
0.0
 20
0.0
  9
$LIMMAX
 10
11.6929133858000007
 20
8.2677165353999982
  9
$ORTHOMODE
 70
     0
  9
$REGENMODE
 70
     1
  9
$FILLMODE
 70
     1
  9
$QTEXTMODE
 70
     0
  9
$MIRRTEXT
 70
     0
  9
$DRAGMODE
 70
     2
  9
$LTSCALE
 40
0.6431102362
  9
$OSMODE
 70
  4095
  9
$ATTMODE
 70
     1
  9
$TEXTSIZE
 40
0.2
  9
$TRACEWID
 40
0.05
  9
$TEXTSTYLE
  7
STANDARD
  9
$CLAYER
  8
0
  9
$CELTYPE
  6
BYLAYER
  9
$CECOLOR
 62
   256
  9
$DIMSCALE
 40
1.0
  9
$DIMASZ
 40
0.1875
  9
$DIMEXO
 40
0.0625
  9
$DIMDLI
 40
0.4443307087
  9
$DIMRND
 40
0.0
  9
$DIMDLE
 40
0.0
  9
$DIMEXE
 40
0.125
  9
$DIMTP
 40
0.01
  9
$DIMTM
 40
0.01
  9
$DIMTXT
 40
2.0
  9
$DIMCEN
 40
0.1052362205
  9
$DIMTSZ
 40
0.0
  9
$DIMTOL
 70
     1
  9
$DIMLIM
 70
     0
  9
$DIMTIH
 70
     1
  9
$DIMTOH
 70
     1
  9
$DIMSE1
 70
     0
  9
$DIMSE2
 70
     0
  9
$DIMTAD
 70
     0
  9
$DIMZIN
 70
     0
  9
$DIMBLK
  1

  9
$DIMASO
 70
     1
  9
$DIMSHO
 70
     1
  9
$DIMPOST
  1
\X
  9
$DIMAPOST
  1

  9
$DIMALT
 70
     1
  9
$DIMALTD
 70
     2
  9
$DIMALTF
 40
25.3999999999999986
  9
$DIMLFAC
 40
1.0
  9
$DIMTOFL
 70
     0
  9
$DIMTVP
 40
0.0
  9
$DIMTIX
 70
     0
  9
$DIMSOXD
 70
     0
  9
$DIMSAH
 70
     0
  9
$DIMBLK1
  1

  9
$DIMBLK2
  1

  9
$DIMSTYLE
  2
STANDARD
  9
$DIMCLRD
 70
     0
  9
$DIMCLRE
 70
     0
  9
$DIMCLRT
 70
     0
  9
$DIMTFAC
 40
1.0
  9
$DIMGAP
 40
0.09
  9
$LUNITS
 70
     2
  9
$LUPREC
 70
     4
  9
$SKETCHINC
 40
0.1
  9
$FILLETRAD
 40
0.0
  9
$AUNITS
 70
     0
  9
$AUPREC
 70
     0
  9
$MENU
  1
.
  9
$ELEVATION
 40
0.0
  9
$PELEVATION
 40
0.0
  9
$THICKNESS
 40
0.0
  9
$LIMCHECK
 70
     0
  9
$BLIPMODE
 70
     0
  9
$CHAMFERA
 40
0.0
  9
$CHAMFERB
 40
0.0
  9
$SKPOLY
 70
     0
  9
$TDCREATE
 40
2458060.468368056230247
  9
$TDUPDATE
 40
2459951.7028703708201647
  9
$TDINDWG
 40
0.2987232639
  9
$TDUSRTIMER
 40
0.2987232639
  9
$USRTIMER
 70
     1
  9
$ANGBASE
 50
0.0
  9
$ANGDIR
 70
     0
  9
$PDMODE
 70
     0
  9
$PDSIZE
 40
0.3125
  9
$PLINEWID
 40
0.0
  9
$COORDS
 70
     1
  9
$SPLFRAME
 70
     0
  9
$SPLINETYPE
 70
     6
  9
$SPLINESEGS
 70
     8
  9
$ATTDIA
 70
     1
  9
$ATTREQ
 70
     1
  9
$HANDLING
 70
     1
  9
$HANDSEED
  5
7BA3
  9
$SURFTAB1
 70
     6
  9
$SURFTAB2
 70
     6
  9
$SURFTYPE
 70
     6
  9
$SURFU
 70
     6
  9
$SURFV
 70
     6
  9
$UCSNAME
  2

  9
$UCSORG
 10
0.0
 20
0.0
 30
0.0
  9
$UCSXDIR
 10
1.0
 20
0.0
 30
0.0
  9
$UCSYDIR
 10
0.0
 20
1.0
 30
0.0
  9
$PUCSNAME
  2

  9
$PUCSORG
 10
0.0
 20
0.0
 30
0.0
  9
$PUCSXDIR
 10
1.0
 20
0.0
 30
0.0
  9
$PUCSYDIR
 10
0.0
 20
1.0
 30
0.0
  9
$USERI1
 70
     0
  9
$USERI2
 70
     0
  9
$USERI3
 70
     0
  9
$USERI4
 70
     0
  9
$USERI5
 70
     0
  9
$USERR1
 40
0.0
  9
$USERR2
 40
0.0
  9
$USERR3
 40
0.0
  9
$USERR4
 40
0.0
  9
$USERR5
 40
0.0
  9
$WORLDVIEW
 70
     1
  9
$SHADEDGE
 70
     3
  9
$SHADEDIF
 70
    70
  9
$TILEMODE
 70
     1
  9
$MAXACTVP
 70
    64
  9
$PLIMCHECK
 70
     0
  9
$PEXTMIN
 10
1.0000000000000000E+20
 20
1.0000000000000000E+20
 30
1.0000000000000000E+20
  9
$PEXTMAX
 10
-1.0000000000000000E+20
 20
-1.0000000000000000E+20
 30
-1.0000000000000000E+20
  9
$PLIMMIN
 10
0.0
 20
0.0
  9
$PLIMMAX
 10
12.0
 20
9.0
  9
$UNITMODE
 70
     0
  9
$VISRETAIN
 70
     1
  9
$PLINEGEN
 70
     0
  9
$PSLTSCALE
 70
     1
  0
ENDSEC
  0
SECTION
  2
TABLES
  0
TABLE
  2
VPORT
 70
     1
  0
VPORT
  2
*ACTIVE
 70
     0
 10
0.0
 20
0.0
 11
1.0
 21
1.0
 12
2483.4019128894501591
 22
979.7652065417115637
 13
0.0
 23
0.0
 14
1.0
 24
1.0
 15
0.0
 25
0.0
 16
0.0
 26
0.0
 36
177.9257463805905104
 17
1398.7899243639449196
 27
98.2223339400318736
 37
0.0
 40
83.3105553337130686
 41
2.498684210526315
 42
50.0
 43
0.0
 44
0.0
 50
0.0
 51
0.0
 71
     0
 72
   100
 73
     1
 74
     1
 75
     0
 76
     0
 77
     0
 78
     0
  0
ENDTAB
  0
TABLE
  2
LTYPE
 70
     2
  0
LTYPE
  2
CONTINUOUS
 70
     0
  3
Solid line
 72
    65
 73
     0
 40
0.0
  0
LTYPE
  2
PHANTOM2
 70
     0
  3
___ _ _ ___ _ _ ___ _ _ ___ _ _
 72
    65
 73
     6
 40
1.25
 49
0.625
 49
-0.125
 49
0.125
 49
-0.125
 49
0.125
 49
-0.125
  0
ENDTAB
  0
TABLE
  2
LAYER
 70
     2
  0
LAYER
  2
0
 70
     0
 62
   255
  6
CONTINUOUS
  0
LAYER
  2
DEFPOINTS
 70
     0
 62
     7
  6
CONTINUOUS
  0
ENDTAB
  0
TABLE
  2
STYLE
 70
     1
  0
STYLE
  2
STANDARD
 70
     0
 40
0.0
 41
0.8
 50
0.0
 71
     0
 42
0.2
  3
txt
  4

  0
ENDTAB
  0
TABLE
  2
VIEW
 70
     0
  0
ENDTAB
  0
TABLE
  2
UCS
 70
     0
  0
ENDTAB
  0
TABLE
  2
APPID
 70
     9
  0
APPID
  2
ACAD
 70
     0
  0
APPID
  2
ACAD_MLEADERVER
 70
     0
  0
APPID
  2
ACAD_EXEMPT_FROM_CAD_STANDARDS
 70
     0
  0
APPID
  2
ACAD_NAV_VCDISPLAY
 70
     0
  0
APPID
  2
ACAECLAYERSTANDARD
 70
     0
  0
APPID
  2
ACCMTRANSPARENCY
 70
     0
  0
APPID
  2
ACAD_DSTYLE_DIMJAG
 70
     0
  0
APPID
  2
ACAD_DSTYLE_DIMTALN
 70
     0
  0
APPID
  2
ACDBATTR
 70
     0
  0
ENDTAB
  0
TABLE
  2
DIMSTYLE
 70
     1
  0
DIMSTYLE
  2
STANDARD
 70
     0
  3

  4

  5

  6

  7

 40
1.0
 41
0.1875
 42
0.0625
 43
0.38
 44
0.125
 45
0.0
 46
0.0
 47
0.01
 48
0.01
140
0.15625
141
0.09
142
0.0
143
25.3999999999999986
144
1.0
145
0.0
146
1.0
147
0.09
 71
     1
 72
     0
 73
     1
 74
     1
 75
     0
 76
     0
 77
     0
 78
     4
170
     0
171
     2
172
     0
173
     0
174
     0
175
     0
176
     0
177
     0
178
     0
  0
ENDTAB
  0
ENDSEC
  0
SECTION
  2
BLOCKS
  0
BLOCK
  8
0
  2
$MODEL_SPACE
 70
     0
 10
0.0
 20
0.0
 30
0.0
  3
$MODEL_SPACE
  1

  0
ENDBLK
  5
21
  8
0
  0
BLOCK
 67
     1
  8
0
  2
$PAPER_SPACE
 70
     0
 10
0.0
 20
0.0
 30
0.0
  3
$PAPER_SPACE
  1

  0
ENDBLK
  5
1D
 67
     1
  8
0
  0
BLOCK
  8
0
  2
_FILLED
 70
     0
 10
0.0
 20
0.0
 30
0.0
  3
_FILLED
  1

  0
SOLID
  5
5A1E
  8
0
  6
BYBLOCK
 62
     0
 10
0.0
 20
0.0
 30
0.0
 11
-1.0
 21
0.1666666667
 31
0.0
 12
-1.0
 22
-0.1666666667
 32
0.0
 13
-1.0
 23
-0.1666666667
 33
0.0
  0
ENDBLK
  5
5A1F
  8
0
  6
BYBLOCK
 62
     0
  0
ENDSEC
  0
SECTION
  2
ENTITIES
  0
CIRCLE
  5
780C
  8
0
 10
3868.2911452448179261
 20
1085.0426883241389078
 30
0.0
 40
0.9448818898000004
  0
CIRCLE
  5
780D
  8
0
 10
3868.2911452448179261
 20
1085.0426883241389078
 30
0.0
 40
0.6822648631999968
  0
ARC
  5
780E
  8
0
 10
3868.2911452447679039
 20
1085.0426883241389078
 30
0.0
 40
0.6692913385999973
 50
277.4943510984396084
 51
82.5067431815321157
  0
ARC
  5
780F
  8
0
 10
3868.2911452447679039
 20
1085.0426883241389078
 30
0.0
 40
0.6692913385999973
 50
86.7307093080434868
 51
273.2692907166712075
  0
ARC
  5
7810
  8
0
 10
3868.4591228809172208
 20
1084.4157872514490464
 30
0.0
 40
0.0333271255099494
 50
231.3139199576289116
 51
280.9796381773397229
  0
ARC
  5
7811
  8
0
 10
3868.4591228809081258
 20
1084.4157872514460905
 30
0.0
 40
0.0333271255126645
 50
289.0203618918988013
 51
338.6860800681996011
  0
ARC
  5
7812
  8
0
 10
3868.3765069916039465
 20
1084.4011929982100355
 30
0.0
 40
0.0221631876293191
 50
183.4082402072048978
 51
275.0031963970690754
  0
ARC
  5
7813
  8
0
 10
3868.3222264100800203
 20
1084.39202352410598
 30
0.0
 40
0.0189154249636605
 50
292.0064042699244169
 51
336.6957676041058107
  0
ARC
  5
7814
  8
0
 10
3868.322226517206218
 20
1085.693353256617911
 30
0.0
 40
0.0189152619277436
 50
356.4257726650171207
 51
67.9937471433726301
  0
ARC
  5
7815
  8
0
 10
3868.3767147374028355
 20
1085.6839435676590711
 30
0.0
 40
0.0223860866634296
 50
85.612777493649503
 51
175.9970287662152089
  0
ARC
  5
7816
  8
0
 10
3864.640408307403959
 20
1085.0524973301610316
 30
0.0
 40
3.7675337195446459
 50
7.832801158692531
 51
9.6725317540210227
  0
ARC
  5
7817
  8
0
 10
3864.9012573603167766
 20
1085.0816355583490349
 30
0.0
 40
3.5051537259288752
 50
6.1296373720456803
 51
7.9420402135100003
  0
ARC
  5
7818
  8
0
 10
3864.9200980979057931
 20
1085.0744265881230604
 30
0.0
 40
3.487202547972228
 50
3.2320451601586511
 51
6.2804601171872498
  0
ARC
  5
7819
  8
0
 10
3863.9168447386159642
 20
1085.0096655874369844
 30
0.0
 40
4.4925186322344901
 50
358.8251243656422957
 51
3.3352811227515691
  0
ARC
  5
781A
  8
0
 10
3865.244680729394986
 20
1085.0147880551201069
 30
0.0
 40
3.1652321152332989
 50
353.0079841866648849
 51
358.2395751544601126
  0
ARC
  5
781B
  8
0
 10
3864.5553726376560917
 20
1085.0462137068950597
 30
0.0
 40
3.8536000019545611
 50
350.3445298158632113
 51
353.7918296687830093
  0
LINE
  5
781C
  8
0
 10
3868.3425049207789925
 20
1085.6840155344859795
 30
0.0
 11
3868.3548262654080645
 21
1085.682909484881975
 31
0.0
  0
LINE
  5
781D
  8
0
 10
3868.3445339911909286
 20
1085.6719973023339207
 30
0.0
 11
3868.3568697902651365
 21
1085.6708287800900052
 31
0.0
  0
LINE
  5
781E
  8
0
 10
3868.3578599594889056
 20
1085.5863185493210494
 30
0.0
 11
3868.3699346944181343
 21
1085.5863185684399923
 31
0.0
  0
LINE
  5
781F
  8
0
 10
3868.3607357556620627
 20
1085.5659471559129088
 30
0.0
 11
3868.3727908716218735
 21
1085.5659471546150598
 31
0.0
  0
LINE
  5
7820
  8
0
 10
3868.3612287192358963
 20
1085.5623733634399741
 30
0.0
 11
3868.373287574060214
 21
1085.5623733634399741
 31
0.0
  0
LINE
  5
7821
  8
0
 10
3868.3555620774181989
 20
1085.6017434422390124
 30
0.0
 11
3868.3676797296179757
 21
1085.6017434422390124
 31
0.0
  0
LINE
  5
7822
  8
0
 10
3868.3544334039588648
 20
1085.6096174579390663
 30
0.0
 11
3868.3665225690888292
 21
1085.6096174579390663
 31
0.0
  0
LINE
  5
7823
  8
0
 10
3868.3873767837371815
 20
1085.3104048595389486
 30
0.0
 11
3868.3993118834200686
 21
1085.3104048595389486
 31
0.0
  0
LINE
  5
7824
  8
0
 10
3868.3876264239770535
 20
1085.306831068477095
 30
0.0
 11
3868.3995523989501635
 21
1085.3068319811209221
 31
0.0
  0
LINE
  5
7825
  8
0
 10
3868.3887588521720318
 20
1085.2864594897980624
 30
0.0
 11
3868.4008512251698448
 21
1085.2864671768240896
 31
0.0
  0
LINE
  5
7826
  8
0
 10
3868.389790865212035
 20
1085.2710347808399547
 30
0.0
 11
3868.4017538576181323
 21
1085.2710347808390452
 31
0.0
  0
LINE
  5
7827
  8
0
 10
3868.3445339911909286
 20
1084.4133793459450317
 30
0.0
 11
3868.3568673329132253
 21
1084.4145476110720665
 31
0.0
  0
LINE
  5
7828
  8
0
 10
3868.3425049207789925
 20
1084.4013611137929729
 30
0.0
 11
3868.3548263391849105
 21
1084.4024671707359175
 31
0.0
  0
LINE
  5
7829
  8
0
 10
3868.3543303823071255
 20
1084.4757591902389322
 30
0.0
 11
3868.3665271477348142
 21
1084.4757591902389322
 31
0.0
  0
LINE
  5
782A
  8
0
 10
3868.3554796478188109
 20
1084.48363320603994
 30
0.0
 11
3868.3676797488178636
 21
1084.48363320603994
 31
0.0
  0
LINE
  5
782B
  8
0
 10
3868.3578599594779917
 20
1084.4990580988840065
 30
0.0
 11
3868.3699427676269806
 21
1084.4990580988840065
 31
0.0
  0
LINE
  5
782C
  8
0
 10
3868.3607357556479656
 20
1084.5194294922659992
 30
0.0
 11
3868.3727973412510437
 21
1084.5194294935399739
 31
0.0
  0
LINE
  5
782D
  8
0
 10
3868.3732887624178147
 20
1084.5230032847389339
 30
0.0
 11
3868.3612287192208896
 21
1084.5230032847389339
 31
0.0
  0
LINE
  5
782E
  8
0
 10
3868.3904048525450889
 20
1084.8222158831390516
 30
0.0
 11
3868.4040493849788618
 21
1084.8222158831390516
 31
0.0
  0
LINE
  5
782F
  8
0
 10
3868.3898842707180847
 20
1084.8143418674389977
 30
0.0
 11
3868.4035513441758667
 21
1084.8142119289789207
 31
0.0
  0
LINE
  5
7830
  8
0
 10
3868.3889850778000437
 20
1084.798917014602921
 30
0.0
 11
3868.4025428659251702
 21
1084.7989152453978932
 31
0.0
  0
LINE
  5
7831
  8
0
 10
3868.3876264239697775
 20
1084.7785455797020404
 30
0.0
 11
3868.401094699207988
 21
1084.7786838525519215
 31
0.0
  0
LINE
  5
7832
  8
0
 10
3868.3873767837299056
 20
1084.7749717886399594
 30
0.0
 11
3868.4008174529108146
 21
1084.7750062255809098
 31
0.0
  0
ARC
  5
7833
  8
0
 10
3864.5805153232190605
 20
1085.0426883241909763
 30
0.0
 40
3.816263398004172
 50
350.0691934607153826
 51
350.3254756022191145
  0
ARC
  5
7834
  8
0
 10
3865.1092182459669857
 20
1084.9534259897200172
 30
0.0
 40
3.2800790156263488
 50
350.3105191545009234
 51
351.7654324620580155
  0
ARC
  5
7835
  8
0
 10
3867.8333939946328428
 20
1084.5720956143570675
 30
0.0
 40
0.5295271730015961
 50
350.3831190113772891
 51
352.0719363759229168
  0
ARC
  5
7836
  8
0
 10
3864.5805153236919978
 20
1085.0426883241150335
 30
0.0
 40
3.816263397524529
 50
351.8103047560755954
 51
352.1733486737742282
  0
ARC
  5
7837
  8
0
 10
3864.58051532351692
 20
1085.0426883241400446
 30
0.0
 40
3.8162633977011451
 50
352.1733486737742282
 51
355.9773120767168848
  0
ARC
  5
7838
  8
0
 10
3864.5686186539119262
 20
1085.0435149257000376
 30
0.0
 40
3.8281887495379952
 50
355.9774618078270123
 51
356.0310804004200804
  0
ARC
  5
7839
  8
0
 10
3864.5805153233991405
 20
1085.0426883241470932
 30
0.0
 40
3.8162633978194869
 50
356.0310982253021166
 51
356.6880742536363869
  0
ARC
  5
783A
  8
0
 10
3862.0626235208801518
 20
1085.041743386907001
 30
0.0
 40
6.3315881806720036
 50
358.0130539472074815
 51
2.004057758949195
  0
ARC
  5
783B
  8
0
 10
3872.7128041523578759
 20
1085.5680192779350364
 30
0.0
 40
4.3332024730401919
 50
183.7255477515240898
 51
184.0343251715848112
  0
ARC
  5
783C
  8
0
 10
3867.5454790392600444
 20
1085.2498001115450279
 30
0.0
 40
0.8440762688491966
 50
2.489226226810469
 51
4.1173847228621501
  0
ARC
  5
783D
  8
0
 10
3220.358366340226894
 20
1018.1884529126390362
 30
0.0
 40
651.4959361410463998
 50
5.9135302226216719
 51
5.9358085843311397
  0
ARC
  5
783E
  8
0
 10
3864.6822978761201739
 20
1085.0570077354839214
 30
0.0
 40
3.713479038091779
 50
7.8216270109121027
 51
8.1947195562587414
  0
ARC
  5
783F
  8
0
 10
3870.4692104329078575
 20
1085.9087349327030552
 30
0.0
 40
2.135826103848923
 50
188.0506048593144897
 51
188.6823489825237061
  0
ARC
  5
7840
  8
0
 10
3864.5805153235328362
 20
1085.042688324142091
 30
0.0
 40
3.8162633976851059
 50
8.5432585990555978
 51
9.7988031228054666
  0
ARC
  5
7841
  8
0
 10
3868.7500686813182256
 20
1084.5837648875399282
 30
0.0
 40
0.0333271255000354
 50
261.3139198674668933
 51
310.9796372337946764
  0
ARC
  5
7842
  8
0
 10
3868.750068681285029
 20
1084.583764887541065
 30
0.0
 40
0.0333271255322251
 50
319.0203629583131146
 51
8.6860801086013613
  0
ARC
  5
7843
  8
0
 10
3868.9176181832817747
 20
1084.8753489279870337
 30
0.0
 40
0.0340776646573385
 50
291.5694748544045751
 51
337.9340880278363102
  0
ARC
  5
7844
  8
0
 10
3868.9177135132172225
 20
1084.8745331735869968
 30
0.0
 40
0.0336979341056409
 50
350.940217168218112
 51
38.5679860389358495
  0
ARC
  5
7845
  8
0
 10
3868.6343491481970887
 20
1085.0560039960801078
 30
0.0
 40
0.3396868699332757
 50
339.1012977454699922
 51
356.3911625983407134
  0
ARC
  5
7846
  8
0
 10
3868.6338787766858331
 20
1085.0292049203219449
 30
0.0
 40
0.3401861298695601
 50
3.6944847356866051
 51
20.8968340508493213
  0
ARC
  5
7847
  8
0
 10
3868.9173909618079961
 20
1085.2110153195269504
 30
0.0
 40
0.0340573279040434
 50
321.544279792508803
 51
7.7817250913964982
  0
ARC
  5
7848
  8
0
 10
3868.9181951010859848
 20
1085.2108905640839112
 30
0.0
 40
0.0330638534839738
 50
16.8775303417285301
 51
68.7848002489787547
  0
ARC
  5
7849
  8
0
 10
3868.7500686813132234
 20
1085.5016117605869113
 30
0.0
 40
0.0333271255510291
 50
49.0203611906960219
 51
98.686079948083318
  0
ARC
  5
784A
  8
0
 10
3868.7500686812682034
 20
1085.5016117606339776
 30
0.0
 40
0.0333271255494488
 50
351.3139200506691964
 51
40.979638810572979
  0
ARC
  5
784B
  8
0
 10
3868.4591228809181302
 20
1085.669589396839001
 30
0.0
 40
0.0333271254999934
 50
79.0203618204043181
 51
128.6860800509161891
  0
ARC
  5
784C
  8
0
 10
3868.4591228809181302
 20
1085.669589396839001
 30
0.0
 40
0.0333271254999874
 50
21.3139199600292599
 51
70.9796381905586173
  0
ARC
  5
784D
  8
0
 10
3868.2359851024161799
 20
1085.6871202511570118
 30
0.0
 40
0.0355315095758315
 50
98.1664719604394094
 51
146.8040227572303138
  0
ARC
  5
784E
  8
0
 10
3868.2344700133498918
 20
1085.6902465588289033
 30
0.0
 40
0.032238564897331
 50
40.5509489320551424
 51
93.7480555162164819
  0
ARC
  5
784F
  8
0
 10
3867.8843751033068656
 20
1085.5462293635300739
 30
0.0
 40
0.034958960369745
 50
130.2047367329510905
 51
181.1739589261304104
  0
ARC
  5
7850
  8
0
 10
3867.8822874788020272
 20
1085.5467259869249119
 30
0.0
 40
0.0332562486116085
 50
75.4640216481422215
 51
128.0194323739657989
  0
ARC
  5
7851
  8
0
 10
3867.6700835872647986
 20
1085.2330272759099898
 30
0.0
 40
0.0327799527237747
 50
167.2936696614075061
 51
217.1298020197652079
  0
ARC
  5
7852
  8
0
 10
3867.6702087848448173
 20
1085.2321538841470101
 30
0.0
 40
0.0331044545986185
 50
109.247812959873599
 51
165.8664314726734119
  0
ARC
  5
7853
  8
0
 10
3867.9424522877129675
 20
1085.0290831706249719
 30
0.0
 40
0.3338492425301561
 50
159.3904029907382949
 51
177.6644134445234897
  0
ARC
  5
7854
  8
0
 10
3867.9510498479708076
 20
1085.0630365319580051
 30
0.0
 40
0.3443153355496688
 50
186.8550988202258054
 51
201.179010267138608
  0
ARC
  5
7855
  8
0
 10
3867.6907191144978242
 20
1084.8487655012570485
 30
0.0
 40
0.0521534561522262
 50
153.6124641577843875
 51
187.1026613800511882
  0
ARC
  5
7856
  8
0
 10
3867.6727917778221126
 20
1084.8548232629639188
 30
0.0
 40
0.0360638610259816
 50
200.2908033749797028
 51
248.4333524908076924
  0
ARC
  5
7857
  8
0
 10
3867.8851547101889992
 20
1084.5442256627420647
 30
0.0
 40
0.0393926969429765
 50
231.8519748051847955
 51
280.0221987732630282
  0
ARC
  5
7858
  8
0
 10
3867.8828387615908468
 20
1084.5377194580999003
 30
0.0
 40
0.0329189849747569
 50
177.0898423327527098
 51
228.0242747638442893
  0
ARC
  5
7859
  8
0
 10
3868.2336697939781516
 20
1084.3999178965939336
 30
0.0
 40
0.0369722930084718
 50
267.680466917785111
 51
315.741608143970609
  0
ARC
  5
785A
  8
0
 10
3868.2366874883441596
 20
1084.4015683908949086
 30
0.0
 40
0.0388555953217443
 50
215.5955661462658099
 51
263.3285918788251934
  0
ARC
  5
78D8
  8
0
 10
3868.2232236640688825
 20
1069.1329535200179635
 30
0.0
 40
6.2320036833234136
 50
273.793423895133003
 51
279.3529935830226805
  0
ARC
  5
78D9
  8
0
 10
3868.197832315775031
 20
1068.8313229470120405
 30
0.0
 40
5.9389715129929019
 50
280.0676329140002849
 51
303.7869631415780987
  0
ARC
  5
78DA
  8
0
 10
3866.7588021330439005
 20
1070.7504495081880123
 30
0.0
 40
8.3352273318392722
 50
304.6720517224001128
 51
337.0908353856461872
  0
ARC
  5
78DB
  8
0
 10
3861.1080178793399682
 20
1073.092428141884966
 30
0.0
 40
14.4520228909776804
 50
337.2590806241638006
 51
359.7206299262509219
  0
ARC
  5
78DC
  8
0
 10
3889.6210213429749274
 20
1072.6607984255761039
 30
0.0
 40
14.0657898684385199
 50
175.2712462748696112
 51
178.5286721191266963
  0
ARC
  5
78DD
  8
0
 10
3871.3620108688692198
 20
1079.7173766382400117
 30
0.0
 40
1.1023619039224899
 50
348.6718033363687255
 51
190.9336558643553872
  0
LINE
  5
78DE
  8
0
 10
3869.878671801101973
 20
1079.5200483395760784
 30
0.0
 11
3866.7036186902341797
 21
1079.5200483395760784
 31
0.0
  0
ARC
  5
78DF
  8
0
 10
3870.9416772276449592
 20
1108.9259228857620201
 30
0.0
 40
29.425081790249731
 50
267.9296920728650093
 51
269.997815990915683
  0
LINE
  5
78E0
  8
0
 10
3873.0794604812990656
 20
1079.5008411168898874
 30
0.0
 11
3873.4693320362848681
 21
1079.5008411168898874
 31
0.0
  0
LINE
  5
78E1
  8
0
 10
3872.9963747038791553
 20
1079.5008411168898874
 30
0.0
 11
3863.5859157874579068
 21
1079.5008411168898874
 31
0.0
  0
LINE
  5
78E2
  8
0
 10
3863.5091560898767966
 20
1079.5008411168898874
 30
0.0
 11
3863.1112205658409948
 21
1079.5008411168898874
 31
0.0
  0
LINE
  5
78E3
  8
0
 10
3873.0155546778678399
 20
1079.3605191815390754
 30
0.0
 11
3873.0155546778678399
 21
1079.4826717359630948
 31
0.0
  0
ARC
  5
78E4
  8
0
 10
3872.9958078818881404
 20
1079.4810346889630637
 30
0.0
 40
0.0198145369460688
 50
4.7390922560699176
 51
88.3607520601933487
  0
LINE
  5
78E5
  8
0
 10
3873.030591395268857
 20
1079.3775678002389213
 30
0.0
 11
3873.0340836935679363
 21
1079.483746841239963
 31
0.0
  0
ARC
  5
78E6
  8
0
 10
3873.0765153927732172
 20
1079.4398853369038989
 30
0.0
 40
0.0610268847313404
 50
87.2338960169349917
 51
134.0507444333314879
  0
ARC
  5
78E7
  8
0
 10
3873.4690810421921014
 20
1079.4240306274089107
 30
0.0
 40
0.0768108995663353
 50
1.053848314370013
 51
89.8127749068740684
  0
LINE
  5
78E8
  8
0
 10
3873.5615657828179792
 20
1079.3464392611499534
 30
0.0
 11
3873.5663405927680287
 21
1079.4459033086388899
 31
0.0
  0
ARC
  5
78E9
  8
0
 10
3873.6144020221340725
 20
1079.4443535115360646
 30
0.0
 40
0.0480864103856231
 50
86.5486864013228256
 51
178.1530704336311999
  0
LINE
  5
78EA
  8
0
 10
3873.5458789492931828
 20
1079.4254433400660673
 30
0.0
 11
3873.5497173665130504
 21
1079.3483293399829108
 31
0.0
  0
ARC
  5
78EB
  8
0
 10
3873.7222566041959908
 20
1076.5661068724980396
 30
0.0
 40
2.9281276001853849
 50
77.7138269050307287
 51
92.0542274169065564
  0
ARC
  5
78EC
  8
0
 10
3874.0328631641928041
 20
1077.9928172476320469
 30
0.0
 40
1.467997842852506
 50
25.8318483326725996
 51
77.7097860772774851
  0
ARC
  5
78ED
  8
0
 10
3872.4857842715800871
 20
1077.2821950786749312
 30
0.0
 40
3.1703156518951379
 50
10.4904008901278996
 51
25.2083949972349686
  0
LINE
  5
78EE
  8
0
 10
3875.6031094440681954
 20
1077.8594169611610596
 30
0.0
 11
3875.4706780847318441
 21
1081.6702890317540096
 31
0.0
  0
LINE
  5
78EF
  8
0
 10
3873.99110466284219
 20
1079.3424848075899263
 30
0.0
 11
3873.5990208191101374
 21
1079.3424848075899263
 31
0.0
  0
LINE
  5
78F0
  8
0
 10
3872.9192523729839195
 20
1079.3424848075899263
 30
0.0
 11
3863.6630381183531426
 21
1079.3424848075899263
 31
0.0
  0
LINE
  5
78F1
  8
0
 10
3862.982642602247779
 20
1079.3424848075899263
 30
0.0
 11
3862.5906892268480988
 21
1079.3424848075899263
 31
0.0
  0
ARC
  5
78F2
  8
0
 10
3873.8934270927920807
 20
1077.6187055873740519
 30
0.0
 40
1.726544441286346
 50
18.8753804890253889
 51
86.7568154769547562
  0
ARC
  5
78F3
  8
0
 10
3873.0094319200079553
 20
1079.3810748242399313
 30
0.0
 40
0.0214481376963328
 50
286.5868276964540087
 51
350.5892061104170239
  0
ARC
  5
78F4
  8
0
 10
3872.9275069482628169
 20
1079.5645469468540796
 30
0.0
 40
0.2222155073521649
 50
267.8711604429933004
 51
293.3425056769056027
  0
ARC
  5
78F5
  8
0
 10
3873.6187745593820182
 20
1079.7431486849120574
 30
0.0
 40
0.400813187180419
 50
260.0788507206556801
 51
261.7940468755908228
  0
ARC
  5
78F6
  8
0
 10
3873.6351123111890047
 20
1079.8636862422210925
 30
0.0
 40
0.5224495490121686
 50
261.9074501377983779
 51
266.0387783696737074
  0
LINE
  5
78F7
  8
0
 10
3874.8765071879679454
 20
1081.5136527077399933
 30
0.0
 11
3861.7057833047679196
 21
1081.5136527077399933
 31
0.0
  0
ARC
  5
78F8
  8
0
 10
3874.8769446858750598
 20
1082.7172499508681085
 30
0.0
 40
1.203597322641702
 50
269.9791734464373008
 51
359.9042450481915125
  0
LINE
  5
78F9
  8
0
 10
3875.2675577594668539
 20
1088.5086037312080407
 30
0.0
 11
3861.314732731868844
 21
1088.5086037312080407
 31
0.0
  0
ARC
  5
78FA
  8
0
 10
3875.2604732514691932
 20
1087.6878161884360452
 30
0.0
 40
0.820818116651324
 50
2.4512011317087561
 51
89.5054721138818792
  0
ARC
  5
78FB
  8
0
 10
3868.3587323548817949
 20
1069.1309574300209988
 30
0.0
 40
6.2299898414031363
 50
260.6462369543514797
 51
266.208430904765919
  0
ARC
  5
78FC
  8
0
 10
3868.384396757444847
 20
1068.8313224951439224
 30
0.0
 40
5.9389715129929019
 50
236.2127593120374911
 51
259.932089539621586
  0
ARC
  5
78FD
  8
0
 10
3869.8234362365969901
 20
1070.7504420854938871
 30
0.0
 40
8.3352273318392722
 50
202.9088870679755985
 51
235.3276707312352016
  0
ARC
  5
78FE
  8
0
 10
3875.9823091976600153
 20
1073.2489435278730525
 30
0.0
 40
14.9812108264543706
 50
180.8679937739088075
 51
202.5416830439214095
  0
ARC
  5
78FF
  8
0
 10
3845.1981785138068517
 20
1072.9529205925889528
 30
0.0
 40
15.8047898910192597
 50
0.2504163036184413
 51
3.1457305218691629
  0
ARC
  5
7900
  8
0
 10
3865.2202709375001177
 20
1079.7173915138339453
 30
0.0
 40
1.1023619039224899
 50
349.0660015609299194
 51
191.3289851927966083
  0
ARC
  5
7901
  8
0
 10
3865.6405224930258555
 20
1108.9506197839050401
 30
0.0
 40
29.4497658575454118
 50
270.0023398390072202
 51
272.0687486048320807
  0
LINE
  5
7902
  8
0
 10
3863.5667253998672095
 20
1079.3605420670669446
 30
0.0
 11
3863.5667259915849172
 21
1079.4826946214889176
 31
0.0
  0
ARC
  5
7903
  8
0
 10
3863.5864287067129226
 20
1079.4810789210300754
 30
0.0
 40
0.0197688510371487
 50
91.4867534159318154
 51
175.3120093689078089
  0
LINE
  5
7904
  8
0
 10
3863.5516887650519493
 20
1079.3775907586059475
 30
0.0
 11
3863.5481969810939518
 21
1079.483769816521999
 31
0.0
  0
ARC
  5
7905
  8
0
 10
3863.5057650694188851
 20
1079.4399085177299185
 30
0.0
 40
0.0610268847313404
 50
45.9489780203043026
 51
92.7658264366944252
  0
ARC
  5
7906
  8
0
 10
3863.1131993432049967
 20
1079.424055709861932
 30
0.0
 40
0.0768108995663353
 50
90.1869475467645856
 51
178.945874139262088
  0
LINE
  5
7907
  8
0
 10
3863.0207142267190648
 20
1079.3464647916089234
 30
0.0
 11
3863.0159398985829284
 21
1079.4459288622269924
 31
0.0
  0
ARC
  5
7908
  8
0
 10
3862.9678784617099154
 20
1079.4443792979370755
 30
0.0
 40
0.0480864103856231
 50
1.8466520200004251
 51
93.4510360523012906
  0
LINE
  5
7909
  8
0
 10
3863.0364014429469535
 20
1079.425468794534936
 30
0.0
 11
3863.0325626521798767
 21
1079.348354813045944
 31
0.0
  0
ARC
  5
790A
  8
0
 10
3862.8600099371401484
 20
1076.5661331813910238
 30
0.0
 40
2.9281276001853849
 50
87.9454950367103265
 51
102.2858955485961019
  0
ARC
  5
790B
  8
0
 10
3862.5494102882721563
 20
1077.9928450611180324
 30
0.0
 40
1.467997842852506
 50
102.2899363763524008
 51
154.167874120955986
  0
ARC
  5
790C
  8
0
 10
3864.0970301287261464
 20
1077.2820006367019232
 30
0.0
 40
3.1708996663027249
 50
154.7920060771425028
 51
169.5073290658123994
  0
LINE
  5
790D
  8
0
 10
3860.9791535794252013
 20
1077.8594523810741066
 30
0.0
 11
3861.1116131817839232
 21
1081.6703238101129045
 31
0.0
  0
ARC
  5
790E
  8
0
 10
3862.6888445474378386
 20
1077.6187327254219781
 30
0.0
 40
1.726544441286346
 50
93.2429069766738792
 51
161.1243419646085897
  0
ARC
  5
790F
  8
0
 10
3863.5728482573008478
 20
1079.3810976801080415
 30
0.0
 40
0.0214481376963328
 50
189.4105163432186885
 51
253.412894757160899
  0
ARC
  5
7910
  8
0
 10
3863.6520951181769306
 20
1079.549999801236936
 30
0.0
 40
0.207803324904369
 50
245.7436568604769889
 51
273.0186132611974017
  0
ARC
  5
7911
  8
0
 10
3866.9978461616860841
 20
1078.3586131210940948
 30
0.0
 40
1.1494140491823981
 50
87.7298091684991022
 51
90.3425525856977316
  0
ARC
  5
7912
  8
0
 10
3866.9799792752851317
 20
1078.160704858293002
 30
0.0
 40
1.3473466321036329
 50
89.5324352680055284
 51
92.0573788166900755
  0
ARC
  5
7913
  8
0
 10
3867.0009879520412142
 20
1080.4331721100909363
 30
0.0
 40
0.9279503280348183
 50
269.9444292234006184
 51
272.6198582960207091
  0
ARC
  5
7914
  8
0
 10
3867.044073494128952
 20
1079.5154511141408875
 30
0.0
 40
0.0092836102675313
 50
265.8634875352307176
 51
288.3152215974636192
  0
ARC
  5
7915
  8
0
 10
3867.0441589437318726
 20
1079.499279959092064
 30
0.0
 40
0.0078839859864898
 50
68.9493336056553403
 51
95.6943654001363768
  0
ARC
  5
7916
  8
0
 10
3866.9836749438668448
 20
1081.01745810922489
 30
0.0
 40
1.512324957005998
 50
267.8306743440479067
 51
270.6218331873142233
  0
ARC
  5
7917
  8
0
 10
3866.9318575267020606
 20
1079.469923925501007
 30
0.0
 40
0.0372598608320188
 50
90.3820134938486603
 51
100.6968745477788048
  0
ARC
  5
7918
  8
0
 10
3866.9268815415848621
 20
1079.5119489265180164
 30
0.0
 40
0.0057497521547376
 50
250.281838557023093
 51
265.4874377691446057
  0
ARC
  5
7919
  8
0
 10
3862.9635073718550302
 20
1079.7431744924911072
 30
0.0
 40
0.400813187180419
 50
278.2056755780487265
 51
279.9208717329779006
  0
ARC
  5
791A
  8
0
 10
3862.947170203944097
 20
1079.8637121289409606
 30
0.0
 40
0.5224495490121686
 50
273.9609440839552121
 51
278.0922723158308258
  0
ARC
  5
791B
  8
0
 10
3861.7054060150790065
 20
1082.7173042966310277
 30
0.0
 40
1.2036516480228361
 50
180.2740878646200997
 51
270.0179596041880927
  0
ARC
  5
791C
  8
0
 10
3861.3217963300098745
 20
1087.687854901495939
 30
0.0
 40
0.8207792248174405
 50
90.4930916198438666
 51
177.5487511603944029
  0
LINE
  5
79B3
  8
0
 10
3867.9467613422671093
 20
1062.9146037312079898
 30
0.0
 11
3868.6355291490690433
 21
1062.9146037312079898
 31
0.0
  0
ARC
  5
79B4
  8
0
 10
3866.9974039085709592
 20
1078.3543875900079456
 30
0.0
 40
1.1494140491823981
 50
87.7298091684991022
 51
90.3425525856977316
  0
ARC
  5
79B5
  8
0
 10
3866.9795370221700068
 20
1078.1564793272070801
 30
0.0
 40
1.3473466321036329
 50
89.5324352680055284
 51
92.0573788166900755
  0
ARC
  5
79B6
  8
0
 10
3866.9865141315558503
 20
1080.8408576076080863
 30
0.0
 40
1.3400808308210039
 50
270.5614547287055984
 51
272.4141514361463123
  0
ARC
  5
79B7
  8
0
 10
3867.0436312410151913
 20
1079.5112255830549657
 30
0.0
 40
0.0092836102675313
 50
265.8634875352307176
 51
288.3152215974636192
  0
ARC
  5
79B8
  8
0
 10
3867.0437166906172024
 20
1079.4950544280059148
 30
0.0
 40
0.0078839859864898
 50
68.9493336056553403
 51
95.6943654001363768
  0
ARC
  5
79B9
  8
0
 10
3866.9913796175660536
 20
1081.3303718810259397
 30
0.0
 40
1.8295494376532031
 50
267.9516681999666048
 51
270.2588683671867784
  0
ARC
  5
79BA
  8
0
 10
3866.9314152735869357
 20
1079.4656983944139483
 30
0.0
 40
0.0372598608320188
 50
90.3820134938486603
 51
100.6968745477788048
  0
ARC
  5
79BB
  8
0
 10
3866.926439288470192
 20
1079.5077233954309577
 30
0.0
 40
0.0057497521547376
 50
250.281838557023093
 51
265.4874377691446057
  0
ARC
  5
79BC
  8
0
 10
3867.1654613177879583
 20
1078.3590076601210512
 30
0.0
 40
1.1494140491823981
 50
87.7298091684991022
 51
90.3425525856977316
  0
ARC
  5
79BD
  8
0
 10
3867.1475944313870059
 20
1078.1610993973190489
 30
0.0
 40
1.3473466321036329
 50
89.5324352680055284
 51
92.0573788166900755
  0
ARC
  5
79BE
  8
0
 10
3867.1686031081430883
 20
1080.4335666491169832
 30
0.0
 40
0.9279503280348183
 50
269.9444292234006184
 51
272.6198582960207091
  0
ARC
  5
79BF
  8
0
 10
3867.2116886502308262
 20
1079.5158456531669344
 30
0.0
 40
0.0092836102675313
 50
265.8634875352307176
 51
288.3152215974636192
  0
ARC
  5
79C0
  8
0
 10
3867.2117740998328372
 20
1079.4996744981181109
 30
0.0
 40
0.0078839859864898
 50
68.9493336056553403
 51
95.6943654001363768
  0
ARC
  5
79C1
  8
0
 10
3867.1512900999691738
 20
1081.0178526482509369
 30
0.0
 40
1.512324957005998
 50
267.8306743440479067
 51
270.6218331873142233
  0
ARC
  5
79C2
  8
0
 10
3867.0994726828039347
 20
1079.4703184645270539
 30
0.0
 40
0.0372598608320188
 50
90.3820134938486603
 51
100.6968745477788048
  0
ARC
  5
79C3
  8
0
 10
3867.094496697687191
 20
1079.5123434655440633
 30
0.0
 40
0.0057497521547376
 50
250.281838557023093
 51
265.4874377691446057
  0
ARC
  5
79C4
  8
0
 10
3867.1650190646741976
 20
1078.3547821290339925
 30
0.0
 40
1.1494140491823981
 50
87.7298091684991022
 51
90.3425525856977316
  0
ARC
  5
79C5
  8
0
 10
3867.1471521782727905
 20
1078.1568738662328997
 30
0.0
 40
1.3473466321036329
 50
89.5324352680055284
 51
92.0573788166900755
  0
ARC
  5
79C6
  8
0
 10
3867.5629390890439936
 20
1068.840075477442042
 30
0.0
 40
10.6681059843779202
 50
91.8927959679581079
 51
92.125578304430789
  0
ARC
  5
79C7
  8
0
 10
3867.211246397116156
 20
1079.5116201220801031
 30
0.0
 40
0.0092836102675313
 50
265.8634875352307176
 51
288.3152215974636192
  0
ARC
  5
79C8
  8
0
 10
3867.2113318467190766
 20
1079.4954489670319617
 30
0.0
 40
0.0078839859864898
 50
68.9493336056553403
 51
95.6943654001363768
  0
ARC
  5
79C9
  8
0
 10
3867.2123897872088492
 20
1083.4093054766478872
 30
0.0
 40
3.9087248909508121
 50
268.2584901026144735
 51
269.3384657193640805
  0
ARC
  5
79CA
  8
0
 10
3867.0990304296901741
 20
1079.4660929334399952
 30
0.0
 40
0.0372598608320188
 50
90.3820134938486603
 51
100.6968745477788048
  0
ARC
  5
79CB
  8
0
 10
3867.0940544445720661
 20
1079.5081179344570046
 30
0.0
 40
0.0057497521547376
 50
250.281838557023093
 51
265.4874377691446057
  0
ARC
  5
79CC
  8
0
 10
3867.3333394428741485
 20
1078.3592600892609426
 30
0.0
 40
1.1494140491823981
 50
87.7298091684991022
 51
90.3425525856977316
  0
ARC
  5
79CD
  8
0
 10
3867.3154725564731962
 20
1078.1613518264589402
 30
0.0
 40
1.3473466321036329
 50
89.5324352680055284
 51
92.0573788166900755
  0
ARC
  5
79CE
  8
0
 10
3867.3364812332288238
 20
1080.4338190782571019
 30
0.0
 40
0.9279503280348183
 50
269.9444292234006184
 51
272.6198582960207091
  0
ARC
  5
79CF
  8
0
 10
3867.3795667753170164
 20
1079.5160980823070531
 30
0.0
 40
0.0092836102675313
 50
265.8634875352307176
 51
288.3152215974636192
  0
ARC
  5
79D0
  8
0
 10
3867.379652224919937
 20
1079.4999269272580023
 30
0.0
 40
0.0078839859864898
 50
68.9493336056553403
 51
95.6943654001363768
  0
ARC
  5
79D1
  8
0
 10
3867.3191682250549093
 20
1081.0181050773910556
 30
0.0
 40
1.512324957005998
 50
267.8306743440479067
 51
270.6218331873142233
  0
ARC
  5
79D2
  8
0
 10
3867.267350807890125
 20
1079.4705708936669453
 30
0.0
 40
0.0372598608320188
 50
90.3820134938486603
 51
100.6968745477788048
  0
ARC
  5
79D3
  8
0
 10
3867.2623748227729266
 20
1079.5125958946839546
 30
0.0
 40
0.0057497521547376
 50
250.281838557023093
 51
265.4874377691446057
  0
ARC
  5
79D4
  8
0
 10
3867.3328971897590236
 20
1078.3550345581741112
 30
0.0
 40
1.1494140491823981
 50
87.7298091684991022
 51
90.3425525856977316
  0
ARC
  5
79D5
  8
0
 10
3867.3150303033580713
 20
1078.1571262953730184
 30
0.0
 40
1.3473466321036329
 50
89.5324352680055284
 51
92.0573788166900755
  0
ARC
  5
79D6
  8
0
 10
3867.3967469210188028
 20
1078.6474230250519213
 30
0.0
 40
0.8553857057460811
 50
91.2253389136889439
 51
93.8869981038441352
  0
ARC
  5
79D7
  8
0
 10
3867.379124522202801
 20
1079.5118725512199944
 30
0.0
 40
0.0092836102675313
 50
265.8634875352307176
 51
288.3152215974636192
  0
ARC
  5
79D8
  8
0
 10
3867.3792099718048121
 20
1079.4957013961720804
 30
0.0
 40
0.0078839859864898
 50
68.9493336056553403
 51
95.6943654001363768
  0
ARC
  5
79D9
  8
0
 10
3867.6473961426358983
 20
1093.8082154409969462
 30
0.0
 40
14.3107814110000007
 50
268.4547289658603972
 51
268.7497231850092021
  0
ARC
  5
79DA
  8
0
 10
3867.2669085547750001
 20
1079.4663453625798866
 30
0.0
 40
0.0372598608320188
 50
90.3820134938486603
 51
100.6968745477788048
  0
ARC
  5
79DB
  8
0
 10
3867.2619325696578017
 20
1079.5083703635968959
 30
0.0
 40
0.0057497521547376
 50
250.281838557023093
 51
265.4874377691446057
  0
ARC
  5
79DC
  8
0
 10
3867.4965055549841964
 20
1078.3594189323400769
 30
0.0
 40
1.1494140491823981
 50
87.7298091684991022
 51
90.3425525856977316
  0
ARC
  5
79DD
  8
0
 10
3867.4786386685827893
 20
1078.1615106695389841
 30
0.0
 40
1.3473466321036329
 50
89.5324352680055284
 51
92.0573788166900755
  0
ARC
  5
79DE
  8
0
 10
3867.4996473453388717
 20
1080.4339779213369184
 30
0.0
 40
0.9279503280348183
 50
269.9444292234006184
 51
272.6198582960207091
  0
ARC
  5
79DF
  8
0
 10
3867.5427328874270643
 20
1079.516256925387097
 30
0.0
 40
0.0092836102675313
 50
265.8634875352307176
 51
288.3152215974636192
  0
ARC
  5
79E0
  8
0
 10
3867.5428183370299848
 20
1079.5000857703380461
 30
0.0
 40
0.0078839859864898
 50
68.9493336056553403
 51
95.6943654001363768
  0
ARC
  5
79E1
  8
0
 10
3867.4823343371649571
 20
1081.0182639204710995
 30
0.0
 40
1.512324957005998
 50
267.8306743440479067
 51
270.6218331873142233
  0
ARC
  5
79E2
  8
0
 10
3867.4305169200010823
 20
1079.4707297367460797
 30
0.0
 40
0.0372598608320188
 50
90.3820134938486603
 51
100.6968745477788048
  0
ARC
  5
79E3
  8
0
 10
3867.4255409348829744
 20
1079.5127547377639985
 30
0.0
 40
0.0057497521547376
 50
250.281838557023093
 51
265.4874377691446057
  0
ARC
  5
79E4
  8
0
 10
3867.4960633018690714
 20
1078.3551934012539277
 30
0.0
 40
1.1494140491823981
 50
87.7298091684991022
 51
90.3425525856977316
  0
ARC
  5
79E5
  8
0
 10
3867.4781964154681191
 20
1078.1572851384530622
 30
0.0
 40
1.3473466321036329
 50
89.5324352680055284
 51
92.0573788166900755
  0
ARC
  5
79E6
  8
0
 10
3867.5606193490198166
 20
1078.626846989104024
 30
0.0
 40
0.8761309868628302
 50
91.242521673149696
 51
94.002481744668259
  0
ARC
  5
79E7
  8
0
 10
3867.5422906343119394
 20
1079.5120313943000383
 30
0.0
 40
0.0092836102675313
 50
265.8634875352307176
 51
288.3152215974636192
  0
ARC
  5
79E8
  8
0
 10
3867.5423760839148599
 20
1079.4958602392509874
 30
0.0
 40
0.0078839859864898
 50
68.9493336056553403
 51
95.6943654001363768
  0
ARC
  5
79E9
  8
0
 10
3867.2991931296451185
 20
1074.2151150576689815
 30
0.0
 40
5.2891702339561633
 50
87.9321827147557968
 51
88.6408810307014363
  0
ARC
  5
79EA
  8
0
 10
3867.4300746668859574
 20
1079.4665042056599304
 30
0.0
 40
0.0372598608320188
 50
90.3820134938486603
 51
100.6968745477788048
  0
ARC
  5
79EB
  8
0
 10
3867.4250986817678495
 20
1079.5085292066769398
 30
0.0
 40
0.0057497521547376
 50
250.281838557023093
 51
265.4874377691446057
  0
ARC
  5
79EC
  8
0
 10
3869.5887226214781549
 20
1078.3586150606558931
 30
0.0
 40
1.1494140491823981
 50
89.6575331989297553
 51
92.2702766161119285
  0
ARC
  5
79ED
  8
0
 10
3869.6065898041920263
 20
1078.1607068246059953
 30
0.0
 40
1.3473466321036329
 50
87.9427069679494195
 51
90.4676505166172689
  0
ARC
  5
79EE
  8
0
 10
3869.5855777250430947
 20
1080.4331740449460995
 30
0.0
 40
0.9279503280348187
 50
267.38022748858981
 51
270.0556565612196209
  0
ARC
  5
79EF
  8
0
 10
3869.542493556989939
 20
1079.5154529844890021
 30
0.0
 40
0.0092836102675313
 50
251.6848641871704046
 51
274.1365982493725824
  0
ARC
  5
79F0
  8
0
 10
3869.5424081315991316
 20
1079.4992818293119399
 30
0.0
 40
0.0078839859864898
 50
84.3057203844645642
 51
111.0507521789586036
  0
ARC
  5
79F1
  8
0
 10
3869.6028898584108902
 20
1081.0174600700011069
 30
0.0
 40
1.5123249570059989
 50
269.3782525973145994
 51
272.1694114405760843
  0
ARC
  5
79F2
  8
0
 10
3869.6547095925798203
 20
1079.4699259638600779
 30
0.0
 40
0.0372598608320188
 50
79.3032112368364182
 51
89.6180722907875946
  0
ARC
  5
79F3
  8
0
 10
3869.659685514776811
 20
1079.5119509723278952
 30
0.0
 40
0.0057497521547376
 50
274.5126480154711999
 51
289.718247227606696
  0
ARC
  5
79F4
  8
0
 10
3869.5891648809188155
 20
1078.3543895302320834
 30
0.0
 40
1.1494140491823981
 50
89.6575331989297553
 51
92.2702766161119285
  0
ARC
  5
79F5
  8
0
 10
3869.6070320636331417
 20
1078.1564812941810487
 30
0.0
 40
1.3473466321036329
 50
87.9427069679494195
 51
90.4676505166172689
  0
ARC
  5
79F6
  8
0
 10
3869.6000509351320034
 20
1080.8408595641330976
 30
0.0
 40
1.3400808308210039
 50
267.5859343484872852
 51
269.4386310559277149
  0
ARC
  5
79F7
  8
0
 10
3869.5429358164310543
 20
1079.5112274540640556
 30
0.0
 40
0.0092836102675313
 50
251.6848641871704046
 51
274.1365982493725824
  0
ARC
  5
79F8
  8
0
 10
3869.5428503910397922
 20
1079.4950562988869933
 30
0.0
 40
0.0078839859864898
 50
84.3057203844645642
 51
111.0507521789586036
  0
ARC
  5
79F9
  8
0
 10
3869.5951847162091326
 20
1081.330373830264989
 30
0.0
 40
1.8295494376532031
 50
269.7412174174345978
 51
269.7550149604850844
  0
ARC
  5
79FA
  8
0
 10
3869.5951847162091326
 20
1081.330373830264989
 30
0.0
 40
1.8295494376532031
 50
270.2449850395149156
 51
272.0484175846613084
  0
ARC
  5
79FB
  8
0
 10
3869.6551518520218451
 20
1079.4657004334360408
 30
0.0
 40
0.0372598608320188
 50
79.3032112368364182
 51
89.6180722907875946
  0
ARC
  5
79FC
  8
0
 10
3869.6601277742179263
 20
1079.5077254419029487
 30
0.0
 40
0.0057497521547376
 50
274.5126480154711999
 51
289.718247227606696
  0
ARC
  5
79FD
  8
0
 10
3869.4211074647860187
 20
1078.3590093487239301
 30
0.0
 40
1.1494140491823981
 50
89.6575331989297553
 51
92.2702766161119285
  0
ARC
  5
79FE
  8
0
 10
3869.4389746474989806
 20
1078.1611011126740323
 30
0.0
 40
1.3473466321036329
 50
87.9427069679494195
 51
90.4676505166172689
  0
ARC
  5
79FF
  8
0
 10
3869.4179625683509585
 20
1080.4335683330150459
 30
0.0
 40
0.9279503280348187
 50
267.38022748858981
 51
270.0556565612196209
  0
ARC
  5
7A00
  8
0
 10
3869.3748784002968932
 20
1079.5158472725570391
 30
0.0
 40
0.0092836102675313
 50
251.6848641871704046
 51
274.1365982493725824
  0
ARC
  5
7A01
  8
0
 10
3869.3747929749060859
 20
1079.4996761173799769
 30
0.0
 40
0.0078839859864898
 50
84.3057203844645642
 51
111.0507521789586036
  0
ARC
  5
7A02
  8
0
 10
3869.4352747017178444
 20
1081.0178543580689166
 30
0.0
 40
1.5123249570059989
 50
269.3782525973145994
 51
272.1694114405760843
  0
ARC
  5
7A03
  8
0
 10
3869.4870944358881388
 20
1079.4703202519290244
 30
0.0
 40
0.0372598608320188
 50
79.3032112368364182
 51
89.6180722907875946
  0
ARC
  5
7A04
  8
0
 10
3869.4920703580842201
 20
1079.5123452603959322
 30
0.0
 40
0.0057497521547376
 50
274.5126480154711999
 51
289.718247227606696
  0
ARC
  5
7A05
  8
0
 10
3869.4215497242262245
 20
1078.354783818299893
 30
0.0
 40
1.1494140491823981
 50
89.6575331989297553
 51
92.2702766161119285
  0
ARC
  5
7A06
  8
0
 10
3869.4394169069410054
 20
1078.1568755822499952
 30
0.0
 40
1.3473466321036329
 50
87.9427069679494195
 51
90.4676505166172689
  0
ARC
  5
7A07
  8
0
 10
3869.023643945502954
 20
1068.8400765709429834
 30
0.0
 40
10.6681059843779202
 50
87.8745074802090755
 51
88.1072898166566745
  0
ARC
  5
7A08
  8
0
 10
3869.3753206597380085
 20
1079.5116217421320925
 30
0.0
 40
0.0092836102675313
 50
251.6848641871704046
 51
274.1365982493725824
  0
ARC
  5
7A09
  8
0
 10
3869.3752352343472012
 20
1079.4954505869559398
 30
0.0
 40
0.0078839859864898
 50
84.3057203844645642
 51
111.0507521789586036
  0
ARC
  5
7A0A
  8
0
 10
3869.3741714339380451
 20
1083.409307094982978
 30
0.0
 40
3.908724890950813
 50
270.6616200652542261
 51
271.7415956819871212
  0
ARC
  5
7A0B
  8
0
 10
3869.4875366953287994
 20
1079.4660947215049873
 30
0.0
 40
0.0372598608320188
 50
79.3032112368364182
 51
89.6180722907875946
  0
ARC
  5
7A0C
  8
0
 10
3869.4925126175257901
 20
1079.5081197299718951
 30
0.0
 40
0.0057497521547376
 50
274.5126480154711999
 51
289.718247227606696
  0
ARC
  5
7A0D
  8
0
 10
3869.2532293393210239
 20
1078.3592615265129098
 30
0.0
 40
1.1494140491823981
 50
89.6575331989297553
 51
92.2702766161119285
  0
ARC
  5
7A0E
  8
0
 10
3869.2710965220358048
 20
1078.1613532904630119
 30
0.0
 40
1.3473466321036329
 50
87.9427069679494195
 51
90.4676505166172689
  0
ARC
  5
7A0F
  8
0
 10
3869.2500844428868731
 20
1080.4338205108028887
 30
0.0
 40
0.9279503280348187
 50
267.38022748858981
 51
270.0556565612196209
  0
ARC
  5
7A10
  8
0
 10
3869.2070002748328079
 20
1079.5160994503460188
 30
0.0
 40
0.0092836102675313
 50
251.6848641871704046
 51
274.1365982493725824
  0
ARC
  5
7A11
  8
0
 10
3869.2069148494420006
 20
1079.4999282951689565
 30
0.0
 40
0.0078839859864898
 50
84.3057203844645642
 51
111.0507521789586036
  0
ARC
  5
7A12
  8
0
 10
3869.2673965762542139
 20
1081.0181065358578962
 30
0.0
 40
1.5123249570059989
 50
269.3782525973145994
 51
272.1694114405760843
  0
ARC
  5
7A13
  8
0
 10
3869.3192163104240535
 20
1079.4705724297180041
 30
0.0
 40
0.0372598608320188
 50
79.3032112368364182
 51
89.6180722907875946
  0
ARC
  5
7A14
  8
0
 10
3869.3241922326210442
 20
1079.5125974381849119
 30
0.0
 40
0.0057497521547376
 50
274.5126480154711999
 51
289.718247227606696
  0
ARC
  5
7A15
  8
0
 10
3869.2536715987630487
 20
1078.3550359960891001
 30
0.0
 40
1.1494140491823981
 50
89.6575331989297553
 51
92.2702766161119285
  0
ARC
  5
7A16
  8
0
 10
3869.2715387814769201
 20
1078.1571277600389749
 30
0.0
 40
1.3473466321036329
 50
87.9427069679494195
 51
90.4676505166172689
  0
ARC
  5
7A17
  8
0
 10
3869.1898214297320919
 20
1078.6474243673690125
 30
0.0
 40
0.8553857057460813
 50
86.1130876807735461
 51
88.774746870939012
  0
ARC
  5
7A18
  8
0
 10
3869.2074425342739232
 20
1079.5118739199210722
 30
0.0
 40
0.0092836102675313
 50
251.6848641871704046
 51
274.1365982493725824
  0
ARC
  5
7A19
  8
0
 10
3869.2073571088840254
 20
1079.49570276474401
 30
0.0
 40
0.0078839859864898
 50
84.3057203844645642
 51
111.0507521789586036
  0
ARC
  5
7A1A
  8
0
 10
3869.3196585698651688
 20
1079.4663468992930575
 30
0.0
 40
0.0372598608320188
 50
79.3032112368364182
 51
89.6180722907875946
  0
ARC
  5
7A1B
  8
0
 10
3869.3191795110819839
 20
1079.514767888462984
 30
0.0
 40
0.0139329651540325
 50
271.708452209730126
 51
302.0561325840656082
  0
ARC
  5
7A1C
  8
0
 10
3869.0900632269740527
 20
1078.3594201252969924
 30
0.0
 40
1.1494140491823981
 50
89.6575331989297553
 51
92.2702766161119285
  0
ARC
  5
7A1D
  8
0
 10
3869.1079304096879241
 20
1078.1615118892459577
 30
0.0
 40
1.3473466321036329
 50
87.9427069679494195
 51
90.4676505166172689
  0
ARC
  5
7A1E
  8
0
 10
3869.0869183305399019
 20
1080.4339791095869714
 30
0.0
 40
0.9279503280348187
 50
267.38022748858981
 51
270.0556565612196209
  0
ARC
  5
7A1F
  8
0
 10
3869.0438341624858367
 20
1079.5162580491289646
 30
0.0
 40
0.0092836102675313
 50
251.6848641871704046
 51
274.1365982493725824
  0
ARC
  5
7A20
  8
0
 10
3869.0437487370950294
 20
1079.5000868939530392
 30
0.0
 40
0.0078839859864898
 50
84.3057203844645642
 51
111.0507521789586036
  0
ARC
  5
7A21
  8
0
 10
3869.1042304639058784
 20
1081.0182651346419789
 30
0.0
 40
1.5123249570059989
 50
269.3782525973145994
 51
272.1694114405760843
  0
ARC
  5
7A22
  8
0
 10
3869.1560501980761728
 20
1079.4707310285009498
 30
0.0
 40
0.0372598608320188
 50
79.3032112368364182
 51
89.6180722907875946
  0
ARC
  5
7A23
  8
0
 10
3869.161026120274073
 20
1079.5127560369689945
 30
0.0
 40
0.0057497521547376
 50
274.5126480154711999
 51
289.718247227606696
  0
ARC
  5
7A24
  8
0
 10
3869.090505486415168
 20
1078.3551945948720459
 30
0.0
 40
1.1494140491823981
 50
89.6575331989297553
 51
92.2702766161119285
  0
ARC
  5
7A25
  8
0
 10
3869.1083726691290394
 20
1078.1572863588219207
 30
0.0
 40
1.3473466321036329
 50
87.9427069679494195
 51
90.4676505166172689
  0
ARC
  5
7A26
  8
0
 10
3869.025949032538847
 20
1078.626848086066957
 30
0.0
 40
0.8761309868628304
 50
85.9976040399367321
 51
88.7575641114591463
  0
ARC
  5
7A27
  8
0
 10
3869.0442764219260425
 20
1079.5120325187049275
 30
0.0
 40
0.0092836102675313
 50
251.6848641871704046
 51
274.1365982493725824
  0
ARC
  5
7A28
  8
0
 10
3869.0441909965361447
 20
1079.4958613635280926
 30
0.0
 40
0.0078839859864898
 50
84.3057203844645642
 51
111.0507521789586036
  0
ARC
  5
7A29
  8
0
 10
3869.2873818572638811
 20
1074.2151165460509219
 30
0.0
 40
5.2891702339561641
 50
91.3592047539129624
 51
92.0679030698777012
  0
ARC
  5
7A2A
  8
0
 10
3869.1564924575181976
 20
1079.4665054980769128
 30
0.0
 40
0.0372598608320188
 50
79.3032112368364182
 51
89.6180722907875946
  0
ARC
  5
7A2B
  8
0
 10
3869.1614683797138241
 20
1079.508530506544048
 30
0.0
 40
0.0057497521547376
 50
274.5126480154711999
 51
289.718247227606696
  0
LINE
  5
7A3A
  8
0
 10
3860.5017681392891973
 20
1082.7115463672600981
 30
0.0
 11
3860.5017681392891973
 21
1087.7229590652739262
 31
0.0
  0
LINE
  5
7A3C
  8
0
 10
3876.0805403276690413
 20
1082.7152384527960294
 30
0.0
 11
3876.0805403276690413
 21
1087.7229213327539128
 31
0.0
  0
LINE
  5
7A40
  8
0
 10
3875.6031094440681954
 20
1073.8203632653189743
 30
0.0
 11
3875.6031094440681954
 21
1077.8594169611610596
 31
0.0
  0
LINE
  5
7A44
  8
0
 10
3860.9791535794252013
 20
1073.8202207007379911
 30
0.0
 11
3860.9791535794252013
 21
1077.8594523810741066
 31
0.0
  0
ATTDEF
  5
7AD8
  8
DEFPOINTS
 10
3868.2922934609300682
 20
1088.5128722869749254
 30
0.0
 40
0.001
  1
K-24929A
  3

  2
MODELNUMBER
 70
     0
1001
ACDBATTR
1070
     0
1070
     1
  0
ATTDEF
  5
7AD9
  8
DEFPOINTS
 10
3868.2922934609300682
 20
1088.5112056203079192
 30
0.0
 40
0.001
  1
GRANDE
  3

  2
TRADENAME
 70
     0
1001
ACDBATTR
1070
     0
1070
     1
  0
ATTDEF
  5
7ADA
  8
DEFPOINTS
 10
3868.2922934609300682
 20
1088.5095389536420498
 30
0.0
 40
0.001
  1
TOILET
  3

  2
PRODUCT
 70
     0
1001
ACDBATTR
1070
     0
1070
     1
  0
ENDSEC
  0
EOF
