  0
SECTION
  2
HEADER
  9
$ACADVER
  1
AC1009
  9
$INSBASE
 10
3782.5432364489151951
 20
16.3475201799680114
 30
0.0
  9
$EXTMIN
 10
3771.262401539889197
 20
16.3462597430317516
 30
-0.0000000349181948
  9
$EXTMAX
 10
3783.9026014040759947
 20
40.3047420737905
 30
0.0000000814935746
  9
$LIMMIN
 10
0.0
 20
0.0
  9
$LIMMAX
 10
11.6929133858000007
 20
8.2677165353999982
  9
$ORTHOMODE
 70
     1
  9
$REGENMODE
 70
     1
  9
$FILLMODE
 70
     1
  9
$QTEXTMODE
 70
     0
  9
$MIRRTEXT
 70
     0
  9
$DRAGMODE
 70
     2
  9
$LTSCALE
 40
0.6431102362
  9
$OSMODE
 70
  4095
  9
$ATTMODE
 70
     1
  9
$TEXTSIZE
 40
0.2
  9
$TRACEWID
 40
0.05
  9
$TEXTSTYLE
  7
STANDARD
  9
$CLAYER
  8
0
  9
$CELTYPE
  6
BYLAYER
  9
$CECOLOR
 62
   256
  9
$DIMSCALE
 40
1.0
  9
$DIMASZ
 40
0.1875
  9
$DIMEXO
 40
0.0625
  9
$DIMDLI
 40
0.4443307087
  9
$DIMRND
 40
0.0
  9
$DIMDLE
 40
0.0
  9
$DIMEXE
 40
0.125
  9
$DIMTP
 40
0.01
  9
$DIMTM
 40
0.01
  9
$DIMTXT
 40
2.0
  9
$DIMCEN
 40
0.1052362205
  9
$DIMTSZ
 40
0.0
  9
$DIMTOL
 70
     1
  9
$DIMLIM
 70
     0
  9
$DIMTIH
 70
     1
  9
$DIMTOH
 70
     1
  9
$DIMSE1
 70
     0
  9
$DIMSE2
 70
     0
  9
$DIMTAD
 70
     0
  9
$DIMZIN
 70
     0
  9
$DIMBLK
  1

  9
$DIMASO
 70
     1
  9
$DIMSHO
 70
     1
  9
$DIMPOST
  1
\X
  9
$DIMAPOST
  1

  9
$DIMALT
 70
     1
  9
$DIMALTD
 70
     2
  9
$DIMALTF
 40
25.3999999999999986
  9
$DIMLFAC
 40
1.0
  9
$DIMTOFL
 70
     0
  9
$DIMTVP
 40
0.0
  9
$DIMTIX
 70
     0
  9
$DIMSOXD
 70
     0
  9
$DIMSAH
 70
     0
  9
$DIMBLK1
  1

  9
$DIMBLK2
  1

  9
$DIMSTYLE
  2
STANDARD
  9
$DIMCLRD
 70
     0
  9
$DIMCLRE
 70
     0
  9
$DIMCLRT
 70
     0
  9
$DIMTFAC
 40
1.0
  9
$DIMGAP
 40
0.09
  9
$LUNITS
 70
     2
  9
$LUPREC
 70
     4
  9
$SKETCHINC
 40
0.1
  9
$FILLETRAD
 40
0.0
  9
$AUNITS
 70
     0
  9
$AUPREC
 70
     0
  9
$MENU
  1
.
  9
$ELEVATION
 40
0.0
  9
$PELEVATION
 40
0.0
  9
$THICKNESS
 40
0.0
  9
$LIMCHECK
 70
     0
  9
$BLIPMODE
 70
     0
  9
$CHAMFERA
 40
0.0
  9
$CHAMFERB
 40
0.0
  9
$SKPOLY
 70
     0
  9
$TDCREATE
 40
2458060.468368056230247
  9
$TDUPDATE
 40
2459856.6596180549822748
  9
$TDINDWG
 40
0.476847338
  9
$TDUSRTIMER
 40
0.476847338
  9
$USRTIMER
 70
     1
  9
$ANGBASE
 50
0.0
  9
$ANGDIR
 70
     0
  9
$PDMODE
 70
     0
  9
$PDSIZE
 40
0.3125
  9
$PLINEWID
 40
0.0
  9
$COORDS
 70
     1
  9
$SPLFRAME
 70
     0
  9
$SPLINETYPE
 70
     6
  9
$SPLINESEGS
 70
     8
  9
$ATTDIA
 70
     1
  9
$ATTREQ
 70
     1
  9
$HANDLING
 70
     1
  9
$HANDSEED
  5
112F0
  9
$SURFTAB1
 70
     6
  9
$SURFTAB2
 70
     6
  9
$SURFTYPE
 70
     6
  9
$SURFU
 70
     6
  9
$SURFV
 70
     6
  9
$UCSNAME
  2

  9
$UCSORG
 10
0.0
 20
0.0
 30
0.0
  9
$UCSXDIR
 10
1.0
 20
0.0
 30
0.0
  9
$UCSYDIR
 10
0.0
 20
1.0
 30
0.0
  9
$PUCSNAME
  2

  9
$PUCSORG
 10
0.0
 20
0.0
 30
0.0
  9
$PUCSXDIR
 10
1.0
 20
0.0
 30
0.0
  9
$PUCSYDIR
 10
0.0
 20
1.0
 30
0.0
  9
$USERI1
 70
     0
  9
$USERI2
 70
     0
  9
$USERI3
 70
     0
  9
$USERI4
 70
     0
  9
$USERI5
 70
     0
  9
$USERR1
 40
0.0
  9
$USERR2
 40
0.0
  9
$USERR3
 40
0.0
  9
$USERR4
 40
0.0
  9
$USERR5
 40
0.0
  9
$WORLDVIEW
 70
     1
  9
$SHADEDGE
 70
     3
  9
$SHADEDIF
 70
    70
  9
$TILEMODE
 70
     1
  9
$MAXACTVP
 70
    64
  9
$PLIMCHECK
 70
     0
  9
$PEXTMIN
 10
1.0000000000000000E+20
 20
1.0000000000000000E+20
 30
1.0000000000000000E+20
  9
$PEXTMAX
 10
-1.0000000000000000E+20
 20
-1.0000000000000000E+20
 30
-1.0000000000000000E+20
  9
$PLIMMIN
 10
0.0
 20
0.0
  9
$PLIMMAX
 10
12.0
 20
9.0
  9
$UNITMODE
 70
     0
  9
$VISRETAIN
 70
     1
  9
$PLINEGEN
 70
     0
  9
$PSLTSCALE
 70
     1
  0
ENDSEC
  0
SECTION
  2
TABLES
  0
TABLE
  2
VPORT
 70
     1
  0
VPORT
  2
*ACTIVE
 70
     0
 10
0.0
 20
0.0
 11
1.0
 21
1.0
 12
-51.7452573170803589
 22
-62.5675426096552769
 13
0.0
 23
0.0
 14
1.0
 24
1.0
 15
0.0
 25
0.0
 16
0.0
 26
0.0
 36
327.1425206445442768
 17
3829.3277587890629547
 27
90.8930435180664063
 37
0.0
 40
24.1300227770410416
 41
2.2831541218637992
 42
50.0
 43
0.0
 44
0.0
 50
0.0
 51
0.0
 71
     0
 72
   100
 73
     1
 74
     1
 75
     0
 76
     0
 77
     0
 78
     1
  0
ENDTAB
  0
TABLE
  2
LTYPE
 70
     2
  0
LTYPE
  2
CONTINUOUS
 70
     0
  3
Solid line
 72
    65
 73
     0
 40
0.0
  0
LTYPE
  2
PHANTOM2
 70
     0
  3
___ _ _ ___ _ _ ___ _ _ ___ _ _
 72
    65
 73
     6
 40
1.25
 49
0.625
 49
-0.125
 49
0.125
 49
-0.125
 49
0.125
 49
-0.125
  0
ENDTAB
  0
TABLE
  2
LAYER
 70
     2
  0
LAYER
  2
0
 70
     0
 62
   255
  6
CONTINUOUS
  0
LAYER
  2
DEFPOINTS
 70
     0
 62
     7
  6
CONTINUOUS
  0
ENDTAB
  0
TABLE
  2
STYLE
 70
     1
  0
STYLE
  2
STANDARD
 70
     0
 40
0.0
 41
0.8
 50
0.0
 71
     0
 42
0.2
  3
txt
  4

  0
ENDTAB
  0
TABLE
  2
VIEW
 70
     0
  0
ENDTAB
  0
TABLE
  2
UCS
 70
     0
  0
ENDTAB
  0
TABLE
  2
APPID
 70
     9
  0
APPID
  2
ACAD
 70
     0
  0
APPID
  2
ACAD_MLEADERVER
 70
     0
  0
APPID
  2
ACAD_EXEMPT_FROM_CAD_STANDARDS
 70
     0
  0
APPID
  2
ACAD_NAV_VCDISPLAY
 70
     0
  0
APPID
  2
ACAECLAYERSTANDARD
 70
     0
  0
APPID
  2
ACCMTRANSPARENCY
 70
     0
  0
APPID
  2
ACAD_DSTYLE_DIMJAG
 70
     0
  0
APPID
  2
ACAD_DSTYLE_DIMTALN
 70
     0
  0
APPID
  2
ACDBATTR
 70
     0
  0
ENDTAB
  0
TABLE
  2
DIMSTYLE
 70
     1
  0
DIMSTYLE
  2
STANDARD
 70
     0
  3

  4

  5

  6

  7

 40
1.0
 41
0.1875
 42
0.0625
 43
0.38
 44
0.125
 45
0.0
 46
0.0
 47
0.01
 48
0.01
140
0.15625
141
0.09
142
0.0
143
25.3999999999999986
144
1.0
145
0.0
146
1.0
147
0.09
 71
     1
 72
     0
 73
     1
 74
     1
 75
     0
 76
     0
 77
     0
 78
     4
170
     0
171
     2
172
     0
173
     0
174
     0
175
     0
176
     0
177
     0
178
     0
  0
ENDTAB
  0
ENDSEC
  0
SECTION
  2
BLOCKS
  0
BLOCK
  8
0
  2
$MODEL_SPACE
 70
     0
 10
0.0
 20
0.0
 30
0.0
  3
$MODEL_SPACE
  1

  0
ENDBLK
  5
21
  8
0
  0
BLOCK
 67
     1
  8
0
  2
$PAPER_SPACE
 70
     0
 10
0.0
 20
0.0
 30
0.0
  3
$PAPER_SPACE
  1

  0
ENDBLK
  5
1D
 67
     1
  8
0
  0
ENDSEC
  0
SECTION
  2
ENTITIES
  0
ATTDEF
  5
F120
  8
DEFPOINTS
 10
3782.5311245848988619
 20
16.3552630637265395
 30
0.0
 40
0.001
  1
K-24982T-4E
  3

  2
MODELNUMBER
 70
     0
1001
ACDBATTR
1070
     0
1070
     1
  0
ATTDEF
  5
F121
  8
DEFPOINTS
 10
3782.5311245848988619
 20
16.3535963970598708
 30
0.0
 40
0.001
  1
PURIST
  3

  2
TRADENAME
 70
     0
1001
ACDBATTR
1070
     0
1070
     1
  0
ATTDEF
  5
F122
  8
DEFPOINTS
 10
3782.5311245848988619
 20
16.3519297303932092
 30
0.0
 40
0.001
  1
KITCHEN SINK FAUCET
  3

  2
PRODUCT
 70
     0
1001
ACDBATTR
1070
     0
1070
     1
  0
LINE
  5
10823
  8
0
 10
3783.6532364489148677
 20
16.3475201799680114
 30
0.0
 11
3781.4332364489150677
 21
16.3475201799680114
 31
0.0
  0
LINE
  5
10824
  8
0
 10
3781.4232364489648717
 20
16.3575201799680094
 30
0.0
 11
3781.4232364489648717
 21
16.5045201799680115
 31
0.0
  0
LINE
  5
10825
  8
0
 10
3781.4232364489648717
 20
16.5565201799680111
 30
0.0
 11
3781.4232364489648717
 21
16.6945201799680198
 31
0.0
  0
ARC
  5
10826
  8
0
 10
3781.4532364489650718
 20
16.6945201799680198
 30
0.0
 40
0.0299999999999993
 50
90.0
 51
179.999999999999801
  0
LINE
  5
10827
  8
0
 10
3781.4532364489650718
 20
16.724520179968021
 30
0.0
 11
3783.6332364489658175
 21
16.7245201799679712
 31
0.0
  0
ARC
  5
10828
  8
0
 10
3781.4682364489658539
 20
16.849520179968021
 30
0.0
 40
0.1249999999999991
 50
270.0
 51
0.0000000000004071
  0
LINE
  5
10829
  8
0
 10
3781.5932364489658539
 20
16.849520179968021
 30
0.0
 11
3781.5932332907641467
 21
28.0145201799677608
 31
0.0
  0
LINE
  5
1082A
  8
0
 10
3783.6632364489651081
 20
16.3575201799680094
 30
0.0
 11
3783.6632364489651081
 21
16.5045201799680115
 31
0.0
  0
LINE
  5
1082B
  8
0
 10
3783.6632364489651081
 20
16.5565201799680111
 30
0.0
 11
3783.6632364489651081
 21
16.6945201799680198
 31
0.0
  0
ARC
  5
1082C
  8
0
 10
3783.6332364489658175
 20
16.6945201799680198
 30
0.0
 40
0.0299999999999993
 50
0.0000000000002036
 51
90.0
  0
ARC
  5
1082D
  8
0
 10
3783.6182364489650354
 20
16.849520179968021
 30
0.0
 40
0.1249999999999991
 50
179.9999999999996021
 51
270.0
  0
LINE
  5
1082E
  8
0
 10
3783.4932364489650354
 20
16.849520179968021
 30
0.0
 11
3783.4932332907637829
 21
28.0145201799677608
 31
0.0
  0
LINE
  5
1082F
  8
0
 10
3773.299138562763801
 20
24.81331490592477
 30
0.0
 11
3771.7873381063641318
 21
24.81331490592477
 31
0.0
  0
LINE
  5
10830
  8
0
 10
3771.7873381063641318
 20
24.81331490592477
 30
0.0
 11
3771.7688749671638107
 21
24.8146059744247687
 31
0.0
  0
ARC
  5
10831
  8
0
 10
3771.770784345526863
 20
24.8420907873841017
 30
0.0
 40
0.0275510556811487
 50
179.9852146352102125
 51
266.0260294212779968
  0
ARC
  5
10832
  8
0
 10
3771.7707884450592246
 20
28.8646378930219711
 30
0.0
 40
0.0275551545489816
 50
90.9815400923187667
 51
180.0077899864432993
  0
LINE
  5
10833
  8
0
 10
3771.7703164178637962
 20
28.8921890042980394
 30
0.0
 11
3771.8107359235850709
 21
28.8931625612938312
 31
0.0
  0
LINE
  5
10834
  8
0
 10
3773.3128079267571593
 20
28.8931691869247693
 30
0.0
 11
3771.7736687423721378
 21
28.8931691869247693
 31
0.0
  0
ARC
  5
10835
  8
0
 10
3771.7731988534392258
 20
28.922693801156889
 30
0.0
 40
0.0295283531739247
 50
180.4234721498330032
 51
270.9117944671165219
  0
LINE
  5
10836
  8
0
 10
3771.7436713067791061
 20
28.9224755595785297
 30
0.0
 11
3771.7543443642698549
 21
29.6883127079577989
 31
0.0
  0
ARC
  5
10837
  8
0
 10
3771.7853103884967823
 20
29.6874809215328206
 30
0.0
 40
0.0309771936278355
 50
91.793115645071893
 51
178.4613331672055097
  0
LINE
  5
10838
  8
0
 10
3771.7843410915561435
 20
29.7184429464746103
 30
0.0
 11
3773.3021355775717893
 21
29.7184429464746103
 31
0.0
  0
LINE
  5
10839
  8
0
 10
3772.1459464551239762
 20
29.7184429464746103
 30
0.0
 11
3772.1547936926640432
 21
30.4432650899980395
 31
0.0
  0
ARC
  5
1083A
  8
0
 10
3772.1852710904590822
 20
30.4426951026775505
 30
0.0
 40
0.0304827272708356
 50
90.9022284171784065
 51
178.9285810636563951
  0
LINE
  5
1083B
  8
0
 10
3772.1847911031641161
 20
30.4731740507247686
 30
0.0
 11
3772.9016855659638168
 21
30.4731740507247686
 31
0.0
  0
LINE
  5
1083C
  8
0
 10
3772.9561011901641905
 20
24.7201872270247698
 30
0.0
 11
3772.1303754789641971
 21
24.7201872270247698
 31
0.0
  0
ARC
  5
1083D
  8
0
 10
3772.1319161509500191
 20
24.7317837584593185
 30
0.0
 40
0.0116984277354492
 50
189.4229531963534896
 51
262.4322142150198829
  0
LINE
  5
1083E
  8
0
 10
3773.299138562763801
 20
24.81331490592477
 30
0.0
 11
3773.3176017019641222
 21
24.8146059744247687
 31
0.0
  0
ARC
  5
1083F
  8
0
 10
3773.3160535018141672
 20
24.8413133235085297
 30
0.0
 40
0.0267521853086403
 50
273.3176700490143958
 51
359.7176756267073188
  0
LINE
  5
10840
  8
0
 10
3773.3428053623488267
 20
24.8411815029197918
 30
0.0
 11
3773.3428053623488267
 21
28.11051954003592
 31
0.0
  0
LINE
  5
10841
  8
0
 10
3773.3428053623488267
 20
28.7283891835317817
 30
0.0
 11
3773.3428053623488267
 21
28.8653444242383692
 31
0.0
  0
ARC
  5
10842
  8
0
 10
3773.3160026044620281
 20
28.8653866767288712
 30
0.0
 40
0.026802791191197
 50
359.9096776762817171
 51
89.6629997064367501
  0
LINE
  5
10843
  8
0
 10
3773.3161602512641366
 20
28.8921890042980394
 30
0.0
 11
3773.2758068546918366
 21
28.8931691869247693
 31
0.0
  0
ARC
  5
10844
  8
0
 10
3773.3132778156891618
 20
28.922693801156889
 30
0.0
 40
0.0295283531739268
 50
269.0882055328834781
 51
359.5765278501634157
  0
LINE
  5
10845
  8
0
 10
3773.3428053623488267
 20
28.9224755595785297
 30
0.0
 11
3773.3321323048571685
 21
29.6883127079577989
 31
0.0
  0
ARC
  5
10846
  8
0
 10
3773.3011662806311506
 20
29.6874809215328206
 30
0.0
 40
0.0309771936278344
 50
1.538666832794312
 51
88.2068843549020585
  0
LINE
  5
10847
  8
0
 10
3772.9405302140039566
 20
29.7184429464746103
 30
0.0
 11
3772.9316829764638896
 21
30.4432650899980395
 31
0.0
  0
ARC
  5
10848
  8
0
 10
3772.9012055786702149
 20
30.4426951026775505
 30
0.0
 40
0.0304827272708318
 50
1.071418936338683
 51
89.0977715828215935
  0
ARC
  5
10849
  8
0
 10
3772.953892191776049
 20
24.7324740825040408
 30
0.0
 40
0.0124838492238749
 50
280.1920687212030998
 51
347.952763867423073
  0
LINE
  5
1084A
  8
0
 10
3772.2479576974101292
 20
30.4731740507247686
 30
0.0
 11
3772.2479379295059516
 21
32.3329079293362724
 31
0.0
  0
LINE
  5
1084B
  8
0
 10
3772.8378887854109962
 20
30.4731740507247686
 30
0.0
 11
3772.8379148699118559
 21
32.3330013580615017
 31
0.0
  0
ARC
  5
1084C
  8
0
 10
3781.623233290763892
 20
28.0145201799676293
 30
0.0
 40
0.0300000000001255
 50
90.0000000001042082
 51
179.9999999997521911
  0
LINE
  5
1084D
  8
0
 10
3781.623233290763892
 20
28.0445201799677584
 30
0.0
 11
3783.4632308769641895
 21
28.0445201799708101
 31
0.0
  0
ARC
  5
1084E
  8
0
 10
3783.4632308769641895
 20
28.0145177660737517
 30
0.0
 40
0.0300024138970554
 50
0.0046098270378185
 51
90.0000000001042082
  0
LINE
  5
1084F
  8
0
 10
3781.7532364489161409
 20
28.0565201801069009
 30
0.0
 11
3783.3332364489151587
 21
28.0565201898249086
 31
0.0
  0
LINE
  5
10850
  8
0
 10
3783.4632310350639273
 20
28.0645201799680208
 30
0.0
 11
3781.623233290763892
 21
28.0645201799680208
 31
0.0
  0
ARC
  5
10851
  8
0
 10
3781.623233290763892
 20
28.0945201799680184
 30
0.0
 40
0.0300000000000011
 50
180.0000000000007958
 51
270.0
  0
LINE
  5
10852
  8
0
 10
3781.5932332907641467
 20
28.0945201799680184
 30
0.0
 11
3781.5932332907641467
 21
28.1670201799682616
 31
0.0
  0
ARC
  5
10853
  8
0
 10
3781.5332332907642012
 20
28.1670201799682687
 30
0.0
 40
0.0600000000000023
 50
0.0000000000004071
 51
90.0
  0
LINE
  5
10854
  8
0
 10
3781.5332332907642012
 20
28.227020179968271
 30
0.0
 11
3774.1123979907638386
 21
28.2270201799687115
 31
0.0
  0
ARC
  5
10855
  8
0
 10
3774.1123979907638386
 20
28.1645201799687115
 30
0.0
 40
0.0624999999999965
 50
90.0
 51
180.0000000004058904
  0
LINE
  5
10856
  8
0
 10
3774.0498979907638386
 20
28.8220201799682698
 30
0.0
 11
3774.0498979907638386
 21
28.1320201799682685
 31
0.0
  0
ARC
  5
10857
  8
0
 10
3774.0198979907640933
 20
28.1320201799682685
 30
0.0
 40
0.0300000000000011
 50
270.0
 51
0.0000000000024427
  0
LINE
  5
10858
  8
0
 10
3774.0198979907640933
 20
28.102020179968271
 30
0.0
 11
3773.3982332895639047
 21
28.102020179968271
 31
0.0
  0
LINE
  5
10859
  8
0
 10
3781.5332332907642012
 20
28.727020179968271
 30
0.0
 11
3774.1123979907638386
 21
28.7270201799678304
 31
0.0
  0
ARC
  5
1085A
  8
0
 10
3774.1123979907638386
 20
28.7895201799678304
 30
0.0
 40
0.0624999999999965
 50
179.9999999995941096
 51
270.0
  0
ARC
  5
1085B
  8
0
 10
3774.0198979907640933
 20
28.8220201799682698
 30
0.0
 40
0.0300000000000011
 50
359.9999999999973284
 51
90.0
  0
LINE
  5
1085C
  8
0
 10
3774.0198979907640933
 20
28.852020179968271
 30
0.0
 11
3773.3982332895639047
 21
28.852020179968271
 31
0.0
  0
ARC
  5
1085D
  8
0
 10
3773.3982332895639047
 20
28.8369696624255809
 30
0.0
 40
0.0150505175426918
 50
90.0
 51
160.8409204642127008
  0
LINE
  5
1085E
  8
0
 10
3783.4632310350639273
 20
28.8895201799682688
 30
0.0
 11
3781.623233290763892
 21
28.8895201799682688
 31
0.0
  0
ARC
  5
1085F
  8
0
 10
3781.623233290763892
 20
28.8595201799682712
 30
0.0
 40
0.0300000000000011
 50
90.0
 51
179.9999999999992042
  0
LINE
  5
10860
  8
0
 10
3781.5932332907641467
 20
28.8595201799682712
 30
0.0
 11
3781.5932332907641467
 21
28.7870201799682803
 31
0.0
  0
ARC
  5
10861
  8
0
 10
3781.5332332907642012
 20
28.7870201799682803
 30
0.0
 40
0.0600000000000023
 50
270.0
 51
359.9999999999996021
  0
ARC
  5
10862
  8
0
 10
3780.5680392666181433
 20
28.4770201799765417
 30
0.0
 40
1.0710381819247641
 50
343.1756395576438194
 51
16.8243604423561983
  0
ARC
  5
10863
  8
0
 10
3783.4632332906189731
 20
28.8595201799083085
 30
0.0
 40
0.0300000001447498
 50
0.0000001145117748
 51
90.0043077931796915
  0
LINE
  5
10864
  8
0
 10
3783.4932332907637829
 20
28.8595201799682712
 30
0.0
 11
3783.4932332922930982
 21
28.0945201799680184
 31
0.0
  0
ARC
  5
10865
  8
0
 10
3783.4632332922078604
 20
28.0945201799681001
 30
0.0
 40
0.0300000000849958
 50
269.9956891726253048
 51
359.9999999998395879
  0
ARC
  5
10866
  8
0
 10
3781.6582332907642012
 20
29.0645201799682695
 30
0.0
 40
0.1750000000000052
 50
270.0
 51
359.9999999999993747
  0
LINE
  5
10867
  8
0
 10
3781.8332332907639284
 20
29.0645201799682695
 30
0.0
 11
3781.8332332907639284
 21
29.7545201799682708
 31
0.0
  0
ARC
  5
10868
  8
0
 10
3781.8632332907641285
 20
29.7545201799682708
 30
0.0
 40
0.0300000000000011
 50
90.0000000000260485
 51
180.0000000000005969
  0
LINE
  5
10869
  8
0
 10
3781.8632332907641285
 20
29.7845201799682684
 30
0.0
 11
3783.2232332907638011
 21
29.7845201799687516
 31
0.0
  0
ARC
  5
1086A
  8
0
 10
3783.428233290764183
 20
29.0645201799682695
 30
0.0
 40
0.1750000000000052
 50
180.0000000000003979
 51
270.0
  0
LINE
  5
1086B
  8
0
 10
3783.2532332907640011
 20
29.0645201799682695
 30
0.0
 11
3783.2532332907640011
 21
29.7545201799682708
 31
0.0
  0
ARC
  5
1086C
  8
0
 10
3783.2232332907638011
 20
29.7545201799682708
 30
0.0
 40
0.0300000000000011
 50
359.9999999999993747
 51
89.9999999999739515
  0
LINE
  5
1086D
  8
0
 10
3771.7432332908638273
 20
28.8646341465980392
 30
0.0
 11
3771.7432332907637829
 21
27.9921028004980386
 31
0.0
  0
ARC
  5
1086E
  8
0
 10
3771.7629182755449619
 20
27.992102800495779
 30
0.0
 40
0.0196849847815628
 50
179.9999999934312029
 51
201.8282957987314035
  0
ARC
  5
1086F
  8
0
 10
3771.0473750118640055
 20
27.6772585593122784
 30
0.0
 40
0.7620738094173508
 50
336.2005371446257982
 51
23.7994695253721389
  0
ARC
  5
10870
  8
0
 10
3771.7629187867541987
 20
27.3624142113467599
 30
0.0
 40
0.0196854959903406
 50
158.1717108712537083
 51
179.9996392326115995
  0
LINE
  5
10871
  8
0
 10
3771.7432332907637829
 20
27.3624143352980411
 30
0.0
 11
3771.7432311995389682
 21
27.0302934416046199
 31
0.0
  0
ARC
  5
10872
  8
0
 10
3771.7629534168008831
 20
27.0302933174221316
 30
0.0
 40
0.0197222172634072
 50
179.9996392326142995
 51
204.1477258592813087
  0
ARC
  5
10873
  8
0
 10
3770.9863589916130877
 20
26.6821292322096504
 30
0.0
 40
0.8313460123548605
 50
1.07261298073607
 51
24.1477258592812412
  0
LINE
  5
10874
  8
0
 10
3771.8175593306641531
 20
26.6976916426980395
 30
0.0
 11
3771.8175592991437952
 21
25.8469829773980386
 31
0.0
  0
ARC
  5
10875
  8
0
 10
3770.9934732262390753
 20
25.8609380574317917
 30
0.0
 40
0.824204222152651
 50
335.7301736983349087
 51
359.0298455464700282
  0
ARC
  5
10876
  8
0
 10
3771.763058835028005
 20
25.5143570499211201
 30
0.0
 40
0.019825564697033
 50
156.8167975567363897
 51
179.917740670541491
  0
LINE
  5
10877
  8
0
 10
3771.7432332907637829
 20
25.5143855133980395
 30
0.0
 11
3771.7432332907637829
 21
24.8420978970247717
 31
0.0
  0
LINE
  5
10878
  8
0
 10
3771.7599438704078239
 20
27.9474475909823497
 30
0.0
 11
3771.6057529757481461
 21
27.9468056507713385
 31
0.0
  0
ARC
  5
10879
  8
0
 10
3771.6060965270571614
 20
27.9271236094895592
 30
0.0
 40
0.0196850394086258
 50
91.0000000003926885
 51
179.9999999753310931
  0
LINE
  5
1087A
  8
0
 10
3771.5864114876480926
 20
27.9271236094980395
 30
0.0
 11
3771.5864114874339066
 21
27.42766124289804
 31
0.0
  0
ARC
  5
1087B
  8
0
 10
3771.6060965268197833
 20
27.4276612428895596
 30
0.0
 40
0.0196850393875572
 50
179.9999999753268014
 51
269.0000006615858865
  0
LINE
  5
1087C
  8
0
 10
3771.6057529757399607
 20
27.4079792016248902
 30
0.0
 11
3771.7600446649171317
 21
27.4073355024652194
 31
0.0
  0
LINE
  5
1087D
  8
0
 10
3771.757879694840085
 20
26.9920673654292891
 30
0.0
 11
3771.7267825375638495
 21
26.9951308356641988
 31
0.0
  0
ARC
  5
1087E
  8
0
 10
3771.7256247100858673
 20
26.9833777777183492
 30
0.0
 40
0.0118099507004771
 50
84.3737818295243756
 51
179.6534067209562977
  0
LINE
  5
1087F
  8
0
 10
3771.7138149754641745
 20
26.9834492179641998
 30
0.0
 11
3771.7121409120431963
 21
26.7064372182270198
 31
0.0
  0
LINE
  5
10880
  8
0
 10
3771.7121409120431963
 20
26.7064372182270198
 30
0.0
 11
3771.7111502021639353
 21
26.4742589937980384
 31
0.0
  0
ARC
  5
10881
  8
0
 10
3770.7365146232159532
 20
26.47841778646427
 30
0.0
 40
0.9746444517395977
 50
339.6444836660093074
 51
359.755519061031805
  0
LINE
  5
10882
  8
0
 10
3771.6502948033639768
 20
26.1393933187980387
 30
0.0
 11
3771.4739755581658756
 21
25.6627441910716882
 31
0.0
  0
ARC
  5
10883
  8
0
 10
3771.4846607342078642
 20
25.6586084053933199
 30
0.0
 40
0.0114576485467709
 50
158.8406591902457876
 51
259.4713556355866899
  0
LINE
  5
10884
  8
0
 10
3771.4825671116641388
 20
25.6473436615052286
 30
0.0
 11
3771.7702526047701213
 21
25.5853906079734514
 31
0.0
  0
ARC
  5
10885
  8
0
 10
3782.5432364488660824
 20
20.3745201799499291
 30
0.0
 40
0.9150000000000011
 50
106.8350568807602059
 51
253.1649431192398083
  0
ARC
  5
10886
  8
0
 10
3782.5432364488660824
 20
20.3745201799499291
 30
0.0
 40
0.9150000000000011
 50
286.8350568807603054
 51
73.1649431192397657
  0
LINE
  5
10887
  8
0
 10
3782.7982364489148495
 20
19.4495201799499391
 30
0.0
 11
3782.2882364488150415
 21
19.4495201799499391
 31
0.0
  0
ARC
  5
10888
  8
0
 10
3782.7982364489471365
 20
19.4595201799190782
 30
0.0
 40
0.0099999999691454
 50
269.9999998232422058
 51
0.0000000732341799
  0
LINE
  5
10889
  8
0
 10
3782.8082364489150677
 20
19.4595201799318716
 30
0.0
 11
3782.8082364489150677
 21
23.4395201799318684
 31
0.0
  0
ARC
  5
1088A
  8
0
 10
3782.798236448859825
 20
23.4395201799082109
 30
0.0
 40
0.0100000000553777
 50
0.0000001355056748
 51
89.9999996827269939
  0
LINE
  5
1088B
  8
0
 10
3782.7982364489148495
 20
23.4495201799635993
 30
0.0
 11
3782.2882364489150859
 21
23.4495201799635993
 31
0.0
  0
ARC
  5
1088C
  8
0
 10
3782.2882364487850282
 20
19.4595201799190889
 30
0.0
 40
0.0099999999691462
 50
179.9999999267963062
 51
270.0000001767579079
  0
LINE
  5
1088D
  8
0
 10
3782.2782364488161875
 20
19.4595201799318716
 30
0.0
 11
3782.2782364488161875
 21
23.4395201799318684
 31
0.0
  0
ARC
  5
1088E
  8
0
 10
3782.2882364488709754
 20
23.4395201799082109
 30
0.0
 40
0.0100000000553873
 50
89.9999997443212578
 51
179.9999998644701122
  0
LINE
  5
1088F
  8
0
 10
3772.5960918536698046
 20
24.8073842346301099
 30
0.0
 11
3772.5761660582638797
 21
24.7394386349980415
 31
0.0
  0
ARC
  5
10890
  8
0
 10
3772.5432336148051036
 20
24.8168998202166797
 30
0.0
 40
0.0841711414183359
 50
246.9673275404121
 51
293.0326587151740227
  0
LINE
  5
10891
  8
0
 10
3772.5103011527639865
 20
24.7394386428980404
 30
0.0
 11
3772.490375377329201
 21
24.8073842346241804
 31
0.0
  0
ARC
  5
10892
  8
0
 10
3772.5432335974410307
 20
24.6721284744640812
 30
0.0
 40
0.0749346694593924
 50
63.9291455421818995
 51
116.0708407134172973
  0
ARC
  5
10893
  8
0
 10
3772.5432332908130775
 20
24.7004129877512391
 30
0.0
 40
0.0433923217467981
 50
65.492328800701884
 51
114.5076711992987981
  0
ARC
  5
10894
  8
0
 10
3772.5432332908130775
 20
24.7793681043046803
 30
0.0
 40
0.0433825598328173
 50
245.4864510560790052
 51
294.5135489439202843
  0
LINE
  5
10895
  8
0
 10
3772.4679987408121633
 20
24.8073842346229192
 30
0.0
 11
3772.4481464217628854
 21
24.7396883261981415
 31
0.0
  0
ARC
  5
10896
  8
0
 10
3772.4152139783041093
 20
24.8171495114167797
 30
0.0
 40
0.0841711414183359
 50
246.9673275404121
 51
293.0326587151740227
  0
LINE
  5
10897
  8
0
 10
3772.3822815162629922
 20
24.7396883340981404
 30
0.0
 11
3772.3624292171220986
 21
24.8073842346170004
 31
0.0
  0
ARC
  5
10898
  8
0
 10
3772.4152139609400365
 20
24.6723781656641812
 30
0.0
 40
0.0749346694593924
 50
63.9291455421818995
 51
116.0708407134172973
  0
ARC
  5
10899
  8
0
 10
3772.4152136543129927
 20
24.700662678951339
 30
0.0
 40
0.0433923217467981
 50
65.492328800701884
 51
114.5076711992987981
  0
ARC
  5
1089A
  8
0
 10
3772.4152136543129927
 20
24.7796177955047803
 30
0.0
 40
0.0433825598328173
 50
245.4864510560790052
 51
294.5135489439202843
  0
LINE
  5
1089B
  8
0
 10
3772.7245825541622253
 20
24.8073842346373112
 30
0.0
 11
3772.7042454299398742
 21
24.7380408450580802
 31
0.0
  0
ARC
  5
1089C
  8
0
 10
3772.6713129864810981
 20
24.8155020302767291
 30
0.0
 40
0.0841711414183359
 50
246.9673275404121
 51
293.0326587151740227
  0
LINE
  5
1089D
  8
0
 10
3772.6383805244408904
 20
24.7380408529580897
 30
0.0
 11
3772.6180434205539314
 21
24.8073842346313391
 31
0.0
  0
ARC
  5
1089E
  8
0
 10
3772.6713129691170252
 20
24.6707306845241305
 30
0.0
 40
0.0749346694593924
 50
63.9291455421818995
 51
116.0708407134172973
  0
ARC
  5
1089F
  8
0
 10
3772.6713126624899814
 20
24.6990151978112813
 30
0.0
 40
0.0433923217467981
 50
65.492328800701884
 51
114.5076711992987981
  0
ARC
  5
108A0
  8
0
 10
3772.6713126624899814
 20
24.7779703143647296
 30
0.0
 40
0.0433825598328173
 50
245.4864510560790052
 51
294.5135489439202843
  0
LINE
  5
108A1
  8
0
 10
3772.3473321466422021
 20
24.8073842346161513
 30
0.0
 11
3772.326995022427127
 21
24.7380408450581797
 31
0.0
  0
ARC
  5
108A2
  8
0
 10
3772.2940625789669866
 20
24.8155020302768214
 30
0.0
 40
0.0841711414183359
 50
246.9673275404121
 51
293.0326587151740227
  0
LINE
  5
108A3
  8
0
 10
3772.2611301169258695
 20
24.7380408529581786
 30
0.0
 11
3772.2407930130470959
 21
24.8073842346101792
 31
0.0
  0
ARC
  5
108A4
  8
0
 10
3772.2940625616029138
 20
24.6707306845242194
 30
0.0
 40
0.0749346694593924
 50
63.9291455421818995
 51
116.0708407134172973
  0
ARC
  5
108A5
  8
0
 10
3772.29406225497587
 20
24.6990151978113808
 30
0.0
 40
0.0433923217467981
 50
65.492328800701884
 51
114.5076711992987981
  0
ARC
  5
108A6
  8
0
 10
3772.29406225497587
 20
24.7779703143648184
 30
0.0
 40
0.0433825598328173
 50
245.4864510560790052
 51
294.5135489439202843
  0
LINE
  5
108A7
  8
0
 10
3772.8460996052140217
 20
24.8073842346441289
 30
0.0
 11
3772.8250748971117901
 21
24.7357043098536984
 31
0.0
  0
ARC
  5
108A8
  8
0
 10
3772.7921424536530139
 20
24.8131654950723401
 30
0.0
 40
0.0841711414183359
 50
246.9673275404121
 51
293.0326587151740227
  0
LINE
  5
108A9
  8
0
 10
3772.7592099916118968
 20
24.7357043177537008
 30
0.0
 11
3772.7381853044548734
 21
24.8073842346380786
 31
0.0
  0
ARC
  5
108AA
  8
0
 10
3772.7921424362880316
 20
24.668394149319731
 30
0.0
 40
0.0749346694593924
 50
63.9291455421818995
 51
116.0708407134172973
  0
ARC
  5
108AB
  8
0
 10
3772.7921421296618973
 20
24.6966786626068888
 30
0.0
 40
0.0433923217467981
 50
65.492328800701884
 51
114.5076711992987981
  0
ARC
  5
108AC
  8
0
 10
3772.7921421296618973
 20
24.7756337791603301
 30
0.0
 40
0.0433825598328173
 50
245.4864510560790052
 51
294.5135489439202843
  0
LINE
  5
108AD
  8
0
 10
3772.9482499715290942
 20
24.8073842346498594
 30
0.0
 11
3772.9275061930429729
 21
24.7366589550359208
 31
0.0
  0
ARC
  5
108AE
  8
0
 10
3772.8945737495841968
 20
24.814120140254559
 30
0.0
 40
0.0841711414183359
 50
246.9673275404121
 51
293.0326587151740227
  0
LINE
  5
108AF
  8
0
 10
3772.8616412875430797
 20
24.736658962935909
 30
0.0
 11
3772.8434986048659994
 21
24.7985690536150791
 31
0.0
  0
ARC
  5
108B0
  8
0
 10
3772.8945737322201239
 20
24.6693487945019498
 30
0.0
 40
0.0749346694593924
 50
63.9291455421818995
 51
116.0708407134172973
  0
ARC
  5
108B1
  8
0
 10
3772.8945734255930802
 20
24.6976333077891113
 30
0.0
 40
0.0433923217467981
 50
65.492328800701884
 51
114.5076711992987981
  0
ARC
  5
108B2
  8
0
 10
3772.8945734255930802
 20
24.7765884243425596
 30
0.0
 40
0.0433825598328173
 50
245.4864510560790052
 51
294.5135489439202843
  0
LINE
  5
108B3
  8
0
 10
3772.2417535936251625
 20
24.8041425914290414
 30
0.0
 11
3772.2253350780138135
 21
24.7402148101798893
 31
0.0
  0
ARC
  5
108B4
  8
0
 10
3772.1898010721852188
 20
24.8165175983168282
 30
0.0
 40
0.0841711414183359
 50
248.9059392965075972
 51
294.9712704712760001
  0
LINE
  5
108B5
  8
0
 10
3772.1595078703107902
 20
24.7379866937766089
 30
0.0
 11
3772.1365860550808975
 21
24.8073842346043314
 31
0.0
  0
ARC
  5
108B6
  8
0
 10
3772.1946984816290751
 20
24.6718291124868898
 30
0.0
 40
0.0749346694593924
 50
65.8677572982806936
 51
118.0094524695172993
  0
ARC
  5
108B7
  8
0
 10
3772.1937413467899205
 20
24.7000974266369298
 30
0.0
 40
0.0433923217467981
 50
67.4309405568097304
 51
116.4462829553914958
  0
ARC
  5
108B8
  8
0
 10
3772.1910703976350305
 20
24.7790073528856496
 30
0.0
 40
0.0433825598328173
 50
247.4250628121727118
 51
296.452160700018112
  0
LINE
  5
108B9
  8
0
 10
3772.1522050156418118
 20
24.7600158917335804
 30
0.0
 11
3772.1478552445428249
 21
24.7395748088176006
 31
0.0
  0
ARC
  5
108BA
  8
0
 10
3772.1090913627281225
 20
24.8142885459369786
 30
0.0
 40
0.0841711414183359
 50
251.356400302006989
 51
297.4217314767759035
  0
LINE
  5
108BB
  8
0
 10
3772.0821834961220702
 20
24.7345342497370702
 30
0.0
 11
3772.0546197349581234
 21
24.8073842345997306
 31
0.0
  0
ARC
  5
108BC
  8
0
 10
3772.1201705332809979
 20
24.6699417602751687
 30
0.0
 40
0.0749346694593924
 50
68.31821830377217
 51
120.4599134749912963
  0
ARC
  5
108BD
  8
0
 10
3772.1180056456410057
 20
24.6981433019616503
 30
0.0
 40
0.0433923217467981
 50
69.8814015622992031
 51
118.8967439608803005
  0
ARC
  5
108BE
  8
0
 10
3772.1119632995910251
 20
24.7768668720291494
 30
0.0
 40
0.0433825598328173
 50
249.8755238176613886
 51
298.902621705500394
  0
LINE
  5
108BF
  8
0
 10
3772.0050358014309495
 20
24.8073842345969489
 30
0.0
 11
3772.0326772230641836
 21
24.7346665888980404
 31
0.0
  0
ARC
  5
108C0
  8
0
 10
3772.0335290317611907
 20
25.1473940401665104
 30
0.0
 40
0.4127283302714087
 50
269.8817501141299999
 51
276.6171595312277987
  0
LINE
  5
108C1
  8
0
 10
3771.988260162109782
 20
24.8073842345960109
 30
0.0
 11
3772.013155149564227
 21
24.7416395873980406
 31
0.0
  0
LINE
  5
108C2
  8
0
 10
3772.013155149564227
 20
24.7416395873980406
 30
0.0
 11
3772.0293374006978411
 21
24.7434220889584893
 31
0.0
  0
LINE
  5
108C3
  8
0
 10
3773.0309396586080766
 20
24.8073842346544993
 30
0.0
 11
3773.0044080883421884
 21
24.7349820278757591
 31
0.0
  0
ARC
  5
108C4
  8
0
 10
3772.9884509179769339
 20
24.9687666244811801
 30
0.0
 40
0.2343285490417349
 50
257.7140976053854047
 51
273.9047167818192179
  0
LINE
  5
108C5
  8
0
 10
3772.9385881511520893
 20
24.7398046770301505
 30
0.0
 11
3772.9343703272761559
 21
24.7599780183563816
 31
0.0
  0
LINE
  5
108C6
  8
0
 10
3773.0810995180590908
 20
24.8073842346573095
 30
0.0
 11
3773.0537893585637903
 21
24.7346665888980404
 31
0.0
  0
ARC
  5
108C7
  8
0
 10
3773.0551560604649239
 20
25.1874417727596587
 30
0.0
 40
0.4527772465517873
 50
263.6787120573695802
 51
269.82705321369491
  0
LINE
  5
108C8
  8
0
 10
3773.0982056436341736
 20
24.8073842346582687
 30
0.0
 11
3773.0706338029640392
 21
24.7345941586980409
 31
0.0
  0
LINE
  5
108C9
  8
0
 10
3773.0706338029640392
 20
24.7345941586980409
 30
0.0
 11
3773.0541348081069373
 21
24.7355831857230584
 31
0.0
  0
LINE
  5
108CA
  8
0
 10
3772.9661010949639603
 20
24.72986847808194
 30
0.0
 11
3772.9661010949639603
 21
24.7355063528803996
 31
0.0
  0
LINE
  5
108CB
  8
0
 10
3772.1203755741639725
 20
24.72986847808194
 30
0.0
 11
3772.1203755741639725
 21
24.7308772300383417
 31
0.0
  0
ARC
  5
10BFC
  8
0
 10
3781.4332364489150677
 20
16.3575201799680201
 30
0.0
 40
0.0100000000000087
 50
180.0000000000304965
 51
269.9999999999478746
  0
ARC
  5
10BFD
  8
0
 10
3783.6532364488721214
 20
16.3575201800614209
 30
0.0
 40
0.010000000093406
 50
270.0000002486698918
 51
359.9999994648221104
  0
LINE
  5
10BFE
  8
0
 10
3781.435236452216941
 20
16.5445201799680213
 30
0.0
 11
3783.6512364489149149
 21
16.5445201799680106
 31
0.0
  0
ARC
  5
10BFF
  8
0
 10
3783.6512364489149149
 20
16.5565201799680111
 30
0.0
 40
0.0120000000000005
 50
270.0
 51
0.0
  0
ARC
  5
10C00
  8
0
 10
3783.6232364488992062
 20
16.5045201799018386
 30
0.0
 40
0.0400000000661791
 50
0.0000000947907073
 51
89.9999999768370031
  0
ARC
  5
10C01
  8
0
 10
3781.4632364488961684
 20
16.5045201800367209
 30
0.0
 40
0.039999999931295
 50
89.9999999732153668
 51
180.0000000984113058
  0
ARC
  5
10C02
  8
0
 10
3781.4352364488509011
 20
16.5565201798536705
 30
0.0
 40
0.0119999998856599
 50
179.9999994540810064
 51
270.0000160731331107
  0
LINE
  5
10C03
  8
0
 10
3771.8769372363158254
 20
32.3332179255680217
 30
0.0
 11
3773.209535661515929
 21
32.3332179255680217
 31
0.0
  0
ARC
  5
10C04
  8
0
 10
3773.209535661515929
 20
32.3532179255680177
 30
0.0
 40
0.0199999999999996
 50
270.0
 51
359.9999922650716258
  0
LINE
  5
10C05
  8
0
 10
3773.2295356615159108
 20
32.3532179228680121
 30
0.0
 11
3773.2295357101152149
 21
32.713217873068011
 31
0.0
  0
ARC
  5
10C06
  8
0
 10
3773.2095357128150681
 20
32.7132178757680094
 30
0.0
 40
0.0199999973000688
 50
359.9999922650749795
 51
90.0001469634490689
  0
LINE
  5
10C07
  8
0
 10
3773.209535661515929
 20
32.7332178730680212
 30
0.0
 11
3771.8769382334007787
 21
32.733214454961022
 31
0.0
  0
ARC
  5
10C08
  8
0
 10
3771.8769382847040106
 20
32.7132134060737414
 30
0.0
 40
0.0200010488873482
 50
90.0001469634490689
 51
179.987203675035687
  0
LINE
  5
10C09
  8
0
 10
3771.8569372363158436
 20
32.7132178730680181
 30
0.0
 11
3771.856856834645896
 21
32.3532179318463875
 31
0.0
  0
ARC
  5
10C0A
  8
0
 10
3771.8765895202532192
 20
32.3529493750222201
 30
0.0
 40
0.0197345130171473
 50
179.2202671767103936
 51
271.0095862926340828
  0
ARC
  5
10C0B
  8
0
 10
3772.0206949891180557
 20
32.7276397459097268
 30
0.0
 40
0.088150887095726
 50
104.9894775299477061
 51
176.3792175766448906
  0
ARC
  5
10C0C
  8
0
 10
3772.1104177055758555
 20
32.3925438578220124
 30
0.0
 40
0.4350506133307964
 50
91.7982562882408786
 51
104.9894775299477061
  0
ARC
  5
10C0D
  8
0
 10
3773.0470862522502102
 20
20.1214619269883208
 30
0.0
 40
12.7414076446823508
 50
92.4956198502737976
 51
94.2773899181176773
  0
ARC
  5
10C0E
  8
0
 10
3770.8182364016470274
 20
68.0333874254368283
 30
0.0
 40
35.2224070302233372
 50
272.7241801178324749
 51
273.37088179958198
  0
ARC
  5
10C0F
  8
0
 10
3772.8664574680351507
 20
34.0390095068476199
 30
0.0
 40
1.1673118148527999
 50
271.1203084372739909
 51
280.917236139130182
  0
ARC
  5
10C10
  8
0
 10
3773.065063201769135
 20
32.9859485223927607
 30
0.0
 40
0.0957976777605035
 50
283.5669931005035096
 51
317.188936845023818
  0
ARC
  5
10C11
  8
0
 10
3773.0667969021369572
 20
32.9786903704142773
 30
0.0
 40
0.089689216858284
 50
319.8386938064044784
 51
14.6714415022023701
  0
ARC
  5
10C12
  8
0
 10
3773.0693466310149233
 20
32.9750940752020369
 30
0.0
 40
0.0882299506638057
 50
17.3510408582561908
 51
74.1310576162566122
  0
ARC
  5
10C13
  8
0
 10
3773.0687938448782006
 20
33.1391946390019285
 30
0.0
 40
0.0894897169875359
 50
28.8645309487971389
 51
74.1212199925461022
  0
ARC
  5
10C14
  8
0
 10
3773.0749422980038617
 20
33.1425838030700888
 30
0.0
 40
0.0824690397466694
 50
325.5626803868021852
 51
28.8645309487971389
  0
ARC
  5
10C15
  8
0
 10
3773.0675134984639953
 20
33.1476775187656187
 30
0.0
 40
0.0914764257267138
 50
286.4855199130361143
 51
325.5626803868022989
  0
ARC
  5
10C16
  8
0
 10
3772.34279466848011
 20
30.8043774833516011
 30
0.0
 40
2.2017343426860378
 50
91.6682896241598968
 51
98.8595964605603967
  0
ARC
  5
10C17
  8
0
 10
3772.0320987948712173
 20
41.4719084429501521
 30
0.0
 40
8.4703202251969163
 50
271.668289624159911
 51
274.171447269759085
  0
ARC
  5
10C18
  8
0
 10
3773.2581888511449506
 20
24.6610478030388691
 30
0.0
 40
8.3851931837921878
 50
92.2938043119450242
 51
94.1714472697591845
  0
ARC
  5
10C19
  8
0
 10
3772.8726296435829681
 20
34.2865907721060381
 30
0.0
 40
1.248068639281799
 50
272.2938043119451095
 51
278.966525860161596
  0
ARC
  5
10C1A
  8
0
 10
3773.0390319515618103
 20
33.2324705939596328
 30
0.0
 40
0.1808952523225062
 50
278.9423361443493263
 51
287.5145590242394746
  0
ARC
  5
10C1B
  8
0
 10
3772.0280686733131006
 20
32.8811103764774586
 30
0.0
 40
0.1016953759629231
 50
103.8658144559433936
 51
133.8928753351410137
  0
ARC
  5
10C1C
  8
0
 10
3772.0136670935330585
 20
32.8960795572472406
 30
0.0
 40
0.0809232342072514
 50
133.8928753351599994
 51
196.8041982927487084
  0
ARC
  5
10C1D
  8
0
 10
3772.0200477213229533
 20
32.8973333510228869
 30
0.0
 40
0.0873962483593219
 50
196.3817365019073122
 51
255.3171262960599108
  0
ARC
  5
10C1E
  8
0
 10
3772.0199153465810014
 20
33.0605270774113791
 30
0.0
 40
0.0858380356254474
 50
105.5095026519593944
 51
254.3557889456004943
  0
ARC
  5
10C1F
  8
0
 10
3772.0188313444327832
 20
33.2259338788432075
 30
0.0
 40
0.0855372683928023
 50
104.6751306179090051
 51
255.1869738320197882
  0
ARC
  5
10C20
  8
0
 10
3772.0188806988130636
 20
33.39136679407288
 30
0.0
 40
0.0854909834974681
 50
104.7511335968692947
 51
255.2825491513395093
  0
ARC
  5
10C21
  8
0
 10
3772.0201088381850241
 20
33.5574621699037294
 30
0.0
 40
0.0865335771962457
 50
94.1670388607329585
 51
254.5887191678027079
  0
ARC
  5
10C22
  8
0
 10
3772.2721978067629607
 20
31.9991038161669508
 30
0.0
 40
1.664834998383921
 50
91.9648631254047331
 51
98.928203878468068
  0
ARC
  5
10C23
  8
0
 10
3774.6785583625191975
 20
-9.2551922701426932
 30
0.0
 40
42.9887931661544584
 50
92.7051553333705414
 51
93.2850933394049946
  0
ARC
  5
10C24
  8
0
 10
3773.1188512654080114
 20
27.0181895314407114
 30
0.0
 40
6.6839951550548307
 50
92.2134909445165079
 51
94.0253855473580984
  0
ARC
  5
10C25
  8
0
 10
3772.7885084283047945
 20
35.56479472547732
 30
0.0
 40
1.86899185141017
 50
272.2134909445164794
 51
276.3560891477803807
  0
ARC
  5
10C26
  8
0
 10
3772.8583276996741915
 20
34.9380058462810013
 30
0.0
 40
1.238326306339933
 50
276.3560891477803807
 51
278.5992830671182787
  0
ARC
  5
10C27
  8
0
 10
3773.0440347316139196
 20
33.6303372166658932
 30
0.0
 40
0.0832650840627277
 50
282.9319549457118228
 51
90.37764130188053
  0
ARC
  5
10C28
  8
0
 10
3772.1008466047278489
 20
33.081022366979191
 30
0.0
 40
0.4064770589329692
 50
94.5510823671137501
 51
104.7855482419227968
  0
ARC
  5
10C29
  8
0
 10
3773.142369872855852
 20
19.9963697952201791
 30
0.0
 40
13.5325162041470595
 50
93.6350498123361064
 51
94.5510823671137501
  0
ARC
  5
10C2A
  8
0
 10
3773.5027776189899669
 20
14.3232344690490301
 30
0.0
 40
19.2170881469167405
 50
92.2286805726958931
 51
93.6350498123361064
  0
ARC
  5
10C2B
  8
0
 10
3772.5870107064060903
 20
37.8542483907377516
 30
0.0
 40
4.3317386863013496
 50
272.2286805726957937
 51
274.6836025966323973
  0
ARC
  5
10C2C
  8
0
 10
3772.8352525842738032
 20
35.2055459296555924
 30
0.0
 40
1.6719010016428799
 50
273.6164566791675838
 51
277.8177570562359051
  0
ARC
  5
10C2D
  8
0
 10
3773.0537853864079807
 20
33.6540577212681313
 30
0.0
 40
0.1052492747199456
 50
274.8418018696431204
 51
325.7625771262282228
  0
ARC
  5
10C2E
  8
0
 10
3772.1014607848060223
 20
32.9159173909256211
 30
0.0
 40
0.4063759157467225
 50
93.9801558870586859
 51
104.8718017207011002
  0
ARC
  5
10C2F
  8
0
 10
3774.0774217354692155
 20
4.4327920610021572
 30
0.0
 40
28.9579581794158187
 50
93.2336357006661132
 51
93.9685889310302684
  0
ARC
  5
10C30
  8
0
 10
3774.4289711412461656
 20
-1.7895869583643631
 30
0.0
 40
35.1902601333775422
 50
92.6283040053551758
 51
93.2336357006661132
  0
ARC
  5
10C31
  8
0
 10
3772.6367220458591873
 20
37.2531835772922477
 30
0.0
 40
3.8936251381746421
 50
272.6283040053551758
 51
275.829200124101078
  0
ARC
  5
10C32
  8
0
 10
3772.999399413752144
 20
33.7007001126265919
 30
0.0
 40
0.3226765751307991
 50
275.829200124101078
 51
290.1739804387033814
  0
ARC
  5
10C33
  8
0
 10
3773.0699593123549676
 20
33.4735984935512079
 30
0.0
 40
0.0860273437310608
 50
298.2528529358298783
 51
74.3671792847266317
  0
ARC
  5
10C34
  8
0
 10
3773.0673855969630495
 20
33.5760216676410579
 30
0.0
 40
0.0902387707209713
 50
324.0061779449756045
 51
23.8857571210049606
  0
ARC
  5
10C35
  8
0
 10
3773.0710959323450879
 20
33.3087494181188006
 30
0.0
 40
0.0859761106575747
 50
307.6781816641292835
 51
75.2509675269186147
  0
ARC
  5
10C36
  8
0
 10
3773.0642321622490272
 20
33.3200184203948311
 30
0.0
 40
0.099101036176504
 50
287.0435340901727841
 51
306.8366295337858105
  0
ARC
  5
10C37
  8
0
 10
3772.9986636109779283
 20
33.5819597994602219
 30
0.0
 40
0.3690255077929645
 50
277.8695543713388929
 51
284.8560354670667039
  0
ARC
  5
10C38
  8
0
 10
3772.8123802627710575
 20
34.9296915653336271
 30
0.0
 40
1.7295703981084409
 50
271.4733559246898835
 51
277.8695543713388929
  0
ARC
  5
10C39
  8
0
 10
3769.7221208329929141
 20
89.4632656043639543
 30
0.0
 40
56.3498324057106927
 50
272.7606933747608196
 51
273.1889993975786979
  0
ARC
  5
10C3A
  8
0
 10
3773.2671517507519638
 20
15.9876539173819996
 30
0.0
 40
17.2112494925403183
 50
92.7673414289074003
 51
93.5918533570626607
  0
ARC
  5
10C3B
  8
0
 10
3772.225180550794903
 20
31.9927267303885294
 30
0.0
 40
1.1729292225931689
 50
91.7729797272674261
 51
101.219670079681805
  0
ARC
  5
10C3C
  8
0
 10
3772.0206888263160181
 20
32.9936281852292765
 30
0.0
 40
0.0873857839245343
 50
156.7252985545125057
 51
214.4351314530179025
  0
ARC
  5
10C3D
  8
0
 10
3773.0685248286508795
 20
32.8095558934556593
 30
0.0
 40
0.0885626945586485
 50
3.5838638705387669
 51
73.5585138809779835
  0
ARC
  5
10C3E
  8
0
 10
3773.0779545056120696
 20
32.8120349096108512
 30
0.0
 40
0.0790189765981572
 50
274.0938121480734821
 51
2.217141702895034
  0
ARC
  5
10C3F
  8
0
 10
3773.068159327570811
 20
32.8329358220091194
 30
0.0
 40
0.0888359269604413
 50
352.65830658431139
 51
55.6591300666875028
  0
LINE
  5
10C40
  8
0
 10
3772.2487531259648676
 20
36.2682337732745808
 30
0.0
 11
3772.2487531259648676
 21
35.795356414165262
 31
0.0
  0
LINE
  5
10C41
  8
0
 10
3772.2487531259648676
 20
35.6278872310921315
 30
0.0
 11
3772.2487531259648676
 21
35.1553397666630971
 31
0.0
  0
LINE
  5
10C42
  8
0
 10
3772.2487531259648676
 20
34.9885753166225513
 30
0.0
 11
3772.2487531259648676
 21
34.5425164067491508
 31
0.0
  0
LINE
  5
10C43
  8
0
 10
3772.8393683156650695
 20
35.7493530450320804
 30
0.0
 11
3772.8393683156650695
 21
35.2755248586346681
 31
0.0
  0
LINE
  5
10C44
  8
0
 10
3772.8393683156650695
 20
35.1088505390252408
 30
0.0
 11
3772.8393683156650695
 21
34.6421477103899917
 31
0.0
  0
LINE
  5
10C45
  8
0
 10
3772.8393683156650695
 20
34.4721990612866591
 30
0.0
 11
3772.8393683156650695
 21
34.1784817541673789
 31
0.0
  0
LINE
  5
10C46
  8
0
 10
3772.8393683156650695
 20
33.7222897914409288
 30
0.0
 11
3772.8393683156650695
 21
33.6963390141641597
 31
0.0
  0
ARC
  5
10C47
  8
0
 10
3772.7238666414591535
 20
35.3720468364223919
 30
0.0
 40
0.7388035224267019
 50
280.2592937326452898
 51
291.5763303902061239
  0
ARC
  5
10C48
  8
0
 10
3771.601834789545137
 20
39.791591145368912
 30
0.0
 40
5.2970161981922796
 50
280.2698593335255737
 51
283.6897530524950071
  0
ARC
  5
10C49
  8
0
 10
3772.8892230433880286
 20
34.895274907336578
 30
0.0
 40
0.3974740145456479
 50
285.3137794788610222
 51
305.2215929308608793
  0
ARC
  5
10C4A
  8
0
 10
3773.0675551422891658
 20
34.6426751994218307
 30
0.0
 40
0.0882670451275011
 50
305.2215929308608793
 51
348.4668610393002837
  0
ARC
  5
10C4B
  8
0
 10
3773.0621981719350515
 20
34.6524200314704629
 30
0.0
 40
0.095839816835669
 50
343.3924177700303062
 51
18.7145689331174694
  0
ARC
  5
10C4C
  8
0
 10
3773.0850179104199924
 20
34.6443156446200433
 30
0.0
 40
0.0982848770322829
 50
108.5774809182962031
 51
155.5392789290092139
  0
ARC
  5
10C4D
  8
0
 10
3773.0745995062047768
 20
34.6577963927228865
 30
0.0
 40
0.08237665132869
 50
17.940352822336461
 51
104.6929019360678979
  0
ARC
  5
10C4E
  8
0
 10
3772.3742429279968746
 20
32.8395247660866829
 30
0.0
 40
2.1502437316947529
 50
73.377229227770826
 51
77.506961686703022
  0
ARC
  5
10C4F
  8
0
 10
3772.8317006096540354
 20
34.3718114980238596
 30
0.0
 40
0.5511283014090177
 50
62.5320634325263498
 51
73.377229227770826
  0
ARC
  5
10C50
  8
0
 10
3773.0154105000801792
 20
34.7251976125093265
 30
0.0
 40
0.1528431400590243
 50
35.6106047362860068
 51
62.5320634325263498
  0
ARC
  5
10C51
  8
0
 10
3773.0598117475701656
 20
34.7569982155590935
 30
0.0
 40
0.0982285894980777
 50
355.3443941851855925
 51
35.6106047362861702
  0
ARC
  5
10C52
  8
0
 10
3773.0530042460109144
 20
34.7575525841307922
 30
0.0
 40
0.1050586262473039
 50
329.0579910063701732
 51
355.3443941851857062
  0
ARC
  5
10C53
  8
0
 10
3772.6454627276111751
 20
34.05774578932823
 30
0.0
 40
0.7087495127998493
 50
65.9141047604082644
 51
74.1220951304831743
  0
ARC
  5
10C54
  8
0
 10
3772.8524175338588975
 20
34.5207047805579919
 30
0.0
 40
0.201638756268546
 50
51.4364468311943384
 51
65.9141047604079375
  0
ARC
  5
10C55
  8
0
 10
3772.6390545246149486
 20
36.5577078769631427
 30
0.0
 40
1.8101183178067961
 50
251.5751359664407119
 51
257.5479766109658044
  0
ARC
  5
10C56
  8
0
 10
3772.1605715944938311
 20
35.1214164505453112
 30
0.0
 40
0.2962230189110705
 50
228.9410354740197988
 51
251.5751359664407119
  0
ARC
  5
10C57
  8
0
 10
3772.0414085374491151
 20
34.974494029705383
 30
0.0
 40
0.1073741826247267
 50
184.9611095596914083
 51
225.3898147210367995
  0
ARC
  5
10C58
  8
0
 10
3772.0504589445690726
 20
34.9680639210178583
 30
0.0
 40
0.11605746146136
 50
130.3103717387454878
 51
181.4098888067152018
  0
ARC
  5
10C59
  8
0
 10
3772.2562921928611104
 20
32.8953041843043223
 30
0.0
 40
2.4833871478872451
 50
74.8542442546430919
 51
76.4207164133852785
  0
ARC
  5
10C5A
  8
0
 10
3772.1741761333328213
 20
38.0001006092846723
 30
0.0
 40
2.8046022285640309
 50
280.5246327805413102
 51
285.1074622620192827
  0
ARC
  5
10C5B
  8
0
 10
3776.0181098223620211
 20
17.3097375302266983
 30
0.0
 40
18.2398020288366105
 50
100.5246327805411966
 51
101.7520442593368983
  0
ARC
  5
10C5C
  8
0
 10
3772.880429737382201
 20
32.392017176222538
 30
0.0
 40
2.8346017498496319
 50
101.7520442593368983
 51
105.3975232166584988
  0
ARC
  5
10C5D
  8
0
 10
3772.3191799229489334
 20
34.4299658709056473
 30
0.0
 40
0.7207814556045936
 50
105.3975232166584988
 51
113.8249607611111998
  0
ARC
  5
10C5E
  8
0
 10
3772.117252073371219
 20
34.8872579361602106
 30
0.0
 40
0.2208905781323843
 50
113.8249607611111003
 51
129.9621558076655958
  0
ARC
  5
10C5F
  8
0
 10
3772.0280199675407857
 20
35.0738047343902224
 30
0.0
 40
0.0936100206148394
 50
187.4452156285356068
 51
212.1510219778182886
  0
ARC
  5
10C60
  8
0
 10
3772.0382997459678336
 20
35.0751480945953631
 30
0.0
 40
0.1039772025438528
 50
153.7795378558882078
 51
187.4452156285354079
  0
ARC
  5
10C61
  8
0
 10
3772.052551245846189
 20
35.0681291641747919
 30
0.0
 40
0.119863379963916
 50
124.9434033091743004
 51
153.7795378558882078
  0
ARC
  5
10C62
  8
0
 10
3772.1623063812671717
 20
34.911052578726931
 30
0.0
 40
0.3114860389772816
 50
113.106256734026303
 51
124.9434033091743004
  0
ARC
  5
10C63
  8
0
 10
3772.2955290582299313
 20
34.5988108708753828
 30
0.0
 40
0.6509608771893679
 50
104.7865655275274008
 51
113.106256734026303
  0
ARC
  5
10C64
  8
0
 10
3772.7242512885850374
 20
33.1131694063833777
 30
0.0
 40
2.1971053826240068
 50
102.4988653676852977
 51
105.7087268297031954
  0
ARC
  5
10C65
  8
0
 10
3772.4684350995630666
 20
34.7971618313873279
 30
0.0
 40
1.122658040773999
 50
101.2844629456817955
 51
114.5331236494679956
  0
ARC
  5
10C66
  8
0
 10
3772.0504800908520338
 20
35.7128771266067275
 30
0.0
 40
0.1160693009174955
 50
114.5331236494678961
 51
165.1356231695959025
  0
ARC
  5
10C67
  8
0
 10
3772.0387302498120334
 20
35.7159956962950531
 30
0.0
 40
0.1039126467167511
 50
165.1356231695959025
 51
209.8059599802280104
  0
ARC
  5
10C68
  8
0
 10
3772.4123877549382087
 20
34.1394418836459366
 30
0.0
 40
1.859549991976853
 50
74.6824152115530211
 51
76.7255940830857952
  0
ARC
  5
10C69
  8
0
 10
3772.6706110319678373
 20
36.6499238569693375
 30
0.0
 40
0.7539026990712012
 50
281.2444729300738118
 51
288.0034819502239998
  0
ARC
  5
10C6A
  8
0
 10
3801.6362529238958814
 20
-109.0436420320359048
 30
0.0
 40
147.7911192695742955
 50
101.2444729300737976
 51
101.4427611953563968
  0
ARC
  5
10C6B
  8
0
 10
3772.8539274270920032
 20
33.1529851984531092
 30
0.0
 40
2.7107861546732321
 50
101.4427611953563968
 51
105.6828785878830956
  0
ARC
  5
10C6C
  8
0
 10
3772.2904491902040718
 20
35.1599248367161934
 30
0.0
 40
0.6262443740706514
 50
105.6828785878830956
 51
116.8207262450880961
  0
ARC
  5
10C6D
  8
0
 10
3772.0749022999248155
 20
35.5862518758060418
 30
0.0
 40
0.1485256219080065
 50
116.8207262450881956
 51
148.2788880741441062
  0
ARC
  5
10C6E
  8
0
 10
3772.0325957587770063
 20
35.6124024681486091
 30
0.0
 40
0.0987893483861635
 50
148.2788880741441062
 51
219.6150188886321075
  0
ARC
  5
10C6F
  8
0
 10
3772.1061333654261034
 20
35.6732705428121477
 30
0.0
 40
0.1942498224312625
 50
219.6150188886319938
 51
252.3854919428027017
  0
ARC
  5
10C70
  8
0
 10
3772.3158678297468214
 20
36.1533606746053593
 30
0.0
 40
0.7173808584180453
 50
248.0188596454705987
 51
252.6812933619009129
  0
ARC
  5
10C71
  8
0
 10
3772.6624867680638999
 20
37.313241528669451
 30
0.0
 40
1.9279143672159189
 50
253.1085520712883863
 51
257.6078408059842104
  0
ARC
  5
10C72
  8
0
 10
3772.6840562189108823
 20
37.414026465894878
 30
0.0
 40
1.8683765553199601
 50
254.6145776552029929
 51
256.5271443834359957
  0
ARC
  5
10C73
  8
0
 10
3773.1554020930498154
 20
31.9181444961705196
 30
0.0
 40
3.8189270101454569
 50
100.4459387490686026
 51
104.6684293333408959
  0
ARC
  5
10C74
  8
0
 10
3769.8863624385271578
 20
49.6496583891704688
 30
0.0
 40
14.2114142290128207
 50
280.4459387490687163
 51
281.6145627211959095
  0
ARC
  5
10C75
  8
0
 10
3772.0120466532189312
 20
39.3074784072089614
 30
0.0
 40
3.6530421878372641
 50
281.6145627211959095
 51
285.4801589517390994
  0
ARC
  5
10C76
  8
0
 10
3772.8663624068840363
 20
36.2227676382667312
 30
0.0
 40
0.4522148049581864
 50
285.4801589517390994
 51
301.3064101017646976
  0
ARC
  5
10C77
  8
0
 10
3773.0375991286650788
 20
35.9412036747307297
 30
0.0
 40
0.1226692383847026
 50
301.3064101017645839
 51
337.741004436900198
  0
ARC
  5
10C78
  8
0
 10
3772.2958608814092258
 20
33.6846297665783609
 30
0.0
 40
2.4914840168262229
 50
74.7003670575649465
 51
77.3998342276280056
  0
ARC
  5
10C79
  8
0
 10
3772.7186035955901389
 20
35.2299557662925125
 30
0.0
 40
0.8893779504918725
 50
68.019835645650673
 51
74.7003670575649465
  0
ARC
  5
10C7A
  8
0
 10
3772.9517289691148108
 20
35.807536931984643
 30
0.0
 40
0.2665236796198574
 50
52.862817096344763
 51
68.019835645650673
  0
ARC
  5
10C7B
  8
0
 10
3773.0392264160432205
 20
35.9230733722510323
 30
0.0
 40
0.1215944822566497
 50
26.2876636798619394
 51
52.862817096344763
  0
ARC
  5
10C7C
  8
0
 10
3773.0585881463462101
 20
35.9326373488977993
 30
0.0
 40
0.0999994307484027
 50
337.7280897766275984
 51
26.2876636798615806
  0
ARC
  5
10C7D
  8
0
 10
3772.3923740181489848
 20
34.2064712925716492
 30
0.0
 40
2.0617681804542922
 50
72.8830942033904137
 51
77.4787650483739156
  0
ARC
  5
10C7E
  8
0
 10
3772.8649030268170463
 20
35.7408397816235066
 30
0.0
 40
0.4562868432135329
 50
58.4898520305643999
 51
72.8830942033904847
  0
ARC
  5
10C7F
  8
0
 10
3773.0418859897749826
 20
36.0295349414325798
 30
0.0
 40
0.1176604052697457
 50
17.2839398920427385
 51
58.4898520305643999
  0
ARC
  5
10C80
  8
0
 10
3773.0608497253510905
 20
36.0354356565988212
 30
0.0
 40
0.0977998487208039
 50
346.2265181530440259
 51
17.2839398920421488
  0
ARC
  5
10C81
  8
0
 10
3773.0483750907619651
 20
36.038493599480752
 30
0.0
 40
0.1106438170637689
 50
330.3831059776148891
 51
346.2265181530437985
  0
ARC
  5
10C82
  8
0
 10
3772.6148444266450497
 20
37.7143014862229435
 30
0.0
 40
1.684248431652799
 50
250.1512141853405922
 51
257.4458730461557252
  0
ARC
  5
10C83
  8
0
 10
3772.1157565272369538
 20
36.3317263466346603
 30
0.0
 40
0.2143495412715254
 50
228.098998677084694
 51
250.1512141853405922
  0
ARC
  5
10C84
  8
0
 10
3772.0496697725288868
 20
36.2580740444207379
 30
0.0
 40
0.1153943960329893
 50
190.0629657572453084
 51
228.0989986770844098
  0
ARC
  5
10C85
  8
0
 10
3772.9501786167611499
 20
39.1495880382186385
 30
0.0
 40
2.9957247375721239
 50
255.247679748201989
 51
256.4589379627799985
  0
ARC
  5
10C86
  8
0
 10
3772.9983784632818242
 20
33.1922635416918581
 30
0.0
 40
3.165996053682119
 50
100.8742453014997977
 51
104.8429487010618004
  0
ARC
  5
10C87
  8
0
 10
3772.3611068347281616
 20
33.3215892996464405
 30
0.0
 40
2.2068719718279288
 50
73.6634931160622699
 51
77.4838586441468067
  0
ARC
  5
10C88
  8
0
 10
3772.8136319996738166
 20
34.8654523655083395
 30
0.0
 40
0.5980549558060991
 50
63.3597580841019976
 51
73.6634931160622699
  0
ARC
  5
10C89
  8
0
 10
3773.0115739279031004
 20
35.2600407996018319
 30
0.0
 40
0.1566016295398682
 50
30.9727701629889083
 51
63.3597580841019976
  0
ARC
  5
10C8A
  8
0
 10
3773.0775872409690237
 20
35.2996629124453705
 30
0.0
 40
0.0796102707509931
 50
9.2430349875269542
 51
30.9727701629887306
  0
ARC
  5
10C8B
  8
0
 10
3773.0439384821961539
 20
35.2941870629238181
 30
0.0
 40
0.1137016757523447
 50
336.6262470210874085
 51
9.2430349875271531
  0
ARC
  5
10C8C
  8
0
 10
3772.4901503928008424
 20
35.971789415097021
 30
0.0
 40
1.04311716399157
 50
253.203439420395199
 51
256.6242312578903011
  0
ARC
  5
10C8D
  8
0
 10
3772.8762144736588198
 20
32.4177620240821298
 30
0.0
 40
2.646278278630712
 50
101.2092785729794997
 51
105.0580841088875985
  0
ARC
  5
10C8E
  8
0
 10
3791.5290640498410539
 20
-61.7060108999724122
 30
0.0
 40
98.6005039634363243
 50
100.9893596822820996
 51
101.2092785729794997
  0
ARC
  5
10C8F
  8
0
 10
3772.1022828280310932
 20
38.3353004222824865
 30
0.0
 40
3.309573063893767
 50
280.9893596822820996
 51
284.7092400385183169
  0
ARC
  5
10C90
  8
0
 10
3772.737127622411208
 20
35.9170049564871903
 30
0.0
 40
0.8093369004810512
 50
284.7092400385183169
 51
295.2822684827220883
  0
ARC
  5
10C91
  8
0
 10
3773.0015989591088328
 20
35.3396260909360578
 30
0.0
 40
0.1744715045596452
 50
297.7285634565272971
 51
317.532144199356992
  0
ARC
  5
10C92
  8
0
 10
3773.0258173299798727
 20
35.3104560393830695
 30
0.0
 40
0.1370091598981982
 50
319.6929377029661055
 51
333.3857562695977208
  0
ARC
  5
10C93
  8
0
 10
3772.3459417872181803
 20
33.3654023830370789
 30
0.0
 40
2.2678590457415289
 50
73.7255826461236268
 51
77.4334342660061452
  0
ARC
  5
10C94
  8
0
 10
3772.8118365319828627
 20
34.96128295610891
 30
0.0
 40
0.6053631159096036
 50
64.0282751730349844
 51
73.7255826461236268
  0
ARC
  5
10C95
  8
0
 10
3772.9986438521677883
 20
35.3447749335237518
 30
0.0
 40
0.1787918186846485
 50
40.6454743352330325
 51
64.0282751730349133
  0
ARC
  5
10C96
  8
0
 10
3773.0597814250381816
 20
35.3972603984939767
 30
0.0
 40
0.0982156010419759
 50
8.1997978997773533
 51
40.6454743352331818
  0
ARC
  5
10C97
  8
0
 10
3773.0498743837001712
 20
35.3958328076992217
 30
0.0
 40
0.1082249708304637
 50
344.3539210944157958
 51
8.1997978997775558
  0
ARC
  5
10C98
  8
0
 10
3773.0607592445439877
 20
35.3927842614911583
 30
0.0
 40
0.0969212621652179
 50
329.3620931977208102
 51
344.3539210944157958
  0
LINE
  5
10C99
  8
0
 10
3772.2486841636900863
 20
34.3550688255257199
 30
0.0
 11
3772.2486841636900863
 21
34.1217496573974586
 31
0.0
  0
ARC
  5
10C9A
  8
0
 10
3773.8833906202780781
 20
27.0696841232704593
 30
0.0
 40
7.6278739908730788
 50
100.0962161533742005
 51
103.5664155500636952
  0
ARC
  5
10C9B
  8
0
 10
3772.1885887937510233
 20
34.0931657913769968
 30
0.0
 40
0.4028031972110309
 50
103.5664155500636952
 51
120.0598252229899003
  0
ARC
  5
10C9C
  8
0
 10
3772.0445020140177803
 20
34.3421307095578996
 30
0.0
 40
0.1151497067424331
 50
120.0598252229899998
 51
160.554975267937408
  0
ARC
  5
10C9D
  8
0
 10
3772.0194801539992113
 20
34.3509644049583684
 30
0.0
 40
0.0886143029724475
 50
160.554975267937408
 51
203.7550302875474131
  0
ARC
  5
10C9E
  8
0
 10
3772.0451952408047873
 20
34.3622820088216798
 30
0.0
 40
0.1167097447141626
 50
203.7550302875472141
 51
242.1496723656491952
  0
ARC
  5
10C9F
  8
0
 10
3772.1580634220658794
 20
34.5759005329088112
 30
0.0
 40
0.358312932139865
 50
242.1496723656491952
 51
252.5726204716447114
  0
ARC
  5
10CA0
  8
0
 10
3772.472516555889797
 20
35.7353434802539383
 30
0.0
 40
1.5594274339634091
 50
254.3082078886943123
 51
261.7206931016186218
  0
ARC
  5
10CA1
  8
0
 10
3772.354408258625881
 20
34.8495399693925165
 30
0.0
 40
0.574785392428049
 50
246.3071525280309118
 51
259.4008573728206102
  0
ARC
  5
10CA2
  8
0
 10
3772.5789236270588844
 20
32.8002061609388207
 30
0.0
 40
1.5895458498869279
 50
101.9909458762827938
 51
106.6539669193902995
  0
ARC
  5
10CA3
  8
0
 10
3775.9618226213901835
 20
16.8725417604263406
 30
0.0
 40
17.872497021624639
 50
100.3586009141895943
 51
101.9909458762827938
  0
ARC
  5
10CA4
  8
0
 10
3772.3058108764030294
 20
36.8739678003193703
 30
0.0
 40
2.4603204296974881
 50
280.3586009141894806
 51
286.2480111253534005
  0
ARC
  5
10CA5
  8
0
 10
3772.0245218826307791
 20
33.7395833841815218
 30
0.0
 40
0.093016903306315
 50
98.5450657486871791
 51
279.9472111487733059
  0
ARC
  5
10CA6
  8
0
 10
3772.2442236880369819
 20
32.8172142220210077
 30
0.0
 40
1.0408060363003371
 50
91.3569534646022419
 51
103.1060489439865933
  0
ARC
  5
10CA7
  8
0
 10
3775.1089388387399595
 20
-2.5664719273404231
 30
0.0
 40
36.5386204446785001
 50
93.9013701277491606
 51
94.5355106373371399
  0
ARC
  5
10CA8
  8
0
 10
3771.9479247130748263
 20
43.7866782349651089
 30
0.0
 40
9.9221860522387022
 50
273.9005622064253771
 51
275.6135809488358177
  0
ARC
  5
10CA9
  8
0
 10
3772.8656926205549098
 20
34.6006485550385605
 30
0.0
 40
0.6905940057292537
 50
274.3855800585433826
 51
288.7427343112349831
  0
ARC
  5
10CAA
  8
0
 10
3772.4002014992238401
 20
29.2781743666202701
 30
0.0
 40
4.725313261025768
 50
82.9528820789772823
 51
84.6777080041120769
  0
ARC
  5
10CAB
  8
0
 10
3772.8732298310310398
 20
33.104663639104551
 30
0.0
 40
0.8696971033760874
 50
76.5567442581870381
 51
82.9528820789772823
  0
ARC
  5
10CAC
  8
0
 10
3773.0547983633018703
 20
33.8642643354063608
 30
0.0
 40
0.0886975196800958
 50
68.3000859773186448
 51
76.5567442581870381
  0
ARC
  5
10CAD
  8
0
 10
3773.0665482564609192
 20
33.8607342004172409
 30
0.0
 40
0.0884812650282354
 50
294.3893641990774768
 51
76.2400966621790133
  0
ARC
  5
10CAE
  8
0
 10
3772.1452946949461875
 20
33.3611621474642632
 30
0.0
 40
0.322714875519723
 50
92.4320274868631344
 51
116.6196698297149936
  0
ARC
  5
10CAF
  8
0
 10
3772.9159706984228251
 20
25.9548792066589407
 30
0.0
 40
7.7684072048393302
 50
93.9543970558651296
 51
95.7949860562308544
  0
ARC
  5
10CB0
  8
0
 10
3770.2199913358158483
 20
65.7059348794801963
 30
0.0
 40
32.073974513176573
 50
273.8619169331303169
 51
274.7504281199990146
  0
ARC
  5
10CB1
  8
0
 10
3772.6484272384332144
 20
36.360614260493918
 30
0.0
 40
2.6283656045706829
 50
274.971862503910927
 51
278.1105385803733725
  0
ARC
  5
10CB2
  8
0
 10
3772.9676704946728023
 20
34.1511994198601982
 30
0.0
 40
0.3960338033545897
 50
277.4828580803202271
 51
288.0048281104852208
  0
ARC
  5
10CB3
  8
0
 10
3773.0431522426179072
 20
33.9016380149889969
 30
0.0
 40
0.1354679240413648
 50
290.2695695968698146
 51
296.2580771751108841
  0
ARC
  5
10CB4
  8
0
 10
3772.5399554071000239
 20
29.1727785169350611
 30
0.0
 40
4.5913805486619843
 50
84.4979215146496045
 51
85.1178846922260135
  0
ARC
  5
10CB5
  8
0
 10
3772.8536238478400264
 20
32.4291116397073722
 30
0.0
 40
1.319975147740106
 50
81.0671614961681684
 51
84.4979215146496045
  0
ARC
  5
10CB6
  8
0
 10
3773.0302623556472099
 20
33.5528873079399972
 30
0.0
 40
0.1824018907795668
 50
63.5625578438053367
 51
81.0671614961681684
  0
ARC
  5
10CB7
  8
0
 10
3773.0772203577880646
 20
33.647328576567233
 30
0.0
 40
0.0769305336013201
 50
10.7571230360266004
 51
63.5625578438054291
  0
ARC
  5
10CB8
  8
0
 10
3773.0710217911328073
 20
33.6418708886229183
 30
0.0
 40
0.0841439585369275
 50
326.0195664732551109
 51
13.6215010366248706
  0
LINE
  5
10CB9
  8
0
 10
3772.2479608584148991
 20
33.6945118435385922
 30
0.0
 11
3772.2479608584148991
 21
33.6648325860413209
 31
0.0
  0
ARC
  5
10CBA
  8
0
 10
3772.3927853770128422
 20
30.8181253376755713
 30
0.0
 40
3.4907028503336588
 50
79.9256605869212819
 51
82.6497220481511334
  0
ARC
  5
10CBB
  8
0
 10
3772.9114788574729573
 20
33.7376266647789791
 30
0.0
 40
0.5254826349650755
 50
69.4970628007189362
 51
79.9256605869212819
  0
ARC
  5
10CBC
  8
0
 10
3773.0633915079711187
 20
34.1438720165714926
 30
0.0
 40
0.091762979848466
 50
283.886811453868404
 51
69.4970628007188509
  0
ARC
  5
10CBD
  8
0
 10
3773.031106625492157
 20
27.2759760975928209
 30
0.0
 40
6.7248067238510298
 50
95.5182691370688843
 51
99.0275815170955553
  0
ARC
  5
10CBE
  8
0
 10
3787.3166032881049432
 20
-120.5903718260759945
 30
0.0
 40
155.2796190430115928
 50
95.3469241230529008
 51
95.5182691370688843
  0
ARC
  5
10CBF
  8
0
 10
3772.6646222069521173
 20
35.9591160994090231
 30
0.0
 40
1.954037402846224
 50
275.3469241230528723
 51
280.2462298765703963
  0
ARC
  5
10CC0
  8
0
 10
3772.9145281625160351
 20
34.5765985396039284
 30
0.0
 40
0.5491147039778483
 50
280.2462298765703963
 51
288.188193853884286
  0
ARC
  5
10CC1
  8
0
 10
3772.9460350886961351
 20
34.4480932847920229
 30
0.0
 40
0.2526119035332285
 50
277.7066912946651769
 51
302.6114889022279044
  0
ARC
  5
10CC2
  8
0
 10
3778.1665652305118783
 20
-4.1298485621137138
 30
0.0
 40
38.6769595313651067
 50
97.7066912946651911
 51
97.9168403090657478
  0
ARC
  5
10CC3
  8
0
 10
3764.0118457676580874
 20
122.9856087258417006
 30
0.0
 40
89.2447811095902068
 50
275.295644984254011
 51
275.6766141565017278
  0
ARC
  5
10CC4
  8
0
 10
3772.4697030854317745
 20
31.7351198536242087
 30
0.0
 40
2.3968419188646868
 50
95.2909067047533256
 51
100.2586268669844998
  0
ARC
  5
10CC5
  8
0
 10
3772.4787607065281918
 20
36.3984926843901988
 30
0.0
 40
2.5410562345342478
 50
259.8633749332352068
 51
264.7887389557510005
  0
ARC
  5
10CC6
  8
0
 10
3772.0615214038189151
 20
34.0647661472054324
 30
0.0
 40
0.1703246626169745
 50
239.1947889926478013
 51
259.8633749332352068
  0
ARC
  5
10CC7
  8
0
 10
3772.019231767889778
 20
33.9938392903806417
 30
0.0
 40
0.0877472303119664
 50
130.0315092466117051
 51
239.1947889926478013
  0
ARC
  5
10CC8
  8
0
 10
3772.0683043849958267
 20
33.9166216337234872
 30
0.0
 40
0.1788453104140012
 50
98.183963613455802
 51
126.1544981379869057
  0
LINE
  5
10CC9
  8
0
 10
3772.2479608584148991
 20
33.955026043555371
 30
0.0
 11
3772.2479608584148991
 21
33.8601080537450727
 31
0.0
  0
LINE
  5
10CCA
  8
0
 10
3772.8385120395150807
 20
34.0126875215878712
 30
0.0
 11
3772.8385120395150807
 21
33.904541306687733
 31
0.0
  0
ARC
  5
10CCB
  8
0
 10
3772.0644205243820579
 20
36.2655050881881635
 30
0.0
 40
0.1324630885934579
 50
140.8062807454043082
 51
191.2003246400878993
  0
ARC
  5
10CCC
  8
0
 10
3772.0916577271991628
 20
36.2432959389362424
 30
0.0
 40
0.167607242129463
 50
113.0664982415383975
 51
140.8062807454041092
  0
ARC
  5
10CCD
  8
0
 10
3772.3355183241878876
 20
35.6706451641920381
 30
0.0
 40
0.7900194050722297
 50
102.8170503535525029
 51
113.066498241538298
  0
ARC
  5
10CCE
  8
0
 10
3772.6911109103311901
 20
34.1076516168373516
 30
0.0
 40
2.392952627758842
 50
94.1851522840501048
 51
102.8170503535525029
  0
ARC
  5
10CCF
  8
0
 10
3772.0269279538688352
 20
43.1843046576081733
 30
0.0
 40
6.707968722422601
 50
274.1851522840501048
 51
277.9507522288608925
  0
ARC
  5
10CD0
  8
0
 10
3772.888732171078118
 20
37.0137697980494025
 30
0.0
 40
0.4775428170908324
 50
277.9507522288608925
 51
283.1854084629047179
  0
ARC
  5
10CD1
  8
0
 10
3772.6928643252899747
 20
36.1557921769338222
 30
0.0
 40
0.4973621686430241
 50
52.2058350162875584
 51
68.3527452459417333
  0
ARC
  5
10CD2
  8
0
 10
3773.2602504837500419
 20
32.5077269367869093
 30
0.0
 40
3.8897516435847428
 50
96.468050594954093
 51
102.7604468226988956
  0
ARC
  5
10CD3
  8
0
 10
3772.7272966343398366
 20
37.455100315517619
 30
0.0
 40
1.0865222245035551
 50
275.0042320855005187
 51
283.2048097754595233
  0
ARC
  5
10CD4
  8
0
 10
3771.5287523806559875
 20
33.1639250773111627
 30
0.0
 40
3.7945140738495189
 50
67.2071145767222617
 51
68.9619120185064105
  0
ARC
  5
10CD5
  8
0
 10
3772.6088643919420065
 20
35.7343034141741995
 30
0.0
 40
1.006416738471988
 50
61.4219650956707781
 51
67.2071145767222617
  0
ARC
  5
10CD6
  8
0
 10
3772.9787397850750494
 20
36.4133221151897004
 30
0.0
 40
0.2331934830185505
 50
40.8270662120151471
 51
61.4219650956707781
  0
ARC
  5
10CD7
  8
0
 10
3773.0988830052469893
 20
36.5171260430495579
 30
0.0
 40
0.074418016423419
 50
330.0483578711666723
 51
40.8270662120148273
  0
ARC
  5
10CD8
  8
0
 10
3773.0805879569588797
 20
36.5276681159994467
 30
0.0
 40
0.0955330370004361
 50
298.9436863166898775
 51
330.0483578711662744
  0
ARC
  5
10CD9
  8
0
 10
3772.9753338112050187
 20
36.7179925405036869
 30
0.0
 40
0.3130228569028679
 50
286.4274471673040807
 51
298.9436863166898775
  0
ARC
  5
10CDA
  8
0
 10
3772.8477381151928967
 20
37.1507600065492696
 30
0.0
 40
0.7642083412752355
 50
279.6235383573867921
 51
286.4274471673040807
  0
ARC
  5
10CDB
  8
0
 10
3776.0432364489138308
 20
36.1284504571681566
 30
0.0
 40
3.7952703729991151
 50
167.2116923276986995
 51
174.9590409569040048
  0
ARC
  5
10CDC
  8
0
 10
3776.4619961174348646
 20
35.9715560200939279
 30
0.0
 40
4.2420069414516917
 50
157.0310854604518909
 51
163.9598925126977065
  0
ARC
  5
10CDD
  8
0
 10
3776.3379833448079808
 20
35.9594329706144791
 30
0.0
 40
4.134331810276259
 50
146.6266458445878982
 51
153.710621940510606
  0
ARC
  5
10CDE
  8
0
 10
3776.0432364489161046
 20
36.1284504571678511
 30
0.0
 40
3.795270373000204
 50
135.9049530513082971
 51
143.602461759295295
  0
ARC
  5
10CDF
  8
0
 10
3775.5223895186959453
 20
36.7868056490185324
 30
0.0
 40
2.9571029539495011
 50
124.7291749320299061
 51
134.5733348392550113
  0
ARC
  5
10CE0
  8
0
 10
3775.7184847672137948
 20
36.7442841604795518
 30
0.0
 40
3.0999514974652951
 50
114.5878059804785067
 51
123.9578717147383031
  0
ARC
  5
10CE1
  8
0
 10
3775.5811558095952023
 20
37.5707966231050179
 30
0.0
 40
2.2839797465790852
 50
102.9110565827402013
 51
115.596928330679205
  0
ARC
  5
10CE2
  8
0
 10
3776.0432364489161046
 20
36.1284504571686966
 30
0.0
 40
3.795270372999306
 50
94.5288325806083094
 51
102.1656054135953013
  0
ARC
  5
10CE3
  8
0
 10
3776.0422813658979067
 20
36.147255214776429
 30
0.0
 40
3.1858877143231501
 50
92.5669536266966446
 51
100.1695528854269952
  0
ARC
  5
10CE4
  8
0
 10
3776.0846773896041668
 20
35.956818719705268
 30
0.0
 40
3.3812669994747999
 50
102.890694848757505
 51
110.0972950325976001
  0
ARC
  5
10CE5
  8
0
 10
3776.1168730242111451
 20
35.9643018118226792
 30
0.0
 40
3.3845987029747771
 50
113.2070287841248017
 51
120.4227826427716934
  0
ARC
  5
10CE6
  8
0
 10
3776.0432364489161046
 20
36.1284504571682135
 30
0.0
 40
3.2047163796997502
 50
123.4756127661099043
 51
131.1117694574936081
  0
ARC
  5
10CE7
  8
0
 10
3775.9094432910160322
 20
36.2650879368405015
 30
0.0
 40
3.0134926186455142
 50
133.7885384182222026
 51
141.9291139059430975
  0
ARC
  5
10CE8
  8
0
 10
3776.0432364489161046
 20
36.1284504571681424
 30
0.0
 40
3.2047163796997742
 50
144.2054614240065007
 51
151.8952940666059988
  0
ARC
  5
10CE9
  8
0
 10
3775.9449915018149113
 20
36.171086036062583
 30
0.0
 40
3.0976811157699791
 50
154.554541277684109
 51
162.5371537711912993
  0
ARC
  5
10CEA
  8
0
 10
3776.0638874955411666
 20
36.124297182669558
 30
0.0
 40
3.2257406337802839
 50
165.0954263629973013
 51
172.7976920895868886
  0
ARC
  5
10CEB
  8
0
 10
3776.0432364489170141
 20
36.1284504571679719
 30
0.0
 40
3.2047163797015821
 50
175.5821586946046011
 51
179.9999999999992042
  0
LINE
  5
10CEC
  8
0
 10
3772.8385200692150647
 20
36.1284504571680074
 30
0.0
 11
3772.8385200692150647
 21
35.9149573033919935
 31
0.0
  0
ARC
  5
10CED
  8
0
 10
3773.7687224378209976
 20
39.4664359214251874
 30
0.0
 40
1.866915589337762
 50
350.4801985259481967
 51
355.0759900137431941
  0
ARC
  5
10CEE
  8
0
 10
3775.3316160170529656
 20
39.2043419368001125
 30
0.0
 40
0.282198076093879
 50
334.173282712571222
 51
350.4801985259480261
  0
ARC
  5
10CEF
  8
0
 10
3775.4970837024079628
 20
39.1242565210885971
 30
0.0
 40
0.0983687293984393
 50
295.999123322990215
 51
334.1732827125707104
  0
ARC
  5
10CF0
  8
0
 10
3775.5119273985787913
 20
39.1022865754613491
 30
0.0
 40
0.07221069292145
 50
249.2263963787567889
 51
293.0534515363705168
  0
ARC
  5
10CF1
  8
0
 10
3773.8999783468761962
 20
39.1832531298493194
 30
0.0
 40
1.321973285217152
 50
27.6643259517493405
 51
36.4354944264941665
  0
ARC
  5
10CF2
  8
0
 10
3763.3274829840947859
 20
33.8625543653873109
 30
0.0
 40
13.1576660567537296
 50
24.1841718518964086
 51
26.8096723593790607
  0
ARC
  5
10CF3
  8
0
 10
3776.205088628195881
 20
39.6301278647734065
 30
0.0
 40
0.9526287691376104
 50
203.3295182595217057
 51
213.6395616606428121
  0
ARC
  5
10CF4
  8
0
 10
3775.628231437156046
 20
39.2462904670334822
 30
0.0
 40
0.2597396244989024
 50
213.639561660643011
 51
227.131398589490999
  0
ARC
  5
10CF5
  8
0
 10
3775.520588280238826
 20
39.1303252569331477
 30
0.0
 40
0.1015151662610576
 50
227.131398589491198
 51
250.2688124597970898
  0
ARC
  5
10CF6
  8
0
 10
3775.9505376493689255
 20
39.459618672869091
 30
0.0
 40
0.5027711717019058
 50
200.5551516766516045
 51
209.7471190414158002
  0
ARC
  5
10CF7
  8
0
 10
3775.2349145011990004
 20
39.3339703824231179
 30
0.0
 40
0.3053349607798702
 50
336.0775801865996186
 51
352.2688210288329174
  0
ARC
  5
10CF8
  8
0
 10
3744.6194188685331028
 20
26.4785952244793208
 30
0.0
 40
33.4113264517100816
 50
22.5344079861118409
 51
23.569502684168679
  0
ARC
  5
10CF9
  8
0
 10
3773.8675746065250678
 20
39.224284480473159
 30
0.0
 40
1.506725412138435
 50
24.0567861734625517
 51
33.5274170736863724
  0
ARC
  5
10CFA
  8
0
 10
3774.9746193015757854
 20
40.0235689453478969
 30
0.0
 40
0.1323067137963795
 50
78.6135737013907345
 51
142.7407639655652929
  0
ARC
  5
10CFB
  8
0
 10
3774.9726589049128052
 20
40.0138345597261207
 30
0.0
 40
0.1422365384931662
 50
48.1347109407719032
 51
78.6135737013907345
  0
ARC
  5
10CFC
  8
0
 10
3774.8247648152218972
 20
39.8488028769303995
 30
0.0
 40
0.3638400540158472
 50
37.4907747531338771
 51
48.1347109407719032
  0
ARC
  5
10CFD
  8
0
 10
3774.7332481580160675
 20
39.7786030842356269
 30
0.0
 40
0.4791800273143715
 50
35.4469604904098503
 51
37.4907747531338771
  0
ARC
  5
10CFE
  8
0
 10
3775.0818370138999853
 20
39.9673511598004723
 30
0.0
 40
0.2524179850242778
 50
147.1386153012529121
 51
180.617769280198786
  0
ARC
  5
10CFF
  8
0
 10
3776.378817818943844
 20
39.9169047330687334
 30
0.0
 40
1.55011896614603
 50
178.2357054368295053
 51
186.8830155836278095
  0
ARC
  5
10D00
  8
0
 10
3775.7664229945180523
 20
39.9332964687389023
 30
0.0
 40
1.6229244553763069
 50
189.0558509348844041
 51
197.1228885720574908
  0
ARC
  5
10D01
  8
0
 10
3774.4752211579780123
 20
39.7274997738493028
 30
0.0
 40
0.3154251390043306
 50
164.6542064288078961
 51
189.0558509348844041
  0
ARC
  5
10D02
  8
0
 10
3774.2970925684380745
 20
39.763888829123978
 30
0.0
 40
0.1345579173643136
 50
129.7049063825882058
 51
159.5167720317936926
  0
ARC
  5
10D03
  8
0
 10
3774.2949260116311052
 20
39.7663485770479284
 30
0.0
 40
0.1312814881628205
 50
99.8320336428103587
 51
129.6632445715067092
  0
ARC
  5
10D04
  8
0
 10
3774.2952601888077879
 20
39.7643685358504015
 30
0.0
 40
0.133289512190882
 50
79.682252884577764
 51
99.8282321089545235
  0
ARC
  5
10D05
  8
0
 10
3774.2709281687011753
 20
39.6872908572812406
 30
0.0
 40
0.213719219691726
 50
42.8213792848185832
 51
76.9645770130134395
  0
ARC
  5
10D06
  8
0
 10
3773.7061786965541614
 20
39.0880634883220495
 30
0.0
 40
1.036748092724435
 50
36.7119166652448925
 51
45.8983694578327999
  0
ARC
  5
10D07
  8
0
 10
3772.5009545096818329
 20
38.1420266063520117
 30
0.0
 40
2.5687307250838392
 50
35.4156755831113017
 51
37.5577225950677516
  0
ARC
  5
10D08
  8
0
 10
3846.7127478746401721
 20
86.7956720504789558
 30
0.0
 40
86.1719201348253989
 50
213.1844913399268933
 51
213.5813684101856893
  0
ARC
  5
10D09
  8
0
 10
3774.6808363253821881
 20
39.1350281039713934
 30
0.0
 40
0.301441940763401
 50
346.2858227165110065
 51
3.4449930672868638
  0
ARC
  5
10D0A
  8
0
 10
3775.8413239907108618
 20
39.7596539445557369
 30
0.0
 40
1.1123586037762301
 50
214.3379753702299979
 51
218.7394265270511085
  0
ARC
  5
10D0B
  8
0
 10
3775.8192835418972209
 20
39.8932085726947818
 30
0.0
 40
1.4896636054656001
 50
189.1396418014502956
 51
193.8367433067579952
  0
ARC
  5
10D0C
  8
0
 10
3773.1370075952931984
 20
38.5369713585796987
 30
0.0
 40
1.6496470460884081
 50
38.4665357362793827
 51
42.7422252728397325
  0
ARC
  5
10D0D
  8
0
 10
3764.338529616903088
 20
31.8616600047427987
 30
0.0
 40
12.6934278238551297
 50
34.6301596741270714
 51
37.3534520340741523
  0
ARC
  5
10D0E
  8
0
 10
3773.6999476345481526
 20
39.0342050740366133
 30
0.0
 40
1.3766496054220221
 50
358.4836374708522158
 51
6.155792430172931
  0
ARC
  5
10D0F
  8
0
 10
3774.9144683169270138
 20
39.0020546474420371
 30
0.0
 40
0.1617034593496765
 50
331.1640249281317097
 51
358.4836374708519884
  0
ARC
  5
10D10
  8
0
 10
3774.9884710976448332
 20
38.9613107452821978
 30
0.0
 40
0.0772257870497659
 50
295.720777370118924
 51
331.1640249281310844
  0
ARC
  5
10D11
  8
0
 10
3774.9911747150631527
 20
38.9556982526469682
 30
0.0
 40
0.0709960502396559
 50
254.8474916093477987
 51
295.7207773701189808
  0
ARC
  5
10D12
  8
0
 10
3775.0088781167451089
 20
39.02107171138843
 30
0.0
 40
0.1387241798383427
 50
230.0993304633678065
 51
254.8474916093477987
  0
ARC
  5
10D13
  8
0
 10
3775.2100310074129084
 20
39.2616421566088931
 30
0.0
 40
0.4523108895979801
 50
218.2251154772694974
 51
230.0993304633678065
  0
ARC
  5
10D14
  8
0
 10
3778.4610513762258961
 20
41.8222512685149397
 30
0.0
 40
4.5906502259025093
 50
216.7579415849459963
 51
218.2251154772694974
  0
ARC
  5
10D15
  8
0
 10
3774.1652796134230812
 20
38.8378441550010507
 30
0.0
 40
0.3041769318346703
 50
356.853971147269192
 51
14.7522786846313991
  0
ARC
  5
10D16
  8
0
 10
3775.229450833698138
 20
39.7004126283773715
 30
0.0
 40
1.1624930074282509
 50
224.6887687184135132
 51
229.1442546195098942
  0
ARC
  5
10D17
  8
0
 10
3762.7651051922621264
 20
28.1069559508000495
 30
0.0
 40
15.8606745572386405
 50
42.797685238347249
 51
44.9662299107319612
  0
ARC
  5
10D18
  8
0
 10
3772.9409066993980559
 20
38.2707693028748182
 30
0.0
 40
1.478392465426964
 50
44.9662299107319612
 51
53.1297250779682528
  0
ARC
  5
10D19
  8
0
 10
3773.5459284245612253
 20
39.0774538701513805
 30
0.0
 40
0.4700317764862274
 50
53.1297250779682528
 51
66.7925096038157022
  0
ARC
  5
10D1A
  8
0
 10
3773.6772510559248985
 20
39.3837419330574505
 30
0.0
 40
0.1367781028574162
 50
66.7925096038157733
 51
97.4378563494510104
  0
ARC
  5
10D1B
  8
0
 10
3773.6777814031211165
 20
39.3796795028287718
 30
0.0
 40
0.1408750050422895
 50
97.4378563494510104
 51
127.4749210688971033
  0
ARC
  5
10D1C
  8
0
 10
3773.6672106351761613
 20
39.3934680882435799
 30
0.0
 40
0.1235007072810663
 50
127.4749210688973022
 51
156.3620021627845063
  0
ARC
  5
10D1D
  8
0
 10
3773.6979932153499249
 20
39.3799951913952029
 30
0.0
 40
0.1571025850796191
 50
156.3620021627841084
 51
188.5467418844029908
  0
ARC
  5
10D1E
  8
0
 10
3774.0499209430281553
 20
39.4328846937266491
 30
0.0
 40
0.5129823751296245
 50
188.5467418844027918
 51
198.1285663991197907
  0
ARC
  5
10D1F
  8
0
 10
3774.4663442122300694
 20
39.569222635243321
 30
0.0
 40
0.9511562828750982
 50
198.1285663991197907
 51
206.1584357759089983
  0
ARC
  5
10D20
  8
0
 10
3765.5524793332529043
 20
35.1910865635343626
 30
0.0
 40
8.979858899020563
 50
25.6259869539745786
 51
26.1584357759089912
  0
ARC
  5
10D21
  8
0
 10
3775.2004043381730298
 20
39.8118055008737812
 30
0.0
 40
1.5445073092755151
 50
199.7245937056162859
 51
204.0212431472623109
  0
ARC
  5
10D22
  8
0
 10
3772.7918653033848386
 20
38.0111864508301309
 30
0.0
 40
1.5962765130043071
 50
49.0657554688398889
 51
53.2695732979809122
  0
ARC
  5
10D23
  8
0
 10
3765.53122654425988
 20
30.0264637670662715
 30
0.0
 40
12.3881430412370896
 50
45.1006004356199099
 51
47.8927299623906535
  0
ARC
  5
10D24
  8
0
 10
3773.643589145974147
 20
38.6666641450464823
 30
0.0
 40
0.942959902503189
 50
4.8648747588648122
 51
18.0699181418264416
  0
ARC
  5
10D25
  8
0
 10
3774.45983347470019
 20
38.7427421136160035
 30
0.0
 40
0.1233798991667634
 50
331.0202797077117793
 51
1.80711960743661
  0
ARC
  5
10D26
  8
0
 10
3774.5036376794068929
 20
38.7230941741509369
 30
0.0
 40
0.0756486402234765
 50
271.828673077296628
 51
327.9625245562863824
  0
ARC
  5
10D27
  8
0
 10
3775.7588198728590214
 20
40.3519828368579425
 30
0.0
 40
2.1456561055261498
 50
226.2682593591551097
 51
229.5714931928908982
  0
ARC
  5
10D28
  8
0
 10
3774.7383911342849387
 20
39.1541910617113729
 30
0.0
 40
0.5721314164550403
 50
229.5714931928908982
 51
236.544124214114305
  0
ARC
  5
10D29
  8
0
 10
3774.5354013507890159
 20
38.8469931988524166
 30
0.0
 40
0.2039257957095256
 50
236.544124214114305
 51
255.6384630533146094
  0
ARC
  5
10D2A
  8
0
 10
3774.50154312414179
 20
38.7147556391487626
 30
0.0
 40
0.0674224927894032
 50
255.6384630533144957
 51
273.8342580162603781
  0
ARC
  5
10D2B
  8
0
 10
3773.0254680757047936
 20
38.3851228855555817
 30
0.0
 40
1.6130992936826609
 50
241.8041837739546054
 51
244.5849915670187897
  0
ARC
  5
10D2C
  8
0
 10
3772.3966385459789308
 20
35.5128556165495866
 30
0.0
 40
1.4566969805647381
 50
92.1452747664983178
 51
95.2518893414773515
  0
ARC
  5
10D2D
  8
0
 10
3772.4317505631861422
 20
28.1057355251064607
 30
0.0
 40
8.8632494285068315
 50
86.6693928923680375
 51
90.5794875978610463
  0
ARC
  5
10D2E
  8
0
 10
3771.4120003465100126
 20
34.6019504427369782
 30
0.0
 40
3.1241249174205818
 50
56.2178106537382405
 51
58.4508944228663267
  0
ARC
  5
10D2F
  8
0
 10
3772.6627441115410875
 20
36.4715461170419175
 30
0.0
 40
0.8747365669696024
 50
50.8796813526196985
 51
56.2178106537382405
  0
ARC
  5
10D30
  8
0
 10
3773.0333156755968957
 20
36.9272040746698522
 30
0.0
 40
0.2874142887980802
 50
38.080006909118417
 51
50.8796813526195706
  0
ARC
  5
10D31
  8
0
 10
3773.1765529741301179
 20
37.0394357736213991
 30
0.0
 40
0.1054448464719335
 50
8.0300982882338872
 51
38.0800069091185804
  0
ARC
  5
10D32
  8
0
 10
3773.2114053693499045
 20
37.0452708445921175
 30
0.0
 40
0.0701249594288778
 50
327.8279521916779231
 51
7.2872038378124939
  0
ARC
  5
10D33
  8
0
 10
3773.0766280497441585
 20
40.4744796537096789
 30
0.0
 40
3.5228876171362402
 50
267.8859832206654232
 51
269.5377198358497139
  0
ARC
  5
10D34
  8
0
 10
3773.0754402389438837
 20
37.6272564052369631
 30
0.0
 40
0.6760984998951702
 50
267.6912991083777911
 51
275.987546954021127
  0
ARC
  5
10D35
  8
0
 10
3773.1294755845310647
 20
37.2304200224496711
 30
0.0
 40
0.2760666559608849
 50
273.4244369172853908
 51
289.7413937917971225
  0
ARC
  5
10D36
  8
0
 10
3773.1901778546821333
 20
37.0620025766933168
 30
0.0
 40
0.097044233895997
 50
289.5953615266195129
 51
326.1392853093964277
  0
ARC
  5
10D37
  8
0
 10
3772.9246755257531731
 20
38.3077068260009312
 30
0.0
 40
1.676729986582048
 50
242.6833594668987928
 51
248.1167592625926943
  0
ARC
  5
10D38
  8
0
 10
3772.3794340805998218
 20
37.2520732412681213
 30
0.0
 40
0.4886009958038683
 50
231.3458256070292975
 51
242.6833594668987928
  0
ARC
  5
10D39
  8
0
 10
3772.1873464660761783
 20
37.0119153170080182
 30
0.0
 40
0.181072980431427
 50
202.0965739270974098
 51
231.3458256070292975
  0
ARC
  5
10D3A
  8
0
 10
3772.1445271404390951
 20
36.9877769831821084
 30
0.0
 40
0.132466504634283
 50
154.6462139744334934
 51
199.3887465241749055
  0
ARC
  5
10D3B
  8
0
 10
3772.1536483725508333
 20
36.9807062450096566
 30
0.0
 40
0.14375670941857
 50
109.084501259352507
 51
153.6947505915335057
  0
ARC
  5
10D3C
  8
0
 10
3772.2457778614430026
 20
36.7144192185248386
 30
0.0
 40
0.4255307735153214
 50
96.4165314469477295
 51
109.084501259352507
  0
ARC
  5
10D3D
  8
0
 10
3772.3394802767838883
 20
35.7403626721478815
 30
0.0
 40
1.4040455670953911
 50
88.1365360243589748
 51
95.7741693643625638
  0
ARC
  5
10D3E
  8
0
 10
3771.9780448150531811
 20
27.8414317117395207
 30
0.0
 40
9.3111374912519924
 50
84.9167034845979316
 51
87.4941739417686648
  0
ARC
  5
10D3F
  8
0
 10
3773.9633687728291989
 20
50.1600338231142828
 30
0.0
 40
13.09559166369562
 50
264.9167034845979174
 51
265.7785260049695921
  0
ARC
  5
10D40
  8
0
 10
3773.0843934344579793
 20
38.053505254896649
 30
0.0
 40
0.9573167622692627
 50
264.9049837927640851
 51
271.8031178057696025
  0
ARC
  5
10D41
  8
0
 10
3772.7891179239259145
 20
36.8145836820197729
 30
0.0
 40
0.4306414885351006
 50
40.9211733738555807
 51
58.1521798636141867
  0
ARC
  5
10D42
  8
0
 10
3769.3804955960740699
 20
24.1107288216696602
 30
0.0
 40
14.0607619855371997
 50
74.1685295863809841
 51
76.6325718455322971
  0
ARC
  5
10D43
  8
0
 10
3772.9332744890721187
 20
37.3757958196222333
 30
0.0
 40
0.4611205576081132
 50
31.1192252032709185
 51
45.8678765212057229
  0
ARC
  5
10D44
  8
0
 10
3773.486018487677029
 20
38.6194635776229021
 30
0.0
 40
1.017688130651436
 50
254.6367189706305112
 51
261.0695307697218936
  0
ARC
  5
10D45
  8
0
 10
3772.8599850134942244
 20
37.2043872739818511
 30
0.0
 40
0.7277072450404728
 50
33.6933610601166365
 51
52.8455116621112992
  0
ARC
  5
10D46
  8
0
 10
3773.3737159343318126
 20
37.5469172117773908
 30
0.0
 40
0.1102558564194641
 50
353.3523226880637935
 51
33.6933610601166365
  0
ARC
  5
10D47
  8
0
 10
3773.4198555635739467
 20
37.541539762790002
 30
0.0
 40
0.0638039205681748
 50
299.1442086297046217
 51
353.3523226880632251
  0
ARC
  5
10D48
  8
0
 10
3770.8762964614220436
 20
28.2086609123540413
 30
0.0
 40
9.5669260795006554
 50
76.2649075394789975
 51
79.8860539906470848
  0
ARC
  5
10D49
  8
0
 10
3773.4802499920001537
 20
38.864654592494027
 30
0.0
 40
1.4026125489241541
 50
256.2892389508925248
 51
265.1416756698540098
  0
ARC
  5
10D4A
  8
0
 10
3773.3705231354629177
 20
37.6468197986210811
 30
0.0
 40
0.1799667679599607
 50
267.1132572672684091
 51
296.5372741198979156
  0
ARC
  5
10D4B
  8
0
 10
3778.5208262336800544
 20
45.8439005201037588
 30
0.0
 40
10.1989221500176797
 50
233.568871761741093
 51
234.0843666830560039
  0
ARC
  5
10D4C
  8
0
 10
3772.3802030680958524
 20
36.5643217374644465
 30
0.0
 40
1.0770940258479851
 50
80.5898107933058867
 51
85.5307709723827685
  0
ARC
  5
10D4D
  8
0
 10
3773.2133837016508551
 20
38.6012171028346884
 30
0.0
 40
1.39643002365721
 50
228.3394169840383086
 51
238.0178535222796938
  0
ARC
  5
10D4E
  8
0
 10
3772.4183606520027752
 20
37.7076659008560711
 30
0.0
 40
0.200396830125221
 50
196.0378897512669027
 51
228.3394169840383086
  0
ARC
  5
10D4F
  8
0
 10
3772.3542488581629186
 20
37.6834353710625081
 30
0.0
 40
0.1322036824018677
 50
136.6059732278752108
 51
193.6209784606209041
  0
ARC
  5
10D50
  8
0
 10
3772.2003176204189003
 20
35.7545933382806425
 30
0.0
 40
2.0810663691816851
 50
78.0485267198800017
 51
81.578332584148427
  0
ARC
  5
10D51
  8
0
 10
3772.3969897984447925
 20
37.0829784218132872
 30
0.0
 40
0.7382011950999127
 50
81.578332584148427
 51
92.2778168195984847
  0
ARC
  5
10D52
  8
0
 10
3772.3718544526709593
 20
37.6581897262706704
 30
0.0
 40
0.1624610200361654
 50
91.4829518635986858
 51
134.4014269945951128
  0
ARC
  5
10D53
  8
0
 10
3773.5474329080138887
 20
38.9374643560728586
 30
0.0
 40
1.1923751092671191
 50
217.3602269240410862
 51
228.9466117145641988
  0
ARC
  5
10D54
  8
0
 10
3772.7789576509808285
 20
38.3507654917031005
 30
0.0
 40
0.2255401812034548
 50
187.446022573540688
 51
217.3602269240413136
  0
ARC
  5
10D55
  8
0
 10
3772.6862168316229145
 20
38.3296921672465487
 30
0.0
 40
0.1311512479724346
 50
140.5432395646664929
 51
183.5649158541826012
  0
ARC
  5
10D56
  8
0
 10
3772.6885163917099817
 20
38.327955905330171
 30
0.0
 40
0.1340301898548656
 50
101.6689888160974959
 51
140.5948732970310004
  0
ARC
  5
10D57
  8
0
 10
3772.7019672553187775
 20
38.2587620446317302
 30
0.0
 40
0.2045161684308529
 50
81.286779715634168
 51
101.4386762307548935
  0
ARC
  5
10D58
  8
0
 10
3772.6269572818059714
 20
37.7693249907624633
 30
0.0
 40
0.6996677874596201
 50
73.7907986633951793
 51
81.286779715634168
  0
ARC
  5
10D59
  8
0
 10
3772.4979995677031184
 20
37.3257155497717932
 30
0.0
 40
1.161641193796765
 50
67.842094320076086
 51
73.7907986633951793
  0
ARC
  5
10D5A
  8
0
 10
3776.0822772814422024
 20
46.1271985084688012
 30
0.0
 40
8.3416818566655042
 50
247.8420943200760007
 51
248.2288860686811063
  0
ARC
  5
10D5B
  8
0
 10
3771.9613488009640605
 20
35.8090588590906975
 30
0.0
 40
2.7689462698307108
 50
63.1203363158118407
 51
68.2288860686810921
  0
ARC
  5
10D5C
  8
0
 10
3776.6065298413200253
 20
44.9732710505011184
 30
0.0
 40
7.505317304113496
 50
243.1203363158118123
 51
245.2266064488864004
  0
ARC
  5
10D5D
  8
0
 10
3770.198644757359034
 20
31.0884073574055684
 30
0.0
 40
7.7868516403196262
 50
64.6132202790807781
 51
65.2266064488863435
  0
ARC
  5
10D5E
  8
0
 10
3773.9413161355801094
 20
38.9751509672244083
 30
0.0
 40
0.9428856874796565
 50
244.6132202790807924
 51
248.5930551486434013
  0
ARC
  5
10D5F
  8
0
 10
3774.0896103617201334
 20
39.3534182622358131
 30
0.0
 40
1.3491827758048831
 50
248.5930551486434013
 51
250.1724667547659919
  0
ARC
  5
10D60
  8
0
 10
3773.3031887330312202
 20
37.9747379676936916
 30
0.0
 40
0.3465403753835057
 50
18.4165185741032786
 51
36.2964441729618912
  0
ARC
  5
10D61
  8
0
 10
3772.3996228609521495
 20
37.2813787336176432
 30
0.0
 40
1.573935549145381
 50
31.2400366292066884
 51
37.9316956233856928
  0
ARC
  5
10D62
  8
0
 10
3773.5535840078791807
 20
37.981345019540143
 30
0.0
 40
0.2242766551849569
 50
9.9202297730590256
 51
31.2400366292068696
  0
ARC
  5
10D63
  8
0
 10
3773.6955972424311767
 20
38.0061819686436593
 30
0.0
 40
0.0801078900921578
 50
323.0930079328184092
 51
9.9202297730594271
  0
ARC
  5
10D64
  8
0
 10
3773.7045868757368225
 20
37.9994306453906177
 30
0.0
 40
0.0688653871387247
 50
285.9091492039095783
 51
323.093007932817784
  0
ARC
  5
10D65
  8
0
 10
3773.6837952639798459
 20
38.0723759542308073
 30
0.0
 40
0.1447159586676931
 50
261.3825342785813746
 51
285.9091492039095783
  0
ARC
  5
10D66
  8
0
 10
3773.7271129982200364
 20
38.3582117819975323
 30
0.0
 40
0.4338155030028423
 50
250.4611849680572959
 51
261.3825342785813746
  0
ARC
  5
10D67
  8
0
 10
3774.4663998013929813
 20
40.4414072030102218
 30
0.0
 40
2.644301453981436
 50
247.2502073006444903
 51
250.4611849680572959
  0
ARC
  5
10D68
  8
0
 10
3769.2265795799089574
 20
28.5928033417705585
 30
0.0
 40
10.3118240585151497
 50
65.8597178192429737
 51
69.217787650830104
  0
ARC
  5
10D69
  8
0
 10
3772.3503244503172027
 20
36.7153688566580669
 30
0.0
 40
1.609849165166249
 50
70.5874170822689564
 51
74.1658794310212386
  0
ARC
  5
10D6A
  8
0
 10
3774.1606052123288464
 20
39.4591403354171106
 30
0.0
 40
1.818724843157753
 50
221.0758516675130068
 51
224.22767753747911
  0
ARC
  5
10D6B
  8
0
 10
3774.4640836711810152
 20
39.6006094434787101
 30
0.0
 40
1.645418409050569
 50
210.162118527422308
 51
217.5931928463708118
  0
ARC
  5
10D6C
  8
0
 10
3773.3516348889170331
 20
38.954133059479787
 30
0.0
 40
0.3587661606832862
 50
196.0376339214504924
 51
210.1621185274219954
  0
ARC
  5
10D6D
  8
0
 10
3773.1591964316321537
 20
38.8988154005306015
 30
0.0
 40
0.1585347864341431
 50
154.8092394968483063
 51
196.0376339214498955
  0
ARC
  5
10D6E
  8
0
 10
3773.1322974396889549
 20
38.9040840302416768
 30
0.0
 40
0.132120556068313
 50
114.5138119632892
 51
151.9104635851190039
  0
ARC
  5
10D6F
  8
0
 10
3773.1389256017400839
 20
38.8692178144598799
 30
0.0
 40
0.1668075241513183
 50
83.8624923234825701
 51
111.6150360515753022
  0
ARC
  5
10D70
  8
0
 10
3773.1336323482278203
 20
38.8199925913639774
 30
0.0
 40
0.2163165245611341
 50
67.4989949096092232
 51
83.8624923234825701
  0
ARC
  5
10D71
  8
0
 10
3772.7760022832990217
 20
37.9566400752732065
 30
0.0
 40
1.150809344427604
 50
61.1332123884144565
 51
67.4989949096092232
  0
ARC
  5
10D72
  8
0
 10
3772.6562822936111843
 20
37.7394702486499583
 30
0.0
 40
1.3987924275731261
 50
55.5763209688642732
 51
61.1332123884144565
  0
ARC
  5
10D73
  8
0
 10
3766.896440237817842
 20
29.3348863019972015
 30
0.0
 40
11.5876496659497601
 50
54.0408257942995576
 51
55.5763209688642732
  0
ARC
  5
10D74
  8
0
 10
3762.8375395538150769
 20
23.7399094539296591
 30
0.0
 40
18.4998447364761915
 50
53.3525013233936818
 51
54.0408257942995576
  0
ARC
  5
10D75
  8
0
 10
3774.7740903047820211
 20
39.78468302001653
 30
0.0
 40
1.4980552187045839
 50
233.3525013233937102
 51
235.9838860898813095
  0
ARC
  5
10D76
  8
0
 10
3775.2213421413421202
 20
40.4473590433755419
 30
0.0
 40
2.297538625187014
 50
235.9838860898813095
 51
238.3143615281225038
  0
ARC
  5
10D77
  8
0
 10
3773.7743485382470681
 20
38.48495247373517
 30
0.0
 40
0.2403041011543095
 50
1.748592525497813
 51
25.8127768508833491
  0
ARC
  5
10D78
  8
0
 10
3774.7139850161352115
 20
39.6987778783475918
 30
0.0
 40
1.7317508749914781
 50
210.4492999015035082
 51
214.0487884017420868
  0
ARC
  5
10D79
  8
0
 10
3772.5308201607840601
 20
37.4210572855850501
 30
0.0
 40
1.5610161352106029
 50
59.7383894343851622
 51
63.7565127846195381
  0
ARC
  5
10D7A
  8
0
 10
3770.1201069311919127
 20
33.2892632565727666
 30
0.0
 40
6.3446612070686461
 50
54.2821106334334402
 51
59.7383894343851622
  0
ARC
  5
10D7B
  8
0
 10
3774.3889194757680343
 20
39.2260320903776503
 30
0.0
 40
0.9675193655628779
 50
234.2821106334334047
 51
242.9727363962643949
  0
ARC
  5
10D7C
  8
0
 10
3774.2838419833769876
 20
39.0200482657739087
 30
0.0
 40
0.7362822245025552
 50
242.9727363962643949
 51
249.0300093534245036
  0
ARC
  5
10D7D
  8
0
 10
3774.0615975460218579
 20
38.4401741016508822
 30
0.0
 40
0.1152776865541049
 50
249.0300093534243899
 51
287.2722945499971274
  0
ARC
  5
10D7E
  8
0
 10
3772.2286020259789439
 20
37.7173971329304223
 30
0.0
 40
2.0517153635826961
 50
23.0057298813326305
 51
26.8677880049917484
  0
ARC
  5
10D7F
  8
0
 10
3773.7300711687889816
 20
38.3549101884905213
 30
0.0
 40
0.4205095265351495
 50
9.9531839291250108
 51
23.0057298813326305
  0
ARC
  5
10D80
  8
0
 10
3774.0434848401778254
 20
38.4099094621431121
 30
0.0
 40
0.1023066831849643
 50
332.6060685730752198
 51
9.9531839291250108
  0
ARC
  5
10D81
  8
0
 10
3774.0749995798519194
 20
38.3935780072607002
 30
0.0
 40
0.0668116802224068
 50
288.1619160986667225
 51
332.6060685730752198
  0
ARC
  5
10D82
  8
0
 10
3777.8886497522639729
 20
39.7069663270682014
 30
0.0
 40
2.391946842430678
 50
172.2732726379441033
 51
175.7340230307096078
  0
ARC
  5
10D83
  8
0
 10
3776.3993082768729437
 20
39.9090406886912632
 30
0.0
 40
0.8889591252666869
 50
164.0222140173009109
 51
172.2732726379441033
  0
ARC
  5
10D84
  8
0
 10
3775.774477766201926
 20
40.0879458133759172
 30
0.0
 40
0.2390205045461164
 50
136.5936220702097046
 51
164.0222140173009109
  0
ARC
  5
10D85
  8
0
 10
3775.6894870359778906
 20
40.1540464013114189
 30
0.0
 40
0.1322606842548847
 50
98.9295433190062568
 51
132.0919133581273002
  0
ARC
  5
10D86
  8
0
 10
3775.6893693668721426
 20
40.1525758713823535
 30
0.0
 40
0.133695570572516
 50
66.3884462961886044
 51
98.7819070140681532
  0
ARC
  5
10D87
  8
0
 10
3775.7087320261121022
 20
40.1772234130506121
 30
0.0
 40
0.1036552289764546
 50
37.1557075855756977
 51
70.7425187033437055
  0
ARC
  5
10D88
  8
0
 10
3775.3782624852119625
 20
39.9267857985658665
 30
0.0
 40
0.5182985892410095
 50
17.8427144585046804
 51
37.1557075855758612
  0
ARC
  5
10D89
  8
0
 10
3772.2809130472628567
 20
38.9297879499199695
 30
0.0
 40
3.7721544943121441
 50
10.2553336364675207
 51
17.8427144585046804
  0
ARC
  5
10D8A
  8
0
 10
3779.0955455768548745
 20
40.1627293783963708
 30
0.0
 40
3.1531152534603231
 50
190.2553336364674976
 51
196.5771854862842076
  0
LINE
  5
10D8B
  8
0
 10
3776.5232491646152084
 20
39.3331747455680087
 30
0.0
 11
3776.0535109102611386
 21
39.3331747455680087
 31
0.0
  0
ARC
  5
10D8C
  8
0
 10
3776.0374254946091241
 20
36.6489582806813132
 30
0.0
 40
3.2748304851204351
 50
89.6450566800621402
 51
92.0493189380048875
  0
LINE
  5
10D8D
  8
0
 10
3776.0577127091260081
 20
39.9237259266680127
 30
0.0
 11
3776.4020759714521773
 21
39.9237259266680127
 31
0.0
  0
LINE
  5
10D8E
  8
0
 10
3776.5684929719659522
 20
39.9223389615680233
 30
0.0
 11
3777.0444609298860996
 21
39.9226147618471217
 31
0.0
  0
LINE
  5
10D8F
  8
0
 10
3777.2083354577630416
 20
39.9227097191646791
 30
0.0
 11
3777.6832607422911678
 21
39.9229849152652818
 31
0.0
  0
LINE
  5
10D90
  8
0
 10
3777.8491518225550863
 20
39.9230810410768413
 30
0.0
 11
3778.3208639004988072
 21
39.9233543752805318
 31
0.0
  0
LINE
  5
10D91
  8
0
 10
3778.4887709983249806
 20
39.9234516692761972
 30
0.0
 11
3778.9620762870158615
 21
39.9237259266680127
 31
0.0
  0
LINE
  5
10D92
  8
0
 10
3779.0792160987539319
 20
39.3329648570599772
 30
0.0
 11
3778.6115646801367802
 21
39.333005960077557
 31
0.0
  0
LINE
  5
10D93
  8
0
 10
3778.4433774552699106
 20
39.3330207424607181
 30
0.0
 11
3777.9732333488809672
 21
39.3330620645666613
 31
0.0
  0
LINE
  5
10D94
  8
0
 10
3777.8034732710571006
 20
39.3330769851916884
 30
0.0
 11
3777.3315848219690452
 21
39.3331184606121411
 31
0.0
  0
LINE
  5
10D95
  8
0
 10
3777.1650047562361578
 20
39.3331331017381984
 30
0.0
 11
3776.6912002220860813
 21
39.3331747455680087
 31
0.0
  0
ARC
  5
10D96
  8
0
 10
3775.6050349186748463
 20
39.449280843384777
 30
0.0
 40
0.6260059027247294
 50
329.0827183708516941
 51
349.3113914181828932
  0
ARC
  5
10D97
  8
0
 10
3776.0698835209282151
 20
39.1708842306650382
 30
0.0
 40
0.0841674609443813
 50
299.1883302951744099
 51
329.0827183708511825
  0
ARC
  5
10D98
  8
0
 10
3777.4698154827651706
 20
39.7487236507604322
 30
0.0
 40
1.625096864233843
 50
194.9331964456654873
 51
200.6612769917468881
  0
ARC
  5
10D99
  8
0
 10
3776.1629205089689094
 20
39.2558983070493213
 30
0.0
 40
0.2283680817083783
 50
200.6612769917470018
 51
219.1348695231789065
  0
ARC
  5
10D9A
  8
0
 10
3776.0557098830481664
 20
39.1686622019001831
 30
0.0
 40
0.0901499340140188
 50
219.1348695231785086
 51
307.7735022922980761
  0
ARC
  5
10D9B
  8
0
 10
3777.6986646265550007
 20
39.6421446079115185
 30
0.0
 40
2.0366391304092089
 50
168.9062584402344953
 51
172.5498230742076942
  0
ARC
  5
10D9C
  8
0
 10
3774.7773672449729929
 20
39.6385535225013825
 30
0.0
 40
1.004106055461194
 50
15.7952075759378001
 51
23.1910985814431285
  0
ARC
  5
10D9D
  8
0
 10
3762.6440666879170749
 20
36.0886540105087832
 30
0.0
 40
13.6460625082057998
 50
13.7405577360262292
 51
16.2703666382581211
  0
ARC
  5
10D9E
  8
0
 10
3778.2500000770000952
 20
39.5163792143211268
 30
0.0
 40
2.114108135753439
 50
162.04452822148221
 51
168.8907627323420115
  0
ARC
  5
10D9F
  8
0
 10
3776.5277959883928816
 20
40.0744778794015488
 30
0.0
 40
0.3037321961281468
 50
142.1793424470089064
 51
162.0445282214826079
  0
ARC
  5
10DA0
  8
0
 10
3776.3713395639388182
 20
40.1959282968544471
 30
0.0
 40
0.1056695377276895
 50
60.1914513879653086
 51
142.1793424470089064
  0
ARC
  5
10DA1
  8
0
 10
3776.3614107480848361
 20
40.1785976034661303
 30
0.0
 40
0.1256428778988212
 50
28.6953980980563088
 51
60.1914513879654223
  0
ARC
  5
10DA2
  8
0
 10
3775.9661653781968198
 20
39.9622483431355278
 30
0.0
 40
0.5762268377365497
 50
16.1435953048028082
 51
28.6953980980563088
  0
ARC
  5
10DA3
  8
0
 10
3774.1675605440591426
 20
39.4426299087124477
 30
0.0
 40
2.4483866726402619
 50
11.2989768241839492
 51
16.1210033627455189
  0
ARC
  5
10DA4
  8
0
 10
3893.3590755572108719
 20
63.9393533582319122
 30
0.0
 40
119.2344629758140968
 50
191.6204058743288101
 51
191.9095926671776908
  0
ARC
  5
10DA5
  8
0
 10
3776.4857445954189643
 20
39.4292518468370403
 30
0.0
 40
0.2881094120079568
 50
323.0933047534184084
 51
340.5202088653820169
  0
ARC
  5
10DA6
  8
0
 10
3777.3847979647448483
 20
39.5153365017579929
 30
0.0
 40
0.717119748744381
 50
194.7154405123546894
 51
201.1803059597370975
  0
ARC
  5
10DA7
  8
0
 10
3776.2199917538318914
 20
39.4550999883100815
 30
0.0
 40
0.6517515849055804
 50
330.752047151089414
 51
349.2166429766397187
  0
ARC
  5
10DA8
  8
0
 10
3776.6891373175999433
 20
39.1923878676944
 30
0.0
 40
0.1140572309064052
 50
295.5706666971678942
 51
330.7520471510903235
  0
ARC
  5
10DA9
  8
0
 10
3776.6920074711779307
 20
39.18638951612337
 30
0.0
 40
0.1074075690259664
 50
239.941635953006795
 51
295.5706666971677805
  0
ARC
  5
10DAA
  8
0
 10
3780.9361286925450258
 20
38.913453527545478
 30
0.0
 40
4.704494957101196
 50
166.0086187257010977
 51
167.5993623497114982
  0
ARC
  5
10DAB
  8
0
 10
3774.1068177530669345
 20
39.4336231430667326
 30
0.0
 40
2.3470129768122661
 50
12.0531985597292497
 51
15.2481372485090692
  0
ARC
  5
10DAC
  8
0
 10
3762.3711254872227983
 20
36.9277337158121313
 30
0.0
 40
14.3472610900893205
 50
10.3956572455422105
 51
12.0531985597292497
  0
ARC
  5
10DAD
  8
0
 10
3779.1093012585679389
 20
39.9984524425380812
 30
0.0
 40
2.670254640801089
 50
190.3956572455419973
 51
194.4268593169529993
  0
ARC
  5
10DAE
  8
0
 10
3778.1579158885888319
 20
39.7537027449777014
 30
0.0
 40
1.687891909085047
 50
194.4268593169529993
 51
199.1933854040761105
  0
ARC
  5
10DAF
  8
0
 10
3776.8209741874788961
 20
39.2883034418719674
 30
0.0
 40
0.2722614405315641
 50
199.1933854040757126
 51
213.8962093303306915
  0
ARC
  5
10DB0
  8
0
 10
3776.725008228238039
 20
39.2238262090398422
 30
0.0
 40
0.1566466539046732
 50
213.8962093303308905
 51
236.3506573772627064
  0
ARC
  5
10DB1
  8
0
 10
3780.0085933060659045
 20
39.2350349693637668
 30
0.0
 40
3.2672585902038072
 50
163.9763172589767919
 51
167.8539309189505957
  0
ARC
  5
10DB2
  8
0
 10
3777.2691977355329982
 20
40.0217695625843106
 30
0.0
 40
0.4171288717472457
 50
145.7605455997959893
 51
163.9763172589769908
  0
ARC
  5
10DB3
  8
0
 10
3777.0090506078540784
 20
40.1988273669479526
 30
0.0
 40
0.1024449126298158
 50
103.8525911645448048
 51
145.7605455997955914
  0
ARC
  5
10DB4
  8
0
 10
3777.0105894385387728
 20
40.1925871028338904
 30
0.0
 40
0.108872112338391
 50
58.4303033880827201
 51
103.8525911645448048
  0
ARC
  5
10DB5
  8
0
 10
3777.0016235373868767
 20
40.1779959524169712
 30
0.0
 40
0.1259977963824526
 50
27.0515323045183216
 51
58.4303033880827201
  0
ARC
  5
10DB6
  8
0
 10
3776.4761272123109848
 20
39.909646588357667
 30
0.0
 40
0.7160467510125134
 50
14.2216934013036997
 51
27.0515323045183216
  0
ARC
  5
10DB7
  8
0
 10
3772.7535489171250447
 20
38.9661896316241325
 30
0.0
 40
4.5563202039045336
 50
11.8486069721354408
 51
14.2216934013036997
  0
ARC
  5
10DB8
  8
0
 10
3759.8248248774980311
 20
36.2537896328665994
 30
0.0
 40
17.766506389046409
 50
10.5075143607324595
 51
11.8486069721354408
  0
ARC
  5
10DB9
  8
0
 10
3778.9196085909497924
 20
39.7953889834457826
 30
0.0
 40
1.653938791832583
 50
190.5075143607321877
 51
198.9609669605196984
  0
ARC
  5
10DBA
  8
0
 10
3777.134542568282086
 20
39.4307178728539611
 30
0.0
 40
0.280392906130609
 50
321.9724850664211999
 51
339.6287605231627253
  0
ARC
  5
10DBB
  8
0
 10
3776.852964689755936
 20
39.4577972725910797
 30
0.0
 40
0.659160772531112
 50
330.8001914532616752
 51
349.1019271708302085
  0
ARC
  5
10DBC
  8
0
 10
3777.3290756342062195
 20
39.1917099475016428
 30
0.0
 40
0.1137397461696806
 50
287.0311995125554745
 51
330.8001914532621868
  0
ARC
  5
10DBD
  8
0
 10
3777.3319718551688311
 20
39.1822552523477867
 30
0.0
 40
0.1038514017015731
 50
234.4405666480298862
 51
287.0311995125305202
  0
ARC
  5
10DBE
  8
0
 10
3791.8571817256479335
 20
36.3463534095973486
 30
0.0
 40
15.3003189174367797
 50
166.0121268997058905
 51
166.482916156364297
  0
ARC
  5
10DBF
  8
0
 10
3775.4840518827918459
 20
39.5550962245758981
 30
0.0
 40
1.603105196014927
 50
8.2601277121494068
 51
17.7825587472768589
  0
ARC
  5
10DC0
  8
0
 10
3784.212583188661938
 20
41.0413406627424493
 30
0.0
 40
7.2516435952596394
 50
189.9734895480119121
 51
194.2245829030358095
  0
ARC
  5
10DC1
  8
0
 10
3777.7837011830019947
 20
39.4309087318612725
 30
0.0
 40
0.6244295565410127
 50
195.9379447388951974
 51
205.4670524401877003
  0
ARC
  5
10DC2
  8
0
 10
3777.3840970323731199
 20
39.2405893201257001
 30
0.0
 40
0.1818180387478758
 50
205.4670524401873877
 51
231.7671667520131962
  0
ARC
  5
10DC3
  8
0
 10
3779.1198493459528436
 20
39.6185002309319714
 30
0.0
 40
1.69235906191576
 50
160.5826847584108918
 51
169.6396073560850937
  0
ARC
  5
10DC4
  8
0
 10
3777.7760590787602268
 20
40.092180000855592
 30
0.0
 40
0.2675275607772472
 50
139.4968782986616986
 51
160.5826847584108918
  0
ARC
  5
10DC5
  8
0
 10
3777.6510805722700752
 20
40.1988418267417984
 30
0.0
 40
0.1032218713107849
 50
90.062357631834729
 51
139.4581838386594939
  0
ARC
  5
10DC6
  8
0
 10
3777.6506574070699571
 20
40.1971389748034795
 30
0.0
 40
0.1049251225008055
 50
59.3799658310496383
 51
89.8302700494977273
  0
ARC
  5
10DC7
  8
0
 10
3777.6340038036169062
 20
40.1692745552095616
 30
0.0
 40
0.1373866942348827
 50
24.809596927348359
 51
59.3220129745667109
  0
ARC
  5
10DC8
  8
0
 10
3776.9376943934707924
 20
39.8473928958237735
 30
0.0
 40
0.90449463794742
 50
16.0181166193504794
 51
24.8095969273485402
  0
ARC
  5
10DC9
  8
0
 10
3775.7665685269030291
 20
39.511177169895511
 30
0.0
 40
2.122926749190321
 50
10.0679919097283701
 51
16.0181166193504794
  0
ARC
  5
10DCA
  8
0
 10
3788.1646757549888207
 20
41.7124712182342421
 30
0.0
 40
10.4690849378427302
 50
190.0679919097281072
 51
192.2438270513951863
  0
ARC
  5
10DCB
  8
0
 10
3780.6443155878209836
 20
40.0804893724299305
 30
0.0
 40
2.7736848969767358
 50
192.2438270513951863
 51
197.2420002954854112
  0
ARC
  5
10DCC
  8
0
 10
3777.8234338581628435
 20
39.4044039271191622
 30
0.0
 40
0.2255275382534125
 50
319.6371189744883168
 51
341.5571695855617804
  0
ARC
  5
10DCD
  8
0
 10
3780.5359803899000326
 20
39.2816229714740928
 30
0.0
 40
2.9845174724689958
 50
165.1038205423053
 51
167.5912599837836012
  0
ARC
  5
10DCE
  8
0
 10
3774.3639904390461197
 20
39.1591936820248208
 30
0.0
 40
3.4060141505840571
 50
9.3310107693148439
 51
15.1413353255809202
  0
ARC
  5
10DCF
  8
0
 10
3782.3089377377259552
 20
40.4646445250963112
 30
0.0
 40
4.6454695314756327
 50
189.3310107693145881
 51
193.7654825846570077
  0
ARC
  5
10DD0
  8
0
 10
3780.0481860394520481
 20
39.9107945767844399
 30
0.0
 40
2.317863893379795
 50
193.7654825846570077
 51
197.0431328352192963
  0
ARC
  5
10DD1
  8
0
 10
3778.2376686796869762
 20
39.3557731526252468
 30
0.0
 40
0.424184434947936
 50
197.0431328352192963
 51
209.7590954800427028
  0
ARC
  5
10DD2
  8
0
 10
3777.999696125238188
 20
39.2197105099680527
 30
0.0
 40
0.1500604130204671
 50
209.759095480041907
 51
240.1837106679085991
  0
ARC
  5
10DD3
  8
0
 10
3777.9716140792488659
 20
39.1790209932362572
 30
0.0
 40
0.1008789330087938
 50
242.5317662066534865
 51
291.3010076369430976
  0
ARC
  5
10DD4
  8
0
 10
3777.9517310118180831
 20
39.2141222334012625
 30
0.0
 40
0.1409234223571849
 50
293.6490631756939251
 51
335.1853709783578097
  0
ARC
  5
10DD5
  8
0
 10
3777.0692795766231029
 20
39.5848066755534376
 30
0.0
 40
1.1001196268261211
 50
338.9786050790016247
 51
346.770789423755275
  0
ARC
  5
10DD6
  8
0
 10
3777.7524457669919684
 20
39.3302181440501428
 30
0.0
 40
0.3711695306761551
 50
331.8275398945539223
 51
337.8334108191609175
  0
ARC
  5
10DD7
  8
0
 10
3780.5758263521411209
 20
39.4186062504350829
 30
0.0
 40
2.531420462289065
 50
163.3523629229750895
 51
168.5015405678574893
  0
ARC
  5
10DD8
  8
0
 10
3778.5584548119318242
 20
40.0218376337136874
 30
0.0
 40
0.425790857392263
 50
148.4209731789476905
 51
163.3523629229750895
  0
ARC
  5
10DD9
  8
0
 10
3778.3023783025328157
 20
40.1792477681909332
 30
0.0
 40
0.1252028850747799
 50
115.2088133831774002
 51
148.4209731789476905
  0
ARC
  5
10DDA
  8
0
 10
3778.2918097298029352
 20
40.2016981639938891
 30
0.0
 40
0.1003892799101091
 50
62.9474413322088608
 51
115.2088133831772012
  0
ARC
  5
10DDB
  8
0
 10
3778.2769424015727964
 20
40.1725854405229583
 30
0.0
 40
0.1330785459859326
 50
25.3360997931366008
 51
62.9474413322086619
  0
ARC
  5
10DDC
  8
0
 10
3777.6200569072470898
 20
39.861570583400237
 30
0.0
 40
0.8598720476128727
 50
14.7892775213818197
 51
25.3360997931364089
  0
ARC
  5
10DDD
  8
0
 10
3775.3888745978329098
 20
39.2725134641851028
 30
0.0
 40
3.1675034712894421
 50
10.4857672608669006
 51
14.7892775213820205
  0
ARC
  5
10DDE
  8
0
 10
3793.0003295664910183
 20
42.5320788092121376
 30
0.0
 40
14.7430552121114893
 50
190.4857672608669077
 51
192.1651649643523001
  0
ARC
  5
10DDF
  8
0
 10
3779.9456898877078856
 20
39.7178727751451035
 30
0.0
 40
1.3885289103285781
 50
192.1651649643523001
 51
199.45145943617581
  0
ARC
  5
10DE0
  8
0
 10
3778.3562245387502117
 20
39.4530471010331496
 30
0.0
 40
0.3428376372230546
 50
324.8116438665580858
 51
339.503095127806489
  0
ARC
  5
10DE1
  8
0
 10
3777.5686146037678554
 20
39.628501385225853
 30
0.0
 40
1.2470728068678649
 50
339.3580837692799719
 51
346.2926306154486724
  0
ARC
  5
10DE2
  8
0
 10
3778.5130966087349407
 20
39.2727051406760523
 30
0.0
 40
0.2377972125215049
 50
316.2862408430798951
 51
339.358083769279915
  0
ARC
  5
10DE3
  8
0
 10
3778.6131226953480109
 20
39.1770721692128632
 30
0.0
 40
0.0994104962736107
 50
251.6774165464103135
 51
316.2862408430801224
  0
ARC
  5
10DE4
  8
0
 10
3781.0208876419251283
 20
39.3213425652240716
 30
0.0
 40
2.824469965432435
 50
165.0720153521691884
 51
167.6941995244285124
  0
ARC
  5
10DE5
  8
0
 10
3769.9434636437858899
 20
38.0469221194833906
 30
0.0
 40
8.5849771736307634
 50
10.2300000187547706
 51
13.4855473740680196
  0
ARC
  5
10DE6
  8
0
 10
3781.95674849261286
 20
40.214947628621033
 30
0.0
 40
3.6223709195180458
 50
190.2300000187547084
 51
194.6994766679306963
  0
ARC
  5
10DE7
  8
0
 10
3779.3329967422459958
 20
39.5266448567692308
 30
0.0
 40
0.9098381633485259
 50
194.6994766679306963
 51
202.6901638761285085
  0
ARC
  5
10DE8
  8
0
 10
3778.6930614291841266
 20
39.2590831902567814
 30
0.0
 40
0.2162197882377978
 50
202.6901638761285085
 51
221.6723185397426903
  0
ARC
  5
10DE9
  8
0
 10
3778.6160535403500944
 20
39.1905383745837881
 30
0.0
 40
0.1131246540256071
 50
221.672318539742605
 51
252.4123797956746955
  0
ARC
  5
10DEA
  8
0
 10
3781.2276150471698202
 20
39.4093803715073534
 30
0.0
 40
2.544865985792752
 50
162.8739438704197937
 51
168.3425864769261011
  0
ARC
  5
10DEB
  8
0
 10
3779.1247545304859159
 20
40.0573516994140988
 30
0.0
 40
0.3444366653150496
 50
146.6436212398095904
 51
162.8739438704199927
  0
ARC
  5
10DEC
  8
0
 10
3778.9458662706679206
 20
40.1751114635370712
 30
0.0
 40
0.130267639667151
 50
115.1668374610717933
 51
146.6436212398093915
  0
ARC
  5
10DED
  8
0
 10
3778.9319298008508667
 20
40.2012410230403177
 30
0.0
 40
0.1007031101134773
 50
64.1539793107295537
 51
114.3123523243958033
  0
ARC
  5
10DEE
  8
0
 10
3778.9177170310581459
 20
40.1763250036779525
 30
0.0
 40
0.1293372509472347
 50
37.0843957681537333
 51
63.2994941740645203
  0
ARC
  5
10DEF
  8
0
 10
3778.7739793386122074
 20
40.0676785651947185
 30
0.0
 40
0.3095165306242622
 50
21.5546481352543786
 51
37.0843957681538896
  0
ARC
  5
10DF0
  8
0
 10
3777.8223553097900549
 20
39.6917750117906323
 30
0.0
 40
1.332693824006882
 50
8.5668616115203449
 51
21.5546481352543786
  0
ARC
  5
10DF1
  8
0
 10
3811.3868013250471449
 20
44.748065133956338
 30
0.0
 40
32.610466107128353
 50
188.5668616115202951
 51
189.5759045771426088
  0
ARC
  5
10DF2
  8
0
 10
3779.9550729890879666
 20
39.44538183818986
 30
0.0
 40
0.7345818633818489
 50
189.5759045771424098
 51
195.4704923252375863
  0
ARC
  5
10DF3
  8
0
 10
3778.9751015648621433
 20
39.4529806553007774
 30
0.0
 40
0.3397297917051695
 50
323.1923039350489262
 51
337.5948578003217904
  0
ARC
  5
10DF4
  8
0
 10
3781.6015084808318534
 20
39.3355437322424706
 30
0.0
 40
2.7634356734915042
 50
165.0395784398467072
 51
167.7108981539253136
  0
ARC
  5
10DF5
  8
0
 10
3776.8641013720289266
 20
39.4818115628237507
 30
0.0
 40
2.1440119050238211
 50
11.8948147430983209
 51
15.3380392355669706
  0
ARC
  5
10DF6
  8
0
 10
3754.1088007812550131
 20
34.6886683689631568
 30
0.0
 40
25.3986442747979098
 50
10.5361626907406407
 51
11.8948147430983209
  0
ARC
  5
10DF7
  8
0
 10
3780.2561106055518394
 20
39.5518577731483134
 30
0.0
 40
1.1970776035185331
 50
190.5361626907404116
 51
197.3418665882952041
  0
ARC
  5
10DF8
  8
0
 10
3779.4708035379057947
 20
39.3066322164395388
 30
0.0
 40
0.3743730610749716
 50
197.3418665882952041
 51
210.646724573057611
  0
ARC
  5
10DF9
  8
0
 10
3779.2253440832350861
 20
39.1611975871562521
 30
0.0
 40
0.0890634480539146
 50
210.6467245730570141
 51
259.8678840716636955
  0
ARC
  5
10DFA
  8
0
 10
3779.2190600369967797
 20
39.1481963691915027
 30
0.0
 40
0.0752605666331819
 50
262.8374332959097046
 51
302.5637193099652222
  0
ARC
  5
10DFB
  8
0
 10
3779.1031518771378614
 20
39.276191989210453
 30
0.0
 40
0.2472032635003216
 50
309.2528063178136222
 51
341.6204200213521744
  0
ARC
  5
10DFC
  8
0
 10
3777.6731776508750045
 20
39.8831857553692188
 30
0.0
 40
1.79997958092898
 50
337.6337110659961809
 51
341.6028234256717155
  0
ARC
  5
10DFD
  8
0
 10
3779.0432364489161046
 20
36.1284504571663732
 30
0.0
 40
3.7952703730016548
 50
81.0015578439847417
 51
88.615981386834946
  0
ARC
  5
10DFE
  8
0
 10
3778.8640760301577757
 20
34.9970770002001217
 30
0.0
 40
4.940741609994169
 50
80.9975070516397153
 51
81.0015578439847417
  0
ARC
  5
10DFF
  8
0
 10
3779.2389895406681717
 20
36.9167375298992297
 30
0.0
 40
2.9848130096491179
 50
69.2304814607969945
 51
78.949123344017508
  0
ARC
  5
10E00
  8
0
 10
3779.3013845034420228
 20
36.6937001102381473
 30
0.0
 40
3.1742069015709968
 50
63.3682988495292676
 51
68.5057874163598228
  0
ARC
  5
10E01
  8
0
 10
3779.3013845034420228
 20
36.6937001102381473
 30
0.0
 40
3.1742069015709968
 50
71.7086923944868602
 51
71.7119521363103871
  0
ARC
  5
10E02
  8
0
 10
3779.0432364489161046
 20
36.1284504571679221
 30
0.0
 40
3.7952703730001192
 50
54.3905754888650605
 51
57.7056792032109911
  0
ARC
  5
10E03
  8
0
 10
3779.0432364489161046
 20
36.1284504571679221
 30
0.0
 40
3.7952703730001192
 50
60.3843886816715383
 51
63.7097123840177986
  0
ARC
  5
10E04
  8
0
 10
3779.0432364489161046
 20
36.1284504571678511
 30
0.0
 40
3.7952703730002031
 50
39.7451761394377101
 51
47.3988834590148329
  0
ARC
  5
10E05
  8
0
 10
3779.0432364489161046
 20
36.1284504571678511
 30
0.0
 40
3.7952703730002031
 50
50.0678571957541791
 51
54.3905754888649469
  0
ARC
  5
10E06
  8
0
 10
3779.0432364489161046
 20
36.1284504571679932
 30
0.0
 40
3.795270373000065
 50
19.0239893400033893
 51
26.7031217698870691
  0
ARC
  5
10E07
  8
0
 10
3779.0432364489161046
 20
36.1284504571679932
 30
0.0
 40
3.795270373000065
 50
29.3966479709485711
 51
37.0590802834466899
  0
ARC
  5
10E08
  8
0
 10
3779.0432364489161046
 20
36.1284504571679932
 30
0.0
 40
3.795270373000065
 50
39.7399993050609126
 51
39.7451761394370777
  0
ARC
  5
10E09
  8
0
 10
3779.0766824050028845
 20
36.138021844006623
 30
0.0
 40
3.7605316913265621
 50
5.8197078588615332
 51
5.8240808137134046
  0
ARC
  5
10E0A
  8
0
 10
3779.0766824050028845
 20
36.138021844006623
 30
0.0
 40
3.7605316913265621
 50
8.5594753614610362
 51
16.3410964260821814
  0
ARC
  5
10E0B
  8
0
 10
3779.0766824050028845
 20
36.138021844006623
 30
0.0
 40
3.7605316913265621
 50
19.0475238188315714
 51
19.0522303283573393
  0
ARC
  5
10E0C
  8
0
 10
3779.19952194378493
 20
36.1314744389021385
 30
0.0
 40
3.639038619815381
 50
359.9121177859504996
 51
6.1183778670872053
  0
ARC
  5
10E0D
  8
0
 10
3779.0523640993060326
 20
36.130604513547091
 30
0.0
 40
3.1953717108365818
 50
0.824858358571616
 51
4.0938426040570404
  0
ARC
  5
10E0E
  8
0
 10
3779.0523640993060326
 20
36.130604513547091
 30
0.0
 40
3.1953717108365818
 50
6.8093923301749291
 51
14.5278080442953694
  0
ARC
  5
10E0F
  8
0
 10
3779.0523640993060326
 20
36.130604513547091
 30
0.0
 40
3.1953717108365818
 50
17.2334744184840609
 51
18.144836478362901
  0
ARC
  5
10E10
  8
0
 10
3779.0369777064570371
 20
36.1255621349240812
 30
0.0
 40
3.2115632724373211
 50
18.144836478362901
 51
24.8914667661296782
  0
ARC
  5
10E11
  8
0
 10
3779.0369777064570371
 20
36.1255621349240812
 30
0.0
 40
3.2115632724373211
 50
27.601173262234731
 51
31.4004919622805794
  0
ARC
  5
10E12
  8
0
 10
3779.046926830098073
 20
36.1316352231884821
 30
0.0
 40
3.1999070525399129
 50
31.4004919622805794
 51
35.2225880504867206
  0
ARC
  5
10E13
  8
0
 10
3779.046926830098073
 20
36.1316352231884821
 30
0.0
 40
3.1999070525399129
 50
37.9256721442409415
 51
45.5549809629314097
  0
ARC
  5
10E14
  8
0
 10
3779.046926830098073
 20
36.1316352231884821
 30
0.0
 40
3.1999070525399129
 50
48.2472335313185212
 51
50.1873081164647772
  0
ARC
  5
10E15
  8
0
 10
3779.0409903399699942
 20
36.1245132349848035
 30
0.0
 40
3.2091787638713529
 50
50.1873081164647772
 51
55.8118516742912902
  0
ARC
  5
10E16
  8
0
 10
3779.0409903399699942
 20
36.1245132349848035
 30
0.0
 40
3.2091787638713529
 50
58.5250382239097888
 51
66.1036079859460131
  0
ARC
  5
10E17
  8
0
 10
3779.0409903399699942
 20
36.1245132349848035
 30
0.0
 40
3.2091787638713529
 50
68.7978414534387923
 51
70.404851100907905
  0
ARC
  5
10E18
  8
0
 10
3779.0443536333259544
 20
36.1339609912378492
 30
0.0
 40
3.1991502126094669
 50
70.404851100907905
 51
76.3948083550230024
  0
ARC
  5
10E19
  8
0
 10
3779.0443536333259544
 20
36.1339609912378492
 30
0.0
 40
3.1991502126094669
 50
79.0721563169594361
 51
86.6739637500144369
  0
ARC
  5
10E1A
  8
0
 10
3781.2261794361797911
 20
39.3206447656946523
 30
0.0
 40
1.9209557836341491
 50
155.9343404325067013
 51
162.2210279522043095
  0
ARC
  5
10E1B
  8
0
 10
3779.8765441514360646
 20
39.9233952952504367
 30
0.0
 40
0.442840902203696
 50
140.0662182160976954
 51
155.9343404325067013
  0
ARC
  5
10E1C
  8
0
 10
3779.6420844560329897
 20
40.1196690276261805
 30
0.0
 40
0.1370718279193745
 50
90.203900364637704
 51
140.0662182160978091
  0
ARC
  5
10E1D
  8
0
 10
3779.6420669602730413
 20
40.1245852964317393
 30
0.0
 40
0.1321555279824207
 50
58.6287675757453073
 51
90.203900364637704
  0
ARC
  5
10E1E
  8
0
 10
3779.637044349478856
 20
40.1163476413436513
 30
0.0
 40
0.141803614867178
 50
20.4081623003542809
 51
58.628767575745087
  0
ARC
  5
10E1F
  8
0
 10
3779.2835568079958648
 20
39.9848294777455777
 30
0.0
 40
0.5189646803816933
 50
8.3537105668885996
 51
20.4081623003542809
  0
ARC
  5
10E20
  8
0
 10
3777.9912126965118659
 20
39.832288286222969
 30
0.0
 40
1.8201315565772
 50
359.8618933653748968
 51
7.194141264451904
  0
ARC
  5
10E21
  8
0
 10
3763.4837463724779809
 20
39.9695279395354603
 30
0.0
 40
16.3282068234495803
 50
357.618530774117005
 51
359.503024014965888
  0
ARC
  5
10E22
  8
0
 10
3780.9101436385658417
 20
39.2447914147483914
 30
0.0
 40
1.1132542594377941
 50
177.6185307741172039
 51
184.297313881937896
  0
ARC
  5
10E23
  8
0
 10
3779.5451719211891941
 20
39.4330722021221902
 30
0.0
 40
0.3725151227950014
 50
313.1668953447094736
 51
326.6605383435002068
  0
ARC
  5
10E24
  8
0
 10
3778.815275236492198
 20
39.8194154062597008
 30
0.0
 40
1.2865753848013961
 50
322.6627713237049875
 51
331.4093272352678241
  0
ARC
  5
10E25
  8
0
 10
3779.7374600838479637
 20
39.1159514051853492
 30
0.0
 40
0.126710524784831
 50
297.8491200594810948
 51
322.6627713237052149
  0
ARC
  5
10E26
  8
0
 10
3779.7551976388381263
 20
39.0666204219054194
 30
0.0
 40
0.0751683468168495
 50
223.7540715784955978
 51
303.4693111705813067
  0
ARC
  5
10E27
  8
0
 10
3780.8869736493002165
 20
39.3803297474433833
 30
0.0
 40
1.408069286465329
 50
153.4401918415848911
 51
158.9293086483102968
  0
ARC
  5
10E28
  8
0
 10
3774.3927013286011061
 20
39.561594898080962
 30
0.0
 40
5.2539623876142301
 50
0.7076162579614886
 51
4.8950753617871072
  0
ARC
  5
10E29
  8
0
 10
4057.7462033475558201
 20
43.0612547571402615
 30
0.0
 40
278.1211507143220274
 50
180.707616257961206
 51
180.7883979453530969
  0
ARC
  5
10E2A
  8
0
 10
3780.5344192785478299
 20
39.2465410449484082
 30
0.0
 40
0.8831207338942006
 50
180.7883979453528127
 51
187.5051786886272964
  0
ARC
  5
10E2B
  8
0
 10
3780.0633888616148397
 20
39.1844854015294075
 30
0.0
 40
0.4080201586937614
 50
187.5051786886272964
 51
199.4713293915208965
  0
ARC
  5
10E2C
  8
0
 10
3779.7834190749731533
 20
39.0929652196753779
 30
0.0
 40
0.1137732775893607
 50
203.0177851947061072
 51
223.5084658315668946
  0
ARC
  5
10E2D
  8
0
 10
3781.6596316282962107
 20
38.9306508244652392
 30
0.0
 40
1.805410063227977
 50
144.9456532737245027
 51
151.7948238472889102
  0
ARC
  5
10E2E
  8
0
 10
3780.5183793892811082
 20
39.7313785741528633
 30
0.0
 40
0.4112717622783685
 50
128.6165551806082021
 51
144.9456532737243037
  0
ARC
  5
10E2F
  8
0
 10
3780.3456919995228418
 20
39.9475721826033805
 30
0.0
 40
0.1345758806383686
 50
96.2893437392668261
 51
128.6165551806082021
  0
ARC
  5
10E30
  8
0
 10
3780.3460526341009427
 20
39.944300015928377
 30
0.0
 40
0.1378678605971097
 50
60.1123037878289921
 51
96.2893437392927041
  0
ARC
  5
10E31
  8
0
 10
3780.3513725712141422
 20
39.9535562692524877
 30
0.0
 40
0.1271917210104544
 50
27.4632314624037406
 51
60.1123037878288784
  0
ARC
  5
10E32
  8
0
 10
3780.2815121819508022
 20
39.9172462140243525
 30
0.0
 40
0.2059247769562607
 50
1.360280241249896
 51
27.4632314624039218
  0
ARC
  5
10E33
  8
0
 10
3779.2622780037440862
 20
39.8930436518933504
 30
0.0
 40
1.2254462696378829
 50
355.2797242357261212
 51
1.360280241249896
  0
ARC
  5
10E34
  8
0
 10
3778.9877342191462049
 20
39.9157130745317801
 30
0.0
 40
1.500924385618156
 50
347.9324774367452733
 51
355.2797242357261212
  0
ARC
  5
10E35
  8
0
 10
4059.3310241751978538
 20
-20.01848822130572
 30
0.0
 40
285.1774122712586745
 50
167.9324774367453017
 51
168.0307472262987858
  0
ARC
  5
10E36
  8
0
 10
3782.3474090185518435
 20
38.7008581545748314
 30
0.0
 40
2.0380743048489451
 50
168.0307472262987005
 51
172.2908573511572001
  0
ARC
  5
10E37
  8
0
 10
3780.1027887371978977
 20
39.3148634545212019
 30
0.0
 40
0.40819671762239
 50
303.444070406519927
 51
316.2818067787280825
  0
ARC
  5
10E38
  8
0
 10
3779.7296196691168007
 20
39.5704015733934824
 30
0.0
 40
0.9474695928183612
 50
309.4147324972237243
 51
322.4287934739685966
  0
ARC
  5
10E39
  8
0
 10
3780.2522501180951622
 20
38.9482978396226898
 30
0.0
 40
0.1353023526121768
 50
282.4034828849622158
 51
305.6953848828773062
  0
ARC
  5
10E3A
  8
0
 10
3781.4422636235399295
 20
39.0227522318427731
 30
0.0
 40
1.396702504356033
 50
144.3108821641764052
 51
149.5992843850451948
  0
ARC
  5
10E3B
  8
0
 10
3778.7042375124688078
 20
39.8987274879072871
 30
0.0
 40
1.604797943811026
 50
352.4277772085313813
 51
357.815985079443692
  0
ARC
  5
10E3C
  8
0
 10
3773.0206881095900826
 20
40.6542706081925473
 30
0.0
 40
7.3383465152954894
 50
349.5910151474540726
 51
352.4277772085313813
  0
ARC
  5
10E3D
  8
0
 10
3790.3442102774720297
 20
37.4720011396613302
 30
0.0
 40
10.2750364440177204
 50
169.591015147454101
 51
170.9454374805378905
  0
ARC
  5
10E3E
  8
0
 10
3781.5334623802841634
 20
38.8760887302232589
 30
0.0
 40
1.353111737444133
 50
170.9454374805378905
 51
176.5511395715545007
  0
ARC
  5
10E3F
  8
0
 10
3780.4377917933770732
 20
38.9421212640446015
 30
0.0
 40
0.2554531700667597
 50
176.5511395715550975
 51
197.2081381698957898
  0
ARC
  5
10E40
  8
0
 10
3780.2630850980340256
 20
38.8880133138530724
 30
0.0
 40
0.0725594860001856
 50
197.208138169894994
 51
238.4456902443089064
  0
ARC
  5
10E41
  8
0
 10
3780.2659892567689894
 20
38.8927615879585815
 30
0.0
 40
0.0781254676132223
 50
238.4530533461420987
 51
281.3109977419611027
  0
ARC
  5
10E42
  8
0
 10
3781.8397860850081997
 20
38.6455995082523174
 30
0.0
 40
1.4433775414011529
 50
131.1518417531501939
 51
141.7175430222378054
  0
ARC
  5
10E43
  8
0
 10
3781.0317128943629541
 20
39.5702210258622884
 30
0.0
 40
0.2154087990193203
 50
103.6250866360814058
 51
131.1518417531501086
  0
ARC
  5
10E44
  8
0
 10
3781.0100185424212214
 20
39.6597232461651217
 30
0.0
 40
0.1233148668342077
 50
64.3251319744929333
 51
103.6250866360814058
  0
ARC
  5
10E45
  8
0
 10
3780.9973882592680638
 20
39.6334499702024203
 30
0.0
 40
0.1524663519133722
 50
44.2629037555996021
 51
64.325131974492848
  0
ARC
  5
10E46
  8
0
 10
3781.0200164987932112
 20
39.6555033597418998
 30
0.0
 40
0.1208690543363045
 50
12.9906414407371607
 51
44.2629037555999005
  0
ARC
  5
10E47
  8
0
 10
3780.9081200800010265
 20
39.6294893856683217
 30
0.0
 40
0.2357494962453312
 50
357.7861849414193784
 51
13.0379812311001206
  0
ARC
  5
10E48
  8
0
 10
3780.6915245457348647
 20
39.0036372801052522
 30
0.0
 40
0.3322229557509584
 50
291.3820653896401041
 51
308.1999091796637913
  0
ARC
  5
10E49
  8
0
 10
3786.9092635675478959
 20
36.4708306002041667
 30
0.0
 40
6.4894107698378907
 50
155.9865367996883947
 51
159.9629629020446089
  0
ARC
  5
10E4A
  8
0
 10
3778.267999838742071
 20
40.3206023469996282
 30
0.0
 40
2.9706199559694499
 50
335.986536799688281
 51
341.5159018916737068
  0
ARC
  5
10E4B
  8
0
 10
3778.685552117682164
 20
40.1810201585541122
 30
0.0
 40
2.5303551572628988
 50
341.5159018916737068
 51
344.6926162041547173
  0
ARC
  5
10E4C
  8
0
 10
3780.6260011321678576
 20
39.6499045852189411
 30
0.0
 40
0.5185335622753211
 50
344.6926162041544899
 51
356.7361884285072051
  0
ARC
  5
10E4D
  8
0
 10
3784.6529358487250647
 20
35.9866985498340384
 30
0.0
 40
5.1381395149650331
 50
136.099154161442101
 51
137.4990851390072066
  0
ARC
  5
10E4E
  8
0
 10
3778.6995905867920555
 20
40.0752188225103012
 30
0.0
 40
2.311667408242045
 50
339.467374297802678
 51
346.8560263796280765
  0
ARC
  5
10E4F
  8
0
 10
3813.8437320640941834
 20
26.9125484351501001
 30
0.0
 40
35.2165429394803908
 50
159.4673742978027917
 51
160.014137212598996
  0
ARC
  5
10E50
  8
0
 10
3791.0641678747088008
 20
35.1972670788782125
 30
0.0
 40
10.9772131701974498
 50
160.014137212598996
 51
160.9193467248128968
  0
ARC
  5
10E51
  8
0
 10
3781.3548443874078657
 20
38.5557505990991771
 30
0.0
 40
0.7034419961522306
 50
160.9193467248128968
 51
170.4335736880186971
  0
ARC
  5
10E52
  8
0
 10
3780.8352908774049865
 20
38.643313375791891
 30
0.0
 40
0.1765614692597143
 50
170.4335736880184982
 51
191.0082250957327972
  0
ARC
  5
10E53
  8
0
 10
3780.7413220992530114
 20
38.6250336958759419
 30
0.0
 40
0.0808312338822931
 50
191.0082250957316035
 51
218.7637021943282036
  0
ARC
  5
10E54
  8
0
 10
3780.734409010904983
 20
38.6194826371829691
 30
0.0
 40
0.0719652853649196
 50
218.7637021943291984
 51
258.6599599351720826
  0
ARC
  5
10E55
  8
0
 10
3780.7388966554472063
 20
38.6418597085984601
 30
0.0
 40
0.0947879118278842
 50
258.6599599351465031
 51
288.026820742132486
  0
ARC
  5
10E56
  8
0
 10
3779.6435639056358013
 20
40.2549890488613968
 30
0.0
 40
2.0531356563357752
 50
306.4046716853712269
 51
310.2762510898614892
  0
ARC
  5
10E57
  8
0
 10
3780.5992071513501287
 20
38.9590073290416825
 30
0.0
 40
0.4429112523519204
 50
296.3249258607950765
 51
306.4046716853712269
  0
ARC
  5
10E58
  8
0
 10
3780.7303959388559633
 20
38.69385745429949
 30
0.0
 40
0.1470819873307313
 50
284.9057992451661789
 51
296.3249258607950765
  0
ARC
  5
10E59
  8
0
 10
3782.2191918926419021
 20
38.1323243082332226
 30
0.0
 40
1.4025909353077839
 50
121.4211206145560027
 51
131.3461234958244859
  0
ARC
  5
10E5A
  8
0
 10
3781.6370911404751496
 20
39.0851684245729203
 30
0.0
 40
0.2860099056838214
 50
102.2924389472645004
 51
121.4211206145560027
  0
ARC
  5
10E5B
  8
0
 10
3781.6046713424138943
 20
39.2339533745869176
 30
0.0
 40
0.1337338253001326
 50
59.9363397948786698
 51
102.2924389472644009
  0
ARC
  5
10E5C
  8
0
 10
3781.6046414709558121
 20
39.2339017682074029
 30
0.0
 40
0.1337934535015923
 50
24.3158059622849301
 51
59.9363397948787693
  0
ARC
  5
10E5D
  8
0
 10
3781.6014539823531777
 20
39.2324615032008381
 30
0.0
 40
0.1372912309221576
 50
355.9143818642580754
 51
24.3158059622847382
  0
ARC
  5
10E5E
  8
0
 10
3781.4431133846219382
 20
39.2437715496618367
 30
0.0
 40
0.2960352451117559
 50
340.0190341477342031
 51
355.9143818642577912
  0
ARC
  5
10E5F
  8
0
 10
3780.7840547835098732
 20
39.4834013435906996
 30
0.0
 40
0.9973060044030342
 50
331.1348995128249157
 51
340.0190341477339757
  0
ARC
  5
10E60
  8
0
 10
3778.1808975762578484
 20
40.9183532138379888
 30
0.0
 40
3.9697653086819402
 50
326.8872207178840199
 51
331.1348995128249157
  0
ARC
  5
10E61
  8
0
 10
3744.2076093238470094
 20
63.0760603158399604
 30
0.0
 40
44.5301930517362194
 50
326.4517727659202251
 51
326.8872207178840199
  0
ARC
  5
10E62
  8
0
 10
3782.7387726767137792
 20
37.5261725389595213
 30
0.0
 40
1.7023421884652381
 50
146.4517727659201114
 51
151.8453637683873865
  0
ARC
  5
10E63
  8
0
 10
3781.1422496846798822
 20
38.7408186461870088
 30
0.0
 40
0.4223544262810142
 50
283.0831891021396132
 51
297.5113306767830181
  0
ARC
  5
10E64
  8
0
 10
3782.4850225193990809
 20
37.6866456595528234
 30
0.0
 40
1.7424513556083321
 50
123.3745388265906939
 51
127.1083842317449069
  0
ARC
  5
10E65
  8
0
 10
3780.2118715904380224
 20
39.6806727667329824
 30
0.0
 40
1.4207875423529741
 50
330.4465895339586723
 51
337.709035297925027
  0
ARC
  5
10E66
  8
0
 10
3767.7396585213277831
 20
46.7524675760473016
 30
0.0
 40
15.7583738338573305
 50
328.9759525066191941
 51
330.4465895339586723
  0
ARC
  5
10E67
  8
0
 10
3788.1406503371599683
 20
34.4826582721826611
 30
0.0
 40
8.0481103127541402
 50
148.9759525066193078
 51
150.4413822649873964
  0
ARC
  5
10E68
  8
0
 10
3781.8522505736050334
 20
38.0489614394302009
 30
0.0
 40
0.8188302748109377
 50
150.4413822649873964
 51
159.5601077586688064
  0
ARC
  5
10E69
  8
0
 10
3781.2295323688440476
 20
38.2810419254738079
 30
0.0
 40
0.1542707857182793
 50
159.5601077586684937
 51
187.7640510557760081
  0
ARC
  5
10E6A
  8
0
 10
3781.1505107455991492
 20
38.2731913754081887
 30
0.0
 40
0.0749689935615757
 50
189.978478160682613
 51
232.339267494185691
  0
ARC
  5
10E6B
  8
0
 10
3781.1553326637031205
 20
38.2849598036353314
 30
0.0
 40
0.087296690385481
 50
234.5536945990814104
 51
278.1314999968632833
  0
ARC
  5
10E6C
  8
0
 10
3779.5055314355608971
 20
41.6385089632283112
 30
0.0
 40
3.8382482405846519
 50
298.5066996745417782
 51
299.5735694157926901
  0
ARC
  5
10E6D
  8
0
 10
3780.7621468022739464
 20
39.3247565952308307
 30
0.0
 40
1.2052780166221211
 50
293.3649239809655
 51
298.5066996745417782
  0
ARC
  5
10E6E
  8
0
 10
3781.1344592091018058
 20
38.4629462631042784
 30
0.0
 40
0.2664843349015457
 50
277.1613907400372909
 51
293.3649239809655
  0
ARC
  5
10E6F
  8
0
 10
3782.510643854880982
 20
37.543309706334
 30
0.0
 40
1.380052604111494
 50
111.008593175707702
 51
120.6829911806843967
  0
ARC
  5
10E70
  8
0
 10
3782.1231305558658278
 20
38.5523639982856707
 30
0.0
 40
0.2991469093262197
 50
93.0533710316492062
 51
111.008593175707702
  0
ARC
  5
10E71
  8
0
 10
3782.114438750023055
 20
38.7153092342142884
 30
0.0
 40
0.1359700194163642
 50
64.9498881947340436
 51
93.0533710316492062
  0
ARC
  5
10E72
  8
0
 10
3782.1147229490279642
 20
38.7159173118599966
 30
0.0
 40
0.1352988059645992
 50
41.8095013813480918
 51
64.9498881947342284
  0
ARC
  5
10E73
  8
0
 10
3782.1176936057859166
 20
38.7185742721179906
 30
0.0
 40
0.131313302309692
 50
13.8502786182635997
 51
41.8095013813483902
  0
ARC
  5
10E74
  8
0
 10
3782.109892106424013
 20
38.7166507794595702
 30
0.0
 40
0.1393484262224906
 50
346.5136073361139211
 51
13.8502786182635997
  0
ARC
  5
10E75
  8
0
 10
3782.9748982236819757
 20
36.470714339198878
 30
0.0
 40
2.3709792363735991
 50
113.632458610585104
 51
116.2574517935565979
  0
ARC
  5
10E76
  8
0
 10
3780.4752764040908914
 20
39.6815489701373494
 30
0.0
 40
1.865160079935464
 50
320.0566663323298826
 51
326.1587577898600898
  0
ARC
  5
10E77
  8
0
 10
3772.2450762879798276
 20
46.573647439865681
 30
0.0
 40
12.6000198958650707
 50
318.2813185573463102
 51
320.0566663323298826
  0
ARC
  5
10E78
  8
0
 10
3786.445784263637961
 20
33.9129700212625806
 30
0.0
 40
6.4250388348678751
 50
138.2813185573461965
 51
139.9882681395473014
  0
ARC
  5
10E79
  8
0
 10
3782.3531965705738003
 20
37.3484871105772527
 30
0.0
 40
1.0816268447263579
 50
139.9882681395475004
 51
146.4413305033307893
  0
ARC
  5
10E7A
  8
0
 10
3781.6457436203199904
 20
37.8177824859222085
 30
0.0
 40
0.2326699399635023
 50
146.4413305033307893
 51
162.483683405016393
  0
ARC
  5
10E7B
  8
0
 10
3781.5166368962750312
 20
37.8585301051837888
 30
0.0
 40
0.0972856178691666
 50
162.483683405015995
 51
198.3066119713458875
  0
ARC
  5
10E7C
  8
0
 10
3781.4843229243451788
 20
37.8478391436575805
 30
0.0
 40
0.0632490281425478
 50
198.3066119713467117
 51
243.0917274674469866
  0
ARC
  5
10E7D
  8
0
 10
3781.5119056554372037
 20
37.9021882267941379
 30
0.0
 40
0.1241967917786102
 50
243.0917274674472992
 51
270.5695436223157913
  0
ARC
  5
10E7E
  8
0
 10
3781.5102139384562179
 20
38.072368432042218
 30
0.0
 40
0.2943854052773405
 50
270.5695436223157913
 51
285.5535056356471273
  0
ARC
  5
10E7F
  8
0
 10
3781.1284723817329905
 20
39.5611262248385174
 30
0.0
 40
1.8312548089604159
 50
284.5700721865659943
 51
289.9363182084999835
  0
ARC
  5
10E80
  8
0
 10
3781.9020563897629472
 20
37.3453219017150317
 30
0.0
 40
0.663353954047862
 50
110.5990902484568039
 51
113.2000289955173997
  0
ARC
  5
10E81
  8
0
 10
3786.0319379925099383
 20
33.9622025765498208
 30
0.0
 40
5.9350974151480411
 50
135.2590080457158024
 51
137.7204045923874105
  0
ARC
  5
10E82
  8
0
 10
3777.6863003117118751
 20
42.2327256732861329
 30
0.0
 40
5.8144226002730992
 50
315.2590080457159161
 51
318.412976399617321
  0
ARC
  5
10E83
  8
0
 10
3780.0165410587178485
 20
40.1647847011098094
 30
0.0
 40
2.6989127217121731
 50
318.412976399617321
 51
322.4118841733405247
  0
ARC
  5
10E84
  8
0
 10
3781.61081746118316
 20
38.9375533001662575
 30
0.0
 40
0.6869946918419241
 50
322.4118841733405247
 51
335.2301918663292213
  0
ARC
  5
10E85
  8
0
 10
3782.1068932847051656
 20
38.7086512292527516
 30
0.0
 40
0.1406547054305993
 50
335.2301918663293918
 51
349.9693565791299079
  0
ARC
  5
10E86
  8
0
 10
3782.8864379172309782
 20
36.2931407805525197
 30
0.0
 40
2.0053905824239071
 50
105.0525871086931033
 51
109.0813682578622945
  0
ARC
  5
10E87
  8
0
 10
3782.5712232818809753
 20
37.4652336825039924
 30
0.0
 40
0.7916517154743441
 50
98.7484767099114435
 51
105.0525871086931033
  0
ARC
  5
10E88
  8
0
 10
3782.4986245377817795
 20
37.9369987172057535
 30
0.0
 40
0.3143333462366362
 50
79.1475139995858399
 51
98.748476709911472
  0
ARC
  5
10E89
  8
0
 10
3782.5401670198461943
 20
38.1536933852036029
 30
0.0
 40
0.0936925590855161
 50
54.0136045924631887
 51
79.1475139995858399
  0
ARC
  5
10E8A
  8
0
 10
3782.4820399061200078
 20
38.0736483148706384
 30
0.0
 40
0.1926166442957063
 50
36.7245540136541493
 51
54.0136045924633095
  0
ARC
  5
10E8B
  8
0
 10
3782.5255860399861376
 20
38.1173066917213035
 30
0.0
 40
0.131911460005077
 50
358.0667172645920004
 51
32.8324698308362883
  0
ARC
  5
10E8C
  8
0
 10
3782.5044621356951211
 20
38.1195381674053735
 30
0.0
 40
0.1531061420280304
 50
332.9156316757650984
 51
357.4987971621267207
  0
ARC
  5
10E8D
  8
0
 10
3781.9970848396301335
 20
37.200818775475831
 30
0.0
 40
0.263188381096379
 50
98.6060332529969514
 51
108.0476273452912039
  0
ARC
  5
10E8E
  8
0
 10
3785.3924182100849976
 20
32.8966970929427731
 30
0.0
 40
5.7298199572541062
 50
124.7241809807761967
 51
127.3586852959530944
  0
ARC
  5
10E8F
  8
0
 10
3778.9860756535190376
 20
42.140293015900312
 30
0.0
 40
5.5167479876341297
 50
304.724180980776282
 51
308.172258512617816
  0
ARC
  5
10E90
  8
0
 10
3780.9772176913579642
 20
39.6074803571180709
 30
0.0
 40
2.2949803704187679
 50
308.172258512617816
 51
313.4898119682151219
  0
ARC
  5
10E91
  8
0
 10
3782.2151775197980896
 20
38.3024782383940519
 30
0.0
 40
0.4962099385113558
 50
313.4898119682151219
 51
322.0603354914500756
  0
ARC
  5
10E92
  8
0
 10
3782.3240672191059275
 20
38.2193503957936329
 30
0.0
 40
0.3592262218945954
 50
321.8387437551118069
 51
331.8417731019923167
  0
ARC
  5
10E93
  8
0
 10
3782.6107874540430203
 20
37.0158292290069824
 30
0.0
 40
1.0588493176511671
 50
100.4896922878566983
 51
105.6753434937035934
  0
ARC
  5
10E94
  8
0
 10
3781.4008443921097751
 20
39.0473658422079026
 30
0.0
 40
1.4196811136544849
 50
312.7020138117030115
 51
315.764468062884589
  0
ARC
  5
10E95
  8
0
 10
3779.7618315686650021
 20
40.8234217706523097
 30
0.0
 40
3.8364429340200261
 50
306.7136275118429012
 51
312.7020138117030115
  0
ARC
  5
10E96
  8
0
 10
3785.0212201311987883
 20
33.7709120291374418
 30
0.0
 40
4.9612307190466813
 50
126.7136275118428017
 51
129.914183986003394
  0
ARC
  5
10E97
  8
0
 10
3783.3601961927379307
 20
35.7564752959335124
 30
0.0
 40
2.3725125013587731
 50
129.914183986003394
 51
132.5975446453961126
  0
ARC
  5
10E98
  8
0
 10
3781.993785218476205
 20
37.2425638801870207
 30
0.0
 40
0.3537162682457744
 50
132.5975446453959137
 51
145.1751824918410989
  0
ARC
  5
10E99
  8
0
 10
3781.8086140338718906
 20
37.3713801920297612
 30
0.0
 40
0.1281458583851351
 50
145.1751824918409
 51
172.9647521673500989
  0
ARC
  5
10E9A
  8
0
 10
3781.7468788800820221
 20
37.3789988701633504
 30
0.0
 40
0.0659423739983423
 50
172.9647521673489052
 51
222.8683357473576052
  0
ARC
  5
10E9B
  8
0
 10
3781.4663023856760447
 20
40.8140555429016985
 30
0.0
 40
3.536364227780648
 50
277.3733640044364961
 51
278.9715693971576798
  0
ARC
  5
10E9C
  8
0
 10
3781.8008503986948199
 20
38.1741614148886299
 30
0.0
 40
0.8753935452391219
 50
269.5387760766079168
 51
277.8320567705708868
  0
ARC
  5
10E9D
  8
0
 10
3781.795198338029877
 20
37.4720464328699592
 30
0.0
 40
0.1732558139037057
 50
248.5431082380048906
 51
269.5387760766079168
  0
ARC
  5
10E9E
  8
0
 10
3781.7633364885800802
 20
37.3911148310424579
 30
0.0
 40
0.0862782486608221
 50
221.3299023318010086
 51
248.5754711733011106
  0
ARC
  5
10E9F
  8
0
 10
3782.1449224005141332
 20
36.2930532828867598
 30
0.0
 40
0.6169676992581632
 50
89.4143628520644427
 51
94.3658136008094033
  0
ARC
  5
10EA0
  8
0
 10
3783.9372847879349138
 20
33.3084082722299115
 30
0.0
 40
4.0425055685048381
 50
114.4599868962233984
 51
117.0647507044521944
  0
ARC
  5
10EA1
  8
0
 10
3778.3983991146769768
 20
45.4849111778796669
 30
0.0
 40
9.3345822129493641
 50
294.4599868962234268
 51
296.1421431449036845
  0
ARC
  5
10EA2
  8
0
 10
3780.7587776386631049
 20
40.6757358762951711
 30
0.0
 40
3.9773857579121068
 50
296.1421431449036845
 51
300.5111398877425017
  0
ARC
  5
10EA3
  8
0
 10
3782.4472294844172211
 20
37.8105874383343377
 30
0.0
 40
0.6517361661811942
 50
300.5111398877425017
 51
312.8572140988254091
  0
ARC
  5
10EA4
  8
0
 10
3782.7511442590339357
 20
37.4837957198425471
 30
0.0
 40
0.2054669730624782
 50
312.7150190340424274
 51
339.9086978642396275
  0
ARC
  5
10EA5
  8
0
 10
3782.7358771957478893
 20
36.5554734720063692
 30
0.0
 40
1.0379702137455551
 50
86.4459638515596254
 51
100.2463834429840972
  0
ARC
  5
10EA6
  8
0
 10
3782.788388901532926
 20
37.4009458218638713
 30
0.0
 40
0.1908687005737002
 50
55.8104214357539092
 51
86.4459638515596254
  0
ARC
  5
10EA7
  8
0
 10
3782.8303606696481438
 20
37.462729573187552
 30
0.0
 40
0.1161769256162604
 50
23.4189591024345489
 51
55.8104214357540371
  0
ARC
  5
10EA8
  8
0
 10
3782.7800356521788672
 20
37.4409322197493424
 30
0.0
 40
0.1710197191269036
 50
9.3947843404472291
 51
23.4189591024345489
  0
ARC
  5
10EA9
  8
0
 10
3782.8178800596438123
 20
37.4517847588005495
 30
0.0
 40
0.1319891303585544
 50
343.0088165351057228
 51
7.42821034057304
  0
ARC
  5
10EAA
  8
0
 10
3782.7895453208898289
 20
35.335847710263991
 30
0.0
 40
2.0801554110131462
 50
92.3525948831346142
 51
94.784686716066858
  0
ARC
  5
10EAB
  8
0
 10
3781.4809332681870728
 20
39.1550439603998015
 30
0.0
 40
2.1275903277330248
 50
297.6360714688635767
 51
305.0950023027298244
  0
ARC
  5
10EAC
  8
0
 10
3801.3771990371378706
 20
1.1552848687107611
 30
0.0
 40
40.7658017341585506
 50
117.6360714688636051
 51
118.1238239683719939
  0
ARC
  5
10EAD
  8
0
 10
3786.3057440790180408
 20
29.3533860485880815
 30
0.0
 40
8.7926619961655472
 50
118.1238239683719939
 51
119.4650777159331057
  0
ARC
  5
10EAE
  8
0
 10
3782.2227952125158481
 20
36.5802478549918675
 30
0.0
 40
0.4921799008093659
 50
119.4650777159331057
 51
132.2777284688930024
  0
ARC
  5
10EAF
  8
0
 10
3781.9819779100557753
 20
36.8451093690424187
 30
0.0
 40
0.1342070040851129
 50
132.2777284688930024
 51
157.8987184390094001
  0
ARC
  5
10EB0
  8
0
 10
3781.9238077710770085
 20
36.8687313287438911
 30
0.0
 40
0.0714235504602087
 50
157.898718439009599
 51
200.095729096845389
  0
ARC
  5
10EB1
  8
0
 10
3782.2395268180848689
 20
39.5771312425711415
 30
0.0
 40
2.8167231782364581
 50
266.8770657078205772
 51
268.8897256062670067
  0
ARC
  5
10EB2
  8
0
 10
3782.1606716270521247
 20
38.131825589546672
 30
0.0
 40
1.3692679727750221
 50
262.1636492360532884
 51
266.8770657078205772
  0
ARC
  5
10EB3
  8
0
 10
3782.0078590814950985
 20
37.0215062286643715
 30
0.0
 40
0.2484821960855983
 50
244.6711129114364951
 51
262.1636492360532884
  0
ARC
  5
10EB4
  8
0
 10
3781.9396928628571004
 20
36.8779536304732574
 30
0.0
 40
0.0895675288403185
 50
202.1450363089616928
 51
244.7986911170353039
  0
LINE
  5
10EB5
  8
0
 10
3782.2414545138472022
 20
36.3308610946889914
 30
0.0
 11
3782.2175388825658047
 21
36.3351424496680124
 31
0.0
  0
LINE
  5
10EB6
  8
0
 10
3782.2175388825658047
 20
36.3351424496680124
 30
0.0
 11
3782.1814894730891865
 21
36.3419410978536206
 31
0.0
  0
ARC
  5
10EB7
  8
0
 10
3783.581101960999149
 20
31.6058737448937883
 30
0.0
 40
4.9385472649784328
 50
103.6916881082670017
 51
106.4635736752147039
  0
ARC
  5
10EB8
  8
0
 10
3781.0585358620578518
 20
41.9603836727889927
 30
0.0
 40
5.7188077338193812
 50
283.6916881082669875
 51
287.1929228463283721
  0
ARC
  5
10EB9
  8
0
 10
3782.0707191105871061
 20
38.6891175657376394
 30
0.0
 40
2.2945272441771531
 50
287.1929228463283721
 51
292.615640571909978
  0
ARC
  5
10EBA
  8
0
 10
3782.7762102065039471
 20
36.9955872495729921
 30
0.0
 40
0.4599257566091147
 50
292.615640571909978
 51
308.8662316745442808
  0
ARC
  5
10EBB
  8
0
 10
3782.9782869749360543
 20
36.7448485247761667
 30
0.0
 40
0.1378932606514135
 50
308.8662316745446219
 51
341.1644135825059152
  0
ARC
  5
10EBC
  8
0
 10
3782.6844715650968283
 20
35.1169001305978412
 30
0.0
 40
1.7999520172137029
 50
83.8903245987975481
 51
87.7219707601891372
  0
ARC
  5
10EBD
  8
0
 10
3782.7972410758011392
 20
36.1704272460196634
 30
0.0
 40
0.7404066687393853
 50
74.1020242089482934
 51
83.8903245987975481
  0
ARC
  5
10EBE
  8
0
 10
3782.9489130794700031
 20
36.7029473554128813
 30
0.0
 40
0.1867081374020229
 50
46.5238982169991928
 51
74.1020242089482366
  0
ARC
  5
10EBF
  8
0
 10
3782.9935627323197878
 20
36.750037593452852
 30
0.0
 40
0.1218152871162768
 50
12.0503515548587501
 51
46.5238982169989228
  0
ARC
  5
10EC0
  8
0
 10
3782.9707262459369304
 20
36.7451625690786017
 30
0.0
 40
0.145166325057157
 50
342.0105747459451209
 51
12.0503515548587501
  0
ARC
  5
10EC1
  8
0
 10
3782.9105952289760353
 20
37.7650299832869081
 30
0.0
 40
1.034560167079817
 50
263.2560143540696913
 51
267.8741239098567917
  0
ARC
  5
10EC2
  8
0
 10
3781.9576950481978201
 20
38.727775888713083
 30
0.0
 40
2.1960738238764979
 50
287.8549264768051898
 51
294.609749741460007
  0
ARC
  5
10EC3
  8
0
 10
3773.7391777250390987
 20
64.2414019309443347
 30
0.0
 40
29.0007215703751591
 50
287.1494440301274267
 51
287.8549264768051898
  0
ARC
  5
10EC4
  8
0
 10
3783.8287036548099422
 20
31.5453080079381287
 30
0.0
 40
5.2167168391484227
 50
107.1494440301272988
 51
109.785617053927993
  0
ARC
  5
10EC5
  8
0
 10
3782.2003901885032064
 20
36.0716874798816534
 30
0.0
 40
0.4063617723589561
 50
109.785617053927993
 51
121.1774533427730063
  0
ARC
  5
10EC6
  8
0
 10
3782.0771953358289466
 20
36.2752871311427825
 30
0.0
 40
0.1683916277630213
 50
121.1774533427730063
 51
146.0750491539949962
  0
ARC
  5
10EC7
  8
0
 10
3781.99993619789484
 20
36.3332473303807504
 30
0.0
 40
0.0721082110399073
 50
150.0310451592044103
 51
208.666695467686111
  0
ARC
  5
10EC8
  8
0
 10
3777.9602841387441003
 20
18.1004032442684384
 30
0.0
 40
18.5776337342660085
 50
76.6577176766932524
 51
77.0216101913086391
  0
ARC
  5
10EC9
  8
0
 10
3782.2765941494221806
 20
36.8828784780385419
 30
0.0
 40
0.6945202485543859
 50
246.1621551114997999
 51
258.0299820352241795
  0
ARC
  5
10ECA
  8
0
 10
3782.0521934750140645
 20
36.3750028533362411
 30
0.0
 40
0.1392785778906194
 50
219.4818724189464945
 51
246.1621551114996862
  0
ARC
  5
10ECB
  8
0
 10
3781.9972537708840719
 20
36.3297432424389584
 30
0.0
 40
0.0680970952676096
 50
207.1623152557712899
 51
219.4818724189462102
  0
ARC
  5
10ECC
  8
0
 10
3725.2329230925761294
 20
35.9238368896567692
 30
0.0
 40
57.0150418973264905
 50
359.9781879675837217
 51
0.2540136281217846
  0
LINE
  5
10ECD
  8
0
 10
3782.8385562829162154
 20
36.1258927599680106
 30
0.0
 11
3782.8385120395159902
 21
36.0227989541680174
 31
0.0
  0
ARC
  5
10ECE
  8
0
 10
3782.5625350470299963
 20
37.2132126754558001
 30
0.0
 40
1.2219892350235211
 50
283.0524629358131961
 51
289.9636695019895001
  0
ARC
  5
10ECF
  8
0
 10
3782.7375945564331232
 20
35.7001840898650613
 30
0.0
 40
0.4375170191147383
 50
56.3859634417176707
 51
76.6581394953070543
  0
ARC
  5
10ED0
  8
0
 10
3782.659527515811078
 20
35.2655759079486799
 30
0.0
 40
0.9763320623927334
 50
64.8105264452902219
 51
79.5063442851790541
  0
ARC
  5
10ED1
  8
0
 10
3783.0070477522531291
 20
36.0044463247256488
 30
0.0
 40
0.1598151871690403
 50
36.9528844191077681
 51
64.8105264452902219
  0
ARC
  5
10ED2
  8
0
 10
3783.0537078186498547
 20
36.039547086442262
 30
0.0
 40
0.1014266157766574
 50
346.355771800415198
 51
36.9528844191081021
  0
ARC
  5
10ED3
  8
0
 10
3783.0496378982988972
 20
36.0405350299816121
 30
0.0
 40
0.1056147280125057
 50
320.9854246010183942
 51
346.3557718004148001
  0
ARC
  5
10ED4
  8
0
 10
3783.0107897737439089
 20
36.0720099873276467
 30
0.0
 40
0.1556132252028555
 50
300.1312942400680868
 51
320.9854246010182806
  0
ARC
  5
10ED5
  8
0
 10
3782.8703358202719755
 20
36.314001047828242
 30
0.0
 40
0.4354113424379707
 50
284.8059623151265782
 51
300.1312942400680868
  0
ARC
  5
10ED6
  8
0
 10
3781.3645470209348787
 20
42.010782482534438
 30
0.0
 40
6.3278402663217221
 50
282.9017805933294767
 51
284.8059623151265782
  0
ARC
  5
10ED7
  8
0
 10
3781.5892397888210326
 20
41.0298624235941816
 30
0.0
 40
5.321514771279606
 50
279.3717237599879013
 51
282.9017805933294767
  0
ARC
  5
10ED8
  8
0
 10
3782.8681087607337759
 20
33.2811104529203519
 30
0.0
 40
2.5320616719939699
 50
99.3717237599878871
 51
105.6313457970885992
  0
ARC
  5
10ED9
  8
0
 10
3782.585634808262057
 20
37.1178963729506819
 30
0.0
 40
1.454396474587951
 50
254.045249894530599
 51
256.5748653576072229
  0
LINE
  5
10EDA
  8
0
 10
3782.2479608584148991
 20
35.7360550327492774
 30
0.0
 11
3782.2479608584148991
 21
35.2627750983067685
 31
0.0
  0
LINE
  5
10EDB
  8
0
 10
3782.2479608584148991
 20
35.0933109581252367
 30
0.0
 11
3782.2479608584148991
 21
34.6238351831837434
 31
0.0
  0
LINE
  5
10EDC
  8
0
 10
3782.2479608584148991
 20
34.4579514109074694
 30
0.0
 11
3782.2479608584148991
 21
34.0529594251565513
 31
0.0
  0
LINE
  5
10EDD
  8
0
 10
3782.2479608584148991
 20
33.8877432068375697
 30
0.0
 11
3782.2479608584148991
 21
33.5764147322962216
 31
0.0
  0
LINE
  5
10EDE
  8
0
 10
3782.2479608584148991
 20
33.4086482583824633
 30
0.0
 11
3782.2479608584148991
 21
33.17722099833248
 31
0.0
  0
LINE
  5
10EDF
  8
0
 10
3782.2479608584148991
 20
33.0111431479532911
 30
0.0
 11
3782.2479608584148991
 21
32.8470229572972201
 31
0.0
  0
LINE
  5
10EE0
  8
0
 10
3782.2479608584148991
 20
32.6801168857587925
 30
0.0
 11
3782.2479608584148991
 21
32.568442667016221
 31
0.0
  0
LINE
  5
10EE1
  8
0
 10
3782.2479608584148991
 20
32.4030109242612383
 30
0.0
 11
3782.2479608584148991
 21
32.3410107802550613
 31
0.0
  0
LINE
  5
10EE2
  8
0
 10
3782.8385120395159902
 20
35.8570040042267095
 30
0.0
 11
3782.8385120395159902
 21
35.3827655712386715
 31
0.0
  0
LINE
  5
10EE3
  8
0
 10
3782.8385120395159902
 20
35.2155960643091817
 30
0.0
 11
3782.8385120395159902
 21
34.7434610408936209
 31
0.0
  0
LINE
  5
10EE4
  8
0
 10
3782.8385120395159902
 20
34.5756899298320022
 30
0.0
 11
3782.8385120395159902
 21
34.1544668869925516
 31
0.0
  0
LINE
  5
10EE5
  8
0
 10
3782.8385120395159902
 20
33.9874765744569487
 30
0.0
 11
3782.8385120395159902
 21
33.6615987974039825
 31
0.0
  0
LINE
  5
10EE6
  8
0
 10
3782.8385120395159902
 20
33.4932602277539218
 30
0.0
 11
3782.8385120395159902
 21
33.247450758659852
 31
0.0
  0
LINE
  5
10EE7
  8
0
 10
3782.8385120395159902
 20
33.0812206186859967
 30
0.0
 11
3782.8385120395159902
 21
32.9042657007521413
 31
0.0
  0
LINE
  5
10EE8
  8
0
 10
3782.8385120395159902
 20
32.737285084729379
 30
0.0
 11
3782.8385120395159902
 21
32.6153375907593315
 31
0.0
  0
LINE
  5
10EE9
  8
0
 10
3782.8385120395159902
 20
32.4526009189106688
 30
0.0
 11
3782.8385120395159902
 21
32.3860623533891427
 31
0.0
  0
ARC
  5
10EEA
  8
0
 10
3780.3999444249138833
 20
46.4521867704080123
 30
0.0
 40
10.7106874684230906
 50
279.9355026657057124
 51
283.1602978203998759
  0
ARC
  5
10EEB
  8
0
 10
3782.6607255690751117
 20
34.0083775673825386
 30
0.0
 40
1.938215556483269
 50
102.295942815490406
 51
106.8815706862848032
  0
ARC
  5
10EEC
  8
0
 10
3782.7288453676587778
 20
37.6846834648518225
 30
0.0
 40
2.201360172949193
 50
253.1641172699860078
 51
257.3820595555898194
  0
ARC
  5
10EED
  8
0
 10
3782.2300347342170426
 20
36.0362746451499731
 30
0.0
 40
0.47913379848362
 50
241.8019964211987087
 51
253.1641172699860078
  0
ARC
  5
10EEE
  8
0
 10
3782.0759222710958056
 20
35.7488320669803912
 30
0.0
 40
0.152983699550132
 50
207.0411008240562865
 51
241.8019964211987087
  0
ARC
  5
10EEF
  8
0
 10
3782.0331700734500373
 20
35.7196267798998619
 30
0.0
 40
0.1018401040321779
 50
140.0585639513853096
 51
203.3387360951494998
  0
ARC
  5
10EF0
  8
0
 10
3782.1279806351299158
 20
35.6201140212774021
 30
0.0
 40
0.2389177105736544
 50
117.6460314763433956
 51
136.3561992224595087
  0
ARC
  5
10EF1
  8
0
 10
3782.1959649963300762
 20
35.4903260045917079
 30
0.0
 40
0.3854332477802161
 50
104.7429826643811026
 51
117.6460314763433956
  0
ARC
  5
10EF2
  8
0
 10
3782.3123660156479673
 20
33.2289886765199611
 30
0.0
 40
2.411712209190171
 50
74.7156266105444757
 51
77.3988484187220962
  0
ARC
  5
10EF3
  8
0
 10
3782.7440295486799187
 20
34.8085773092960196
 30
0.0
 40
0.7742038414115388
 50
63.9425689998146893
 51
74.7156266105444757
  0
ARC
  5
10EF4
  8
0
 10
3783.0255652685718815
 20
35.3843455907329698
 30
0.0
 40
0.133289279644945
 50
27.79002006171876
 51
63.942568999814597
  0
ARC
  5
10EF5
  8
0
 10
3783.0539068127750397
 20
35.3992820835287532
 30
0.0
 40
0.101252707655449
 50
328.3485981813681747
 51
27.7900200617178683
  0
ARC
  5
10EF6
  8
0
 10
3782.6088693590859293
 20
36.5777905912021524
 30
0.0
 40
1.556950655394757
 50
254.2276068774237956
 51
256.5966539070262229
  0
ARC
  5
10EF7
  8
0
 10
3785.3957142056710836
 20
21.0703901360548791
 30
0.0
 40
14.3718704251469305
 50
100.6884659828518949
 51
102.9065909812982937
  0
ARC
  5
10EF8
  8
0
 10
3782.2137033930530379
 20
37.9293083078223177
 30
0.0
 40
2.7847118316422348
 50
280.6884659828518807
 51
284.6647844494319202
  0
ARC
  5
10EF9
  8
0
 10
3782.57637188307217
 20
36.5434284747404021
 30
0.0
 40
1.3521646787024371
 50
284.6647844494319202
 51
289.6882013155159257
  0
ARC
  5
10EFA
  8
0
 10
3782.9314847555388042
 20
35.5509927802483716
 30
0.0
 40
0.2981088168556248
 50
289.6882013155159257
 51
307.2915205139047998
  0
ARC
  5
10EFB
  8
0
 10
3783.0487926161890755
 20
35.3969569162203115
 30
0.0
 40
0.1044901669861211
 50
307.2915205139051977
 51
330.9063341531892775
  0
ARC
  5
10EFC
  8
0
 10
3783.6148381442421851
 20
38.5846975747122087
 30
0.0
 40
3.2625890152156698
 50
256.2345464603678238
 51
257.4454946402636892
  0
ARC
  5
10EFD
  8
0
 10
3782.2902263305900306
 20
37.6428370143127466
 30
0.0
 40
2.3256268287089341
 50
281.9194768262132129
 51
285.3449142056132928
  0
ARC
  5
10EFE
  8
0
 10
3778.8672186444759973
 20
53.8588508236841719
 30
0.0
 40
18.8989815128071896
 50
280.5600553790520166
 51
281.9194768262132129
  0
ARC
  5
10EFF
  8
0
 10
3782.7129874535189629
 20
33.2296364061765388
 30
0.0
 40
2.0856420295896561
 50
100.5600553790520024
 51
104.862410153428101
  0
ARC
  5
10F00
  8
0
 10
3782.6115278855199904
 20
33.6119587434816012
 30
0.0
 40
1.690086200987744
 50
104.862410153428101
 51
109.5964772731825008
  0
ARC
  5
10F01
  8
0
 10
3782.1177469884441962
 20
34.9989264439305074
 30
0.0
 40
0.217843362185071
 50
109.5964772731825008
 51
140.798526342260601
  0
ARC
  5
10F02
  8
0
 10
3782.0333743808409963
 20
35.0794262508803314
 30
0.0
 40
0.1019834969336214
 50
145.8918592523581879
 51
201.4602580800010969
  0
ARC
  5
10F03
  8
0
 10
3782.5936386258817947
 20
36.500263787965153
 30
0.0
 40
1.6406019799385629
 50
250.6485048506455939
 51
257.8365181360085217
  0
ARC
  5
10F04
  8
0
 10
3782.1371505848019297
 20
35.2004846640189868
 30
0.0
 40
0.2629927818364758
 50
232.1593229529902942
 51
250.6485048506455939
  0
ARC
  5
10F05
  8
0
 10
3782.0490304066511271
 20
35.0870472004602192
 30
0.0
 40
0.1193500864569543
 50
202.1154425533690926
 51
232.1593229529902942
  0
ARC
  5
10F06
  8
0
 10
3782.6561833182167902
 20
33.9580943163988991
 30
0.0
 40
1.001260055720794
 50
64.3071776132616719
 51
79.5079399443094559
  0
ARC
  5
10F07
  8
0
 10
3783.0413247797828262
 20
34.7586157853799733
 30
0.0
 40
0.1129084543168933
 50
24.2242050544962098
 51
64.3071776132615867
  0
ARC
  5
10F08
  8
0
 10
3783.0419957904391595
 20
34.7589176903193007
 30
0.0
 40
0.112172654145268
 50
339.4288116243528179
 51
24.2242050544962098
  0
ARC
  5
10F09
  8
0
 10
3785.4735658632230297
 20
19.25750979989024
 30
0.0
 40
15.5393202187641304
 50
100.2689824546386035
 51
101.8604430796409019
  0
ARC
  5
10F0A
  8
0
 10
3782.1795240584820021
 20
37.4393963722433085
 30
0.0
 40
2.938550620196009
 50
280.2689824546387172
 51
284.792275721446174
  0
ARC
  5
10F0B
  8
0
 10
3782.6369699608499104
 20
35.707087540902549
 30
0.0
 40
1.146861294242985
 50
284.7922757214461171
 51
290.4163236216728023
  0
ARC
  5
10F0C
  8
0
 10
3782.9389613273601753
 20
34.8957647997108324
 30
0.0
 40
0.2811573172265367
 50
290.4163236216728023
 51
309.1801745767908756
  0
ARC
  5
10F0D
  8
0
 10
3783.0522917989528651
 20
34.7567097025975187
 30
0.0
 40
0.1017691464224992
 50
309.1801745767911029
 51
338.5558392244270749
  0
ARC
  5
10F0E
  8
0
 10
3781.5540021460319622
 20
31.3171063908220404
 30
0.0
 40
3.1961924267588491
 50
77.4600412245117411
 51
78.3006651984595266
  0
ARC
  5
10F0F
  8
0
 10
3782.8034584843621815
 20
32.0531332333785386
 30
0.0
 40
2.4681426375729578
 50
102.2495772897054991
 51
104.1016462409637029
  0
ARC
  5
10F10
  8
0
 10
3782.3328298896308297
 20
32.6769507199466105
 30
0.0
 40
2.1589343835266681
 50
74.6943148885053319
 51
76.4538996106243189
  0
ARC
  5
10F11
  8
0
 10
3781.622822681281832
 20
39.806473199128547
 30
0.0
 40
5.2069177763967094
 50
282.636972009573924
 51
284.2295480159663725
  0
ARC
  5
10F12
  8
0
 10
3788.9605591381427985
 20
2.0972114422292272
 30
0.0
 40
33.2120494346649622
 50
100.7565994322120986
 51
101.7381563735471985
  0
ARC
  5
10F13
  8
0
 10
3782.4220997881698167
 20
33.5646908403933821
 30
0.0
 40
1.072452200954418
 50
101.7381563735471985
 51
111.2408946763127062
  0
ARC
  5
10F14
  8
0
 10
3782.0927590339829294
 20
34.3939787492953926
 30
0.0
 40
0.1803028398362043
 50
109.1671208093279972
 51
143.9105696091650941
  0
ARC
  5
10F15
  8
0
 10
3782.0325746538701424
 20
34.4460264955338005
 30
0.0
 40
0.101225277782783
 50
147.6536565625569892
 51
227.7880317010856004
  0
ARC
  5
10F16
  8
0
 10
3782.7814259082838362
 20
36.8211397796078472
 30
0.0
 40
2.6058228522875941
 50
254.964312366861293
 51
258.1868690264228121
  0
ARC
  5
10F17
  8
0
 10
3782.2397095777560025
 20
34.8044522601577668
 30
0.0
 40
0.5176453852446637
 50
241.2332827551690002
 51
254.964312366861293
  0
ARC
  5
10F18
  8
0
 10
3782.0399897970928578
 20
34.440662916800207
 30
0.0
 40
0.1026385453868883
 50
222.7038325011401128
 51
241.2332827551688865
  0
ARC
  5
10F19
  8
0
 10
3782.4388144125250619
 20
32.2624848208736879
 30
0.0
 40
2.103425942613049
 50
74.9784880291724249
 51
79.0459201810746919
  0
ARC
  5
10F1A
  8
0
 10
3782.8178013537349216
 20
33.6747621426313515
 30
0.0
 40
0.6411816623513164
 50
66.9812530235152224
 51
74.9784880291723539
  0
ARC
  5
10F1B
  8
0
 10
3782.9957868090509692
 20
34.0936884428749778
 30
0.0
 40
0.1860134875630656
 50
44.7124184915356082
 51
66.981253023515066
  0
ARC
  5
10F1C
  8
0
 10
3783.0623055301230124
 20
34.1595427458357008
 30
0.0
 40
0.0924104455638229
 50
9.8024820436314855
 51
44.7124184915356082
  0
ARC
  5
10F1D
  8
0
 10
3783.0514759922830308
 20
34.1576716767086381
 30
0.0
 40
0.1034004314382478
 50
331.4359874288207948
 51
9.8024820436306825
  0
ARC
  5
10F1E
  8
0
 10
3782.6261565531331144
 20
35.4362690664585003
 30
0.0
 40
1.657306187612106
 50
252.2203499615999931
 51
256.8089346546419733
  0
ARC
  5
10F1F
  8
0
 10
3782.7725299109579282
 20
31.3325860321458904
 30
0.0
 40
2.608447982663995
 50
98.2117872024991811
 51
104.4850348696677003
  0
ARC
  5
10F20
  8
0
 10
3780.9931055263928101
 20
43.6629664324762885
 30
0.0
 40
9.8496671218466592
 50
278.2117872024991811
 51
280.5585881683517187
  0
ARC
  5
10F21
  8
0
 10
3782.3807554629238439
 20
36.3797485438134274
 30
0.0
 40
2.4356736765793601
 50
279.8629509412402854
 51
284.3346579387624047
  0
ARC
  5
10F22
  8
0
 10
3782.8484195113201167
 20
34.5589188722611311
 30
0.0
 40
0.5557515237216341
 50
284.0982033581408928
 51
294.0989815460040973
  0
ARC
  5
10F23
  8
0
 10
3782.9999748962231934
 20
34.216264191494723
 30
0.0
 40
0.1810866724803846
 50
294.5940659062868008
 51
312.3818424658043114
  0
ARC
  5
10F24
  8
0
 10
3783.0545683365808145
 20
34.1564386813346132
 30
0.0
 40
0.1000957137498559
 50
312.3818424658040271
 51
331.209509999383215
  0
LINE
  5
10F25
  8
0
 10
3782.8385120395159902
 20
34.1612599384680067
 30
0.0
 11
3782.8618768126461873
 21
34.1588611685372783
 31
0.0
  0
LINE
  5
10F26
  8
0
 10
3782.8618768126461873
 20
34.1588611685372783
 30
0.0
 11
3782.7116844507650057
 21
34.1306140496680115
 31
0.0
  0
ARC
  5
10F27
  8
0
 10
3800.3405258338189014
 20
-72.56547279188716
 30
0.0
 40
108.1426418939796008
 50
99.3819242952744304
 51
99.6495874568520037
  0
ARC
  5
10F28
  8
0
 10
3782.4219274466267962
 20
32.820879437826342
 30
0.0
 40
1.243814003087037
 50
99.6495874568520037
 51
106.4090587541799948
  0
ARC
  5
10F29
  8
0
 10
3782.1879496090668908
 20
33.6154041231084335
 30
0.0
 40
0.4155537155010592
 50
106.4090587541799948
 51
120.5924692312272981
  0
ARC
  5
10F2A
  8
0
 10
3782.0313792168049076
 20
33.8897718626763833
 30
0.0
 40
0.0998106285016701
 50
123.3813102078020023
 51
191.7362527755551866
  0
ARC
  5
10F2B
  8
0
 10
3782.580541619242922
 20
35.6968186321370098
 30
0.0
 40
1.9953586337177489
 50
254.7392061502897036
 51
260.4053205475241271
  0
ARC
  5
10F2C
  8
0
 10
3782.1243134677451962
 20
34.0246345753892285
 30
0.0
 40
0.2620543771427553
 50
233.4205623976694994
 51
254.7392061502897036
  0
ARC
  5
10F2D
  8
0
 10
3782.0333334263218603
 20
33.8932715072055188
 30
0.0
 40
0.1024806085924984
 50
193.4299701651308965
 51
230.4984773334047929
  0
ARC
  5
10F2E
  8
0
 10
3782.6049475104518933
 20
35.1762911046810771
 30
0.0
 40
1.840462416749199
 50
255.6655824158877977
 51
258.8149156530889172
  0
ARC
  5
10F2F
  8
0
 10
3785.8932573032529945
 20
9.9114049141563232
 30
0.0
 40
23.7783227110013513
 50
97.4944633772470866
 51
99.0591026565330708
  0
ARC
  5
10F30
  8
0
 10
3782.510674597237994
 20
35.6238711075845984
 30
0.0
 40
2.155685531289782
 50
277.4944633772470866
 51
282.9786138094876264
  0
ARC
  5
10F31
  8
0
 10
3782.6078839218771463
 20
32.2408585017825828
 30
0.0
 40
1.580204091491874
 50
74.1438421834338612
 51
81.6078023916003445
  0
ARC
  5
10F32
  8
0
 10
3782.9692662069201106
 20
33.5131951759505
 30
0.0
 40
0.2575409566100276
 50
55.3546723003380876
 51
74.1438421834338612
  0
ARC
  5
10F33
  8
0
 10
3783.066190081836794
 20
33.6534568021771889
 30
0.0
 40
0.0870488414828161
 50
21.1823028729406211
 51
55.3546723003382013
  0
ARC
  5
10F34
  8
0
 10
3783.0543405230409917
 20
33.6462475345180323
 30
0.0
 40
0.1007323303277417
 50
337.4294248720169094
 51
22.5705751279643785
  0
ARC
  5
10F35
  8
0
 10
3782.8498214257269865
 20
34.1519530097368289
 30
0.0
 40
0.6452010294654169
 50
282.9867133695054804
 51
289.392752121033709
  0
ARC
  5
10F36
  8
0
 10
3783.0010087852401739
 20
33.7224598274459808
 30
0.0
 40
0.1898747603890956
 50
289.392752121033709
 51
310.3038603920796845
  0
ARC
  5
10F37
  8
0
 10
3783.0621794272278748
 20
33.6503397334891972
 30
0.0
 40
0.0953065025347087
 50
310.3038603920796845
 51
333.3454974233094958
  0
ARC
  5
10F38
  8
0
 10
3782.5397539863970451
 20
35.4087117116853634
 30
0.0
 40
2.1493278208821458
 50
257.381787688115196
 51
262.1974204029415887
  0
ARC
  5
10F39
  8
0
 10
3782.1495646592929916
 20
33.665707665944673
 30
0.0
 40
0.3631837017096712
 50
242.2566786681121016
 51
257.381787688115196
  0
ARC
  5
10F3A
  8
0
 10
3782.0202455498560994
 20
33.4198429219508881
 30
0.0
 40
0.0853835857907326
 50
210.2068355740912011
 51
242.2566786681121016
  0
ARC
  5
10F3B
  8
0
 10
3782.0364817870508887
 20
33.4292952310220315
 30
0.0
 40
0.1041708566155368
 50
167.2985891345923903
 51
210.2068355740910022
  0
ARC
  5
10F3C
  8
0
 10
3782.0260087206138451
 20
33.4256817773839714
 30
0.0
 40
0.0949276212706733
 50
139.0775661534788981
 51
163.7789100885719904
  0
ARC
  5
10F3D
  8
0
 10
3782.0405838984488582
 20
33.4130463699553388
 30
0.0
 40
0.1142172384216366
 50
118.9366096803250059
 51
139.0775661534788981
  0
ARC
  5
10F3E
  8
0
 10
3782.1157383259801463
 20
33.2771097230109802
 30
0.0
 40
0.2695457932976628
 50
102.1855744397215062
 51
118.9366096803250059
  0
ARC
  5
10F3F
  8
0
 10
3782.3981602152061896
 20
32.2017307570763833
 30
0.0
 40
1.3811806272122611
 50
99.6538374810832437
 51
104.2215442491294937
  0
ARC
  5
10F40
  8
0
 10
3783.6028356370670735
 20
24.87120049346467
 30
0.0
 40
8.81001933084036
 50
97.1782783005098452
 51
99.3827810636460782
  0
ARC
  5
10F41
  8
0
 10
3781.5297251555120965
 20
41.4021129104651919
 30
0.0
 40
7.8503809998139928
 50
277.1141020063330984
 51
280.4430541313078038
  0
ARC
  5
10F42
  8
0
 10
3783.291844425367799
 20
35.0620280392979566
 30
0.0
 40
1.4213209005056311
 50
251.4004741113257921
 51
256.1941526379549146
  0
ARC
  5
10F43
  8
0
 10
3782.0178796611180587
 20
29.7362729886096986
 30
0.0
 40
0.088150887095726
 50
104.9894775299477061
 51
146.8163048655337946
  0
ARC
  5
10F44
  8
0
 10
3782.1076023775772228
 20
29.40117710052197
 30
0.0
 40
0.4350506133307964
 50
91.7982562882408786
 51
104.9894775299477061
  0
ARC
  5
10F45
  8
0
 10
3783.0442709242502133
 20
17.130095169688289
 30
0.0
 40
12.7414076446823508
 50
92.4956198502737976
 51
94.2773899181176773
  0
ARC
  5
10F46
  8
0
 10
3780.8154210736470304
 20
65.0420206681367858
 30
0.0
 40
35.2224070302233372
 50
272.7241801178324749
 51
273.37088179958198
  0
ARC
  5
10F47
  8
0
 10
3782.8636421400360632
 20
31.0476427495475917
 30
0.0
 40
1.1673118148527999
 50
271.1203084372739909
 51
280.917236139130182
  0
ARC
  5
10F48
  8
0
 10
3783.0622478737700476
 20
29.9945817650927289
 30
0.0
 40
0.0957976777605035
 50
283.5669931005035096
 51
317.188936845023818
  0
ARC
  5
10F49
  8
0
 10
3783.0639815741360508
 20
29.9873236131142491
 30
0.0
 40
0.089689216858284
 50
319.8386938064044784
 51
14.6714415022023701
  0
ARC
  5
10F4A
  8
0
 10
3783.0665313030158359
 20
29.9837273179020087
 30
0.0
 40
0.0882299506638057
 50
17.3510408582561908
 51
74.1310576162566122
  0
ARC
  5
10F4B
  8
0
 10
3783.0659785168791132
 20
30.1478278817019003
 30
0.0
 40
0.0894897169875359
 50
28.8645309487971389
 51
74.1212199925461022
  0
ARC
  5
10F4C
  8
0
 10
3783.0721269700038647
 20
30.1512170457700606
 30
0.0
 40
0.0824690397466694
 50
325.5626803868021852
 51
28.8645309487971389
  0
ARC
  5
10F4D
  8
0
 10
3783.0646981704639984
 20
30.1563107614655905
 30
0.0
 40
0.0914764257267138
 50
286.4855199130361143
 51
325.5626803868022989
  0
ARC
  5
10F4E
  8
0
 10
3782.3399793404810225
 20
27.8130107260515693
 30
0.0
 40
2.2017343426860378
 50
91.6682896241598968
 51
98.8595964605603967
  0
ARC
  5
10F4F
  8
0
 10
3782.0292834668712203
 20
38.4805416856501168
 30
0.0
 40
8.4703202251969163
 50
271.668289624159911
 51
274.171447269759085
  0
ARC
  5
10F50
  8
0
 10
3783.2553735231440442
 20
21.6696810457388409
 30
0.0
 40
8.3851931837921878
 50
92.2938043119450242
 51
94.1714472697591845
  0
ARC
  5
10F51
  8
0
 10
3782.8698143155820617
 20
31.2952240148060099
 30
0.0
 40
1.248068639281799
 50
272.2938043119451095
 51
278.966525860161596
  0
ARC
  5
10F52
  8
0
 10
3783.0362166235618133
 20
30.241103836659601
 30
0.0
 40
0.1808952523225062
 50
278.9423361443493263
 51
287.5145590242394746
  0
ARC
  5
10F53
  8
0
 10
3782.0252533453140131
 20
29.8897436191774304
 30
0.0
 40
0.1016953759629231
 50
103.8658144559433936
 51
133.8928753351410137
  0
ARC
  5
10F54
  8
0
 10
3782.0108517655330616
 20
29.9047127999472089
 30
0.0
 40
0.0809232342072514
 50
133.8928753351599994
 51
196.8041982927487084
  0
ARC
  5
10F55
  8
0
 10
3782.0172323933238658
 20
29.9059665937228587
 30
0.0
 40
0.0873962483593219
 50
196.3817365019073122
 51
255.3171262960599108
  0
ARC
  5
10F56
  8
0
 10
3782.0171000185810044
 20
30.0691603201113509
 30
0.0
 40
0.0858380356254474
 50
105.5095026519593944
 51
254.3557889456004943
  0
ARC
  5
10F57
  8
0
 10
3782.0160160164327863
 20
30.2345671215431686
 30
0.0
 40
0.0855372683928023
 50
104.6751306179090051
 51
255.1869738320197882
  0
ARC
  5
10F58
  8
0
 10
3782.0160653708130667
 20
30.4000000367728482
 30
0.0
 40
0.0854909834974681
 50
104.7511335968692947
 51
255.2825491513395093
  0
ARC
  5
10F59
  8
0
 10
3782.0172935101859366
 20
30.5660954126037012
 30
0.0
 40
0.0865335771962457
 50
94.1670388607329585
 51
254.5887191678027079
  0
ARC
  5
10F5A
  8
0
 10
3782.0980312767278519
 20
30.0896556096791592
 30
0.0
 40
0.4064770589329692
 50
94.5510823671137501
 51
104.7855482419227968
  0
ARC
  5
10F5B
  8
0
 10
3783.1395545448558551
 20
17.0050030379201509
 30
0.0
 40
13.5325162041470595
 50
93.6350498123361064
 51
94.5510823671137501
  0
ARC
  5
10F5C
  8
0
 10
3783.4999622909899699
 20
11.3318677117490001
 30
0.0
 40
19.2170881469167405
 50
92.2286805726958931
 51
93.6350498123361064
  0
ARC
  5
10F5D
  8
0
 10
3782.5841953784060934
 20
34.8628816334377234
 30
0.0
 40
4.3317386863013496
 50
272.2286805726957937
 51
274.6836025966323973
  0
ARC
  5
10F5E
  8
0
 10
3782.8324372562751705
 20
32.2141791723555571
 30
0.0
 40
1.6719010016428799
 50
273.6164566791675838
 51
277.8177570562359051
  0
ARC
  5
10F5F
  8
0
 10
3783.0509700584079837
 20
30.6626909639680889
 30
0.0
 40
0.1052492747199456
 50
274.8418018696431204
 51
291.95818540026238
  0
ARC
  5
10F60
  8
0
 10
3782.0986454568060253
 20
29.9245506336255893
 30
0.0
 40
0.4063759157467225
 50
93.9801558870586859
 51
104.8718017207011002
  0
ARC
  5
10F61
  8
0
 10
3784.0746064074692185
 20
1.441425303702125
 30
0.0
 40
28.9579581794158187
 50
93.2336357006661132
 51
93.9685889310302684
  0
ARC
  5
10F62
  8
0
 10
3784.4261558132470782
 20
-4.7809537156643946
 30
0.0
 40
35.1902601333775422
 50
92.6283040053551758
 51
93.2336357006661132
  0
ARC
  5
10F63
  8
0
 10
3782.6339067178591904
 20
34.2618168199922195
 30
0.0
 40
3.8936251381746421
 50
272.6283040053551758
 51
275.829200124101078
  0
ARC
  5
10F64
  8
0
 10
3782.9965840857530566
 20
30.7093333553265602
 30
0.0
 40
0.3226765751307991
 50
275.829200124101078
 51
290.1739804387033814
  0
ARC
  5
10F65
  8
0
 10
3783.0671439843549706
 20
30.482231736251169
 30
0.0
 40
0.0860273437310608
 50
298.2528529358298783
 51
74.3671792847266317
  0
ARC
  5
10F66
  8
0
 10
3783.068280604345091
 20
30.3173826608187618
 30
0.0
 40
0.0859761106575747
 50
307.6781816641292835
 51
75.2509675269186147
  0
ARC
  5
10F67
  8
0
 10
3783.0614168342490302
 20
30.3286516630947887
 30
0.0
 40
0.099101036176504
 50
287.0435340901727841
 51
306.8366295337856968
  0
ARC
  5
10F68
  8
0
 10
3782.9958482829779314
 20
30.5905930421601902
 30
0.0
 40
0.3690255077929645
 50
277.8695543713388929
 51
284.8560354670667039
  0
ARC
  5
10F69
  8
0
 10
3782.8095649347710605
 20
31.9383248080335989
 30
0.0
 40
1.7295703981084409
 50
271.4733559246898835
 51
277.8695543713388929
  0
ARC
  5
10F6A
  8
0
 10
3779.7193055049920076
 20
86.4718988470638976
 30
0.0
 40
56.3498324057106927
 50
272.7606933747608196
 51
273.1889993975786979
  0
ARC
  5
10F6B
  8
0
 10
3783.2643364227519669
 20
12.9962871600819607
 30
0.0
 40
17.2112494925403183
 50
92.7673414289074003
 51
93.5918533570626607
  0
ARC
  5
10F6C
  8
0
 10
3782.2223652227958155
 20
29.0013599730884906
 30
0.0
 40
1.1729292225931689
 50
91.7729797272674261
 51
101.219670079681805
  0
ARC
  5
10F6D
  8
0
 10
3783.0657095006531563
 20
29.818189136155631
 30
0.0
 40
0.0885626945586485
 50
3.5838638705387669
 51
73.5585138809779835
  0
ARC
  5
10F6E
  8
0
 10
3783.0751391776120727
 20
29.8206681523108088
 30
0.0
 40
0.0790189765981572
 50
332.7767126961948065
 51
2.217141702895034
  0
ARC
  5
10F6F
  8
0
 10
3783.0675988574239454
 20
30.6485087074044316
 30
0.0
 40
0.0864719826013203
 50
285.2377853891329096
 51
73.359816381909809
  0
ARC
  5
10F70
  8
0
 10
3782.633087952769074
 20
25.329916062805939
 30
0.0
 40
5.3587147905659709
 50
91.5860881185939348
 51
96.6663818428603889
  0
ARC
  5
10F71
  8
0
 10
3782.2524460063518745
 20
39.0766969441490772
 30
0.0
 40
8.393334979960386
 50
271.5860881185939206
 51
274.9960090128187176
  0
ARC
  5
10F72
  8
0
 10
3782.8646983595658639
 20
32.0730017440526467
 30
0.0
 40
1.3629296289247881
 50
274.9960090128187176
 51
278.5478928401777807
  0
ARC
  5
10F73
  8
0
 10
3783.0462008299969057
 20
30.8654460003819011
 30
0.0
 40
0.1418096426642567
 50
278.5478928401777807
 51
288.9963574563761881
  0
ARC
  5
10F74
  8
0
 10
3783.0649695964111743
 20
30.8104581583987205
 30
0.0
 40
0.0894897169875359
 50
28.8645309487971389
 51
74.1212199925461022
  0
ARC
  5
10F75
  8
0
 10
3783.0711180495359258
 20
30.8138473224668807
 30
0.0
 40
0.0824690397466694
 50
325.5626803868021852
 51
28.8645309487971389
  0
ARC
  5
10F76
  8
0
 10
3783.0584513111971319
 20
30.8240358868912487
 30
0.0
 40
0.09868533943541
 50
290.0972330414365956
 51
324.8428012930542081
  0
ARC
  5
10F77
  8
0
 10
3782.0160910981130655
 20
30.731790596808171
 30
0.0
 40
0.0858380356254474
 50
105.5095026519593944
 51
254.3557889456004943
  0
ARC
  5
10F78
  8
0
 10
3782.0150070959639379
 20
30.8971973982399888
 30
0.0
 40
0.0855372683928023
 50
104.6751306179090051
 51
255.1869738320197882
  0
ARC
  5
10F79
  8
0
 10
3782.0150564503442183
 20
31.0626303134696684
 30
0.0
 40
0.0854909834974681
 50
104.7511335968692947
 51
255.2825491513395093
  0
ARC
  5
10F7A
  8
0
 10
3782.0162845897179977
 20
31.2287256893005214
 30
0.0
 40
0.0865335771962457
 50
94.1670388607329585
 51
254.5887191678027079
  0
ARC
  5
10F7B
  8
0
 10
3782.0970223562599131
 20
30.7522858863759794
 30
0.0
 40
0.4064770589329692
 50
94.5510823671137501
 51
104.7855482419227968
  0
ARC
  5
10F7C
  8
0
 10
3783.1385456243879162
 20
17.6676333146169711
 30
0.0
 40
13.5325162041470595
 50
93.6350498123361064
 51
94.5510823671137501
  0
ARC
  5
10F7D
  8
0
 10
3783.498953370522031
 20
11.9944979884458203
 30
0.0
 40
19.2170881469167405
 50
92.2286805726958931
 51
93.6350498123361064
  0
ARC
  5
10F7E
  8
0
 10
3782.5831864579381545
 20
35.52551191013454
 30
0.0
 40
4.3317386863013496
 50
272.2286805726957937
 51
274.6836025966323973
  0
ARC
  5
10F7F
  8
0
 10
3782.8314283358058674
 20
32.8768094490523666
 30
0.0
 40
1.6719010016428799
 50
273.6164566791675838
 51
277.8177570562359051
  0
ARC
  5
10F80
  8
0
 10
3783.0499611379400449
 20
31.3253212406649091
 30
0.0
 40
0.1052492747199456
 50
274.8418018696431204
 51
291.95818540026238
  0
ARC
  5
10F81
  8
0
 10
3782.0976365363371769
 20
30.5871809103224095
 30
0.0
 40
0.4063759157467225
 50
93.9801558870586859
 51
104.8718017207011002
  0
ARC
  5
10F82
  8
0
 10
3784.0735974870008249
 20
2.104055580398942
 30
0.0
 40
28.9579581794158187
 50
93.2336357006661132
 51
93.9685889310302684
  0
ARC
  5
10F83
  8
0
 10
3784.4251468927777751
 20
-4.118323438967578
 30
0.0
 40
35.1902601333775422
 50
92.6283040053551758
 51
93.2336357006661132
  0
ARC
  5
10F84
  8
0
 10
3782.6328977973898873
 20
34.9244470966890432
 30
0.0
 40
3.8936251381746421
 50
272.6283040053551758
 51
275.829200124101078
  0
ARC
  5
10F85
  8
0
 10
3782.9955751652842082
 20
31.3719636320233803
 30
0.0
 40
0.3226765751307991
 50
275.829200124101078
 51
290.1739804387033814
  0
ARC
  5
10F86
  8
0
 10
3783.0661350638870317
 20
31.1448620129479892
 30
0.0
 40
0.0860273437310608
 50
298.2528529358298783
 51
74.3671792847266317
  0
ARC
  5
10F87
  8
0
 10
3783.0672716838771521
 20
30.9800129375155784
 30
0.0
 40
0.0859761106575747
 50
307.6781816641292835
 51
75.2509675269186147
  0
ARC
  5
10F88
  8
0
 10
3783.0604079137820008
 20
30.9912819397916088
 30
0.0
 40
0.099101036176504
 50
287.0435340901727841
 51
306.8366295337856968
  0
ARC
  5
10F89
  8
0
 10
3782.9948393625099925
 20
31.2532233188570103
 30
0.0
 40
0.3690255077929645
 50
277.8695543713388929
 51
284.8560354670667039
  0
ARC
  5
10F8A
  8
0
 10
3782.8085560143022121
 20
32.6009550847304226
 30
0.0
 40
1.7295703981084409
 50
271.4733559246898835
 51
277.8695543713388929
  0
ARC
  5
10F8B
  8
0
 10
3779.7182965845249782
 20
87.1345291237607285
 30
0.0
 40
56.3498324057106927
 50
272.7606933747608196
 51
273.1889993975786979
  0
ARC
  5
10F8C
  8
0
 10
3783.2633275022849375
 20
13.6589174367787791
 30
0.0
 40
17.2112494925403183
 50
92.7673414289074003
 51
93.5918533570626607
  0
ARC
  5
10F8D
  8
0
 10
3782.2213563023278766
 20
29.6639902497853214
 30
0.0
 40
1.1729292225931689
 50
91.7729797272674261
 51
101.219670079681805
  0
ARC
  5
10F8E
  8
0
 10
3783.0665899369560066
 20
31.3111389841012517
 30
0.0
 40
0.0864719826013203
 50
285.2377853891329096
 51
73.359816381909809
  0
ARC
  5
10F8F
  8
0
 10
3782.6320790323011352
 20
25.9925463395027592
 30
0.0
 40
5.3587147905659709
 50
91.5860881185939348
 51
96.6663818428603889
  0
ARC
  5
10F90
  8
0
 10
3782.2514370858830262
 20
39.739327220845901
 30
0.0
 40
8.393334979960386
 50
271.5860881185939206
 51
274.9960090128187176
  0
ARC
  5
10F91
  8
0
 10
3782.8636894390979251
 20
32.7356320207494633
 30
0.0
 40
1.3629296289247881
 50
274.9960090128187176
 51
278.5478928401777807
  0
ARC
  5
10F92
  8
0
 10
3783.0451919095289668
 20
31.5280762770787106
 30
0.0
 40
0.1418096426642567
 50
278.5478928401777807
 51
288.9963574563761881
  0
ARC
  5
10F93
  8
0
 10
3782.0127413856898784
 20
31.3941382462854897
 30
0.0
 40
0.0855372683928023
 50
104.6751306179090051
 51
255.1869738320197882
  0
ARC
  5
10F94
  8
0
 10
3782.0127907400701588
 20
31.5595711615151693
 30
0.0
 40
0.0854909834974681
 50
104.7511335968692947
 51
255.2825491513395093
  0
ARC
  5
10F95
  8
0
 10
3782.0140188794430287
 20
31.7256665373460187
 30
0.0
 40
0.0865335771962457
 50
94.1670388607329585
 51
254.5887191678027079
  0
ARC
  5
10F96
  8
0
 10
3782.094756645984944
 20
31.2492267344214802
 30
0.0
 40
0.4064770589329692
 50
94.5510823671137501
 51
104.7855482419227968
  0
ARC
  5
10F97
  8
0
 10
3783.1362799141129472
 20
18.1645741626624684
 30
0.0
 40
13.5325162041470595
 50
93.6350498123361064
 51
94.5510823671137501
  0
ARC
  5
10F98
  8
0
 10
3783.496687660247062
 20
12.4914388364913105
 30
0.0
 40
19.2170881469167405
 50
92.2286805726958931
 51
93.6350498123361064
  0
ARC
  5
10F99
  8
0
 10
3782.5809207476631855
 20
36.0224527581800373
 30
0.0
 40
4.3317386863013496
 50
272.2286805726957937
 51
274.6836025966323973
  0
ARC
  5
10F9A
  8
0
 10
3782.8291626255318079
 20
33.373750297097871
 30
0.0
 40
1.6719010016428799
 50
273.6164566791675838
 51
277.8177570562359051
  0
ARC
  5
10F9B
  8
0
 10
3783.0476954276650758
 20
31.82226208871041
 30
0.0
 40
0.1052492747199456
 50
274.8418018696431204
 51
291.95818540026238
  0
ARC
  5
10F9C
  8
0
 10
3782.0953708260631174
 20
31.0841217583679104
 30
0.0
 40
0.4063759157467225
 50
93.9801558870586859
 51
104.8718017207011002
  0
ARC
  5
10F9D
  8
0
 10
3784.0713317767258559
 20
2.600996428444442
 30
0.0
 40
28.9579581794158187
 50
93.2336357006661132
 51
93.9685889310302684
  0
ARC
  5
10F9E
  8
0
 10
3784.4228811825041703
 20
-3.621382590922078
 30
0.0
 40
35.1902601333775422
 50
92.6283040053551758
 51
93.2336357006661132
  0
ARC
  5
10F9F
  8
0
 10
3782.6306320871158277
 20
35.4213879447345406
 30
0.0
 40
3.8936251381746421
 50
272.6283040053551758
 51
275.829200124101078
  0
ARC
  5
10FA0
  8
0
 10
3782.9933094550087844
 20
31.8689044800688812
 30
0.0
 40
0.3226765751307991
 50
275.829200124101078
 51
290.1739804387033814
  0
ARC
  5
10FA1
  8
0
 10
3783.0638693536120627
 20
31.64180286099349
 30
0.0
 40
0.0860273437310608
 50
298.2528529358298783
 51
74.3671792847266317
  0
ARC
  5
10FA2
  8
0
 10
3783.0650059736030926
 20
31.4769537855610793
 30
0.0
 40
0.0859761106575747
 50
307.6781816641292266
 51
75.2509675269186147
  0
ARC
  5
10FA3
  8
0
 10
3783.0218322231598904
 20
31.5465836452263702
 30
0.0
 40
0.1676840082592692
 50
294.4934066128612926
 51
304.8104117333264753
  0
ARC
  5
10FA4
  8
0
 10
3783.064324226681947
 20
31.8080798321467597
 30
0.0
 40
0.0864719826013203
 50
285.2377853891329096
 51
73.359816381909809
  0
ARC
  5
10FA5
  8
0
 10
3782.6298133220270756
 20
26.48948718754826
 30
0.0
 40
5.3587147905659709
 50
91.5860881185939348
 51
96.6663818428603889
  0
ARC
  5
10FA6
  8
0
 10
3782.2491713756089666
 20
40.2362680688913983
 30
0.0
 40
8.393334979960386
 50
271.5860881185939206
 51
274.9960090128187176
  0
ARC
  5
10FA7
  8
0
 10
3782.861423728822956
 20
33.2325728687949677
 30
0.0
 40
1.3629296289247881
 50
274.9960090128187176
 51
278.5478928401777807
  0
ARC
  5
10FA8
  8
0
 10
3783.0429261992539978
 20
32.025017125124208
 30
0.0
 40
0.1418096426642567
 50
278.5478928401777807
 51
288.9963574563761881
  0
ARC
  5
10FA9
  8
0
 10
3782.0106446804620646
 20
31.8911308261805004
 30
0.0
 40
0.0855372683928023
 50
104.6751306179090051
 51
255.1869738320197882
  0
ARC
  5
10FAA
  8
0
 10
3782.0106940348418902
 20
32.0565637414101801
 30
0.0
 40
0.0854909834974681
 50
104.7511335968692947
 51
255.2825491513395093
  0
ARC
  5
10FAB
  8
0
 10
3782.0227241020538713
 20
32.2244540479603216
 30
0.0
 40
0.0916746326731897
 50
101.5593539871200051
 51
248.3662581470310897
  0
ARC
  5
10FAC
  8
0
 10
3782.0926599407571302
 20
31.746219314316491
 30
0.0
 40
0.4064770589329692
 50
94.5510823671137501
 51
104.7855482419227968
  0
ARC
  5
10FAD
  8
0
 10
3783.1341832088860428
 20
18.6615667425574792
 30
0.0
 40
13.5325162041470595
 50
93.6350498123361064
 51
94.5510823671137501
  0
ARC
  5
10FAE
  8
0
 10
3783.4945909550187935
 20
12.9884314163863195
 30
0.0
 40
19.2170881469167405
 50
92.2286805726958931
 51
93.6350498123361064
  0
ARC
  5
10FAF
  8
0
 10
3782.5788240424349169
 20
36.5194453380750517
 30
0.0
 40
4.3317386863013496
 50
272.2286805726957937
 51
274.6836025966323973
  0
ARC
  5
10FB0
  8
0
 10
3782.8270659203039941
 20
33.8707428769928782
 30
0.0
 40
1.6719010016428799
 50
273.6164566791675838
 51
277.8177570562359051
  0
ARC
  5
10FB1
  8
0
 10
3783.0455987224368073
 20
32.3192546686054172
 30
0.0
 40
0.1052492747199456
 50
274.8418018696431204
 51
291.95818540026238
  0
ARC
  5
10FB2
  8
0
 10
3782.0932741208348489
 20
31.5811143382629211
 30
0.0
 40
0.4063759157467225
 50
93.9801558870586859
 51
104.8718017207011002
  0
ARC
  5
10FB3
  8
0
 10
3784.0692350714980421
 20
3.0979890083394528
 30
0.0
 40
28.9579581794158187
 50
93.2336357006661132
 51
93.9685889310302684
  0
ARC
  5
10FB4
  8
0
 10
3784.4207844772749922
 20
-3.1243900110270668
 30
0.0
 40
35.1902601333775422
 50
92.6283040053551758
 51
93.2336357006661132
  0
ARC
  5
10FB5
  8
0
 10
3782.6285353818880139
 20
35.9183805246295478
 30
0.0
 40
3.8936251381746421
 50
272.6283040053551758
 51
275.829200124101078
  0
ARC
  5
10FB6
  8
0
 10
3782.9912127497809706
 20
32.365897059963892
 30
0.0
 40
0.3226765751307991
 50
275.829200124101078
 51
290.1739804387033814
  0
ARC
  5
10FB7
  8
0
 10
3783.0617726483837941
 20
32.1387954408885008
 30
0.0
 40
0.0860273437310608
 50
298.2528529358298783
 51
74.3671792847266317
  0
ARC
  5
10FB8
  8
0
 10
3783.062909268374824
 20
31.97394636545609
 30
0.0
 40
0.0859761106575747
 50
307.6781816641292266
 51
75.2509675269186147
  0
ARC
  5
10FB9
  8
0
 10
3783.021395312282948
 20
32.040908445615969
 30
0.0
 40
0.164546203081113
 50
294.2915725683458277
 51
304.8661834826050949
  0
ARC
  5
10FBA
  8
0
 10
3782.6807625597130027
 20
35.5829188107056495
 30
0.0
 40
3.2938419478338421
 50
258.1820958435682201
 51
260.5873290193545131
  0
ARC
  5
10FBB
  8
0
 10
3782.0257904350410172
 20
32.4526310025952895
 30
0.0
 40
0.0957659253321812
 50
208.4691883507545072
 51
258.1820958435682201
  0
ARC
  5
10FBC
  8
0
 10
3782.0163673329689118
 20
32.4475212349912923
 30
0.0
 40
0.0850465700508376
 50
134.5702703231058877
 51
208.4691883507535977
  0
ARC
  5
10FBD
  8
0
 10
3782.0364883417591955
 20
32.4270961165260019
 30
0.0
 40
0.1137178180016929
 50
98.4132148090537555
 51
134.5702703231056034
  0
ARC
  5
10FBE
  8
0
 10
3782.9678801165350706
 20
26.1297739954602086
 30
0.0
 40
6.4795450646825783
 50
96.6143355963204584
 51
98.4132148090537555
  0
ARC
  5
10FBF
  8
0
 10
3786.5425435909678527
 20
-18.0019079299675191
 30
0.0
 40
50.7523772876562091
 50
94.352607899202809
 51
94.8840266903995087
  0
ARC
  5
10FC0
  8
0
 10
3782.5783499157910228
 20
35.0577742089276612
 30
0.0
 40
2.4562534405859249
 50
272.6222989932908831
 51
280.6178465251966259
  0
ARC
  5
10FC1
  8
0
 10
3783.003118375566828
 20
32.7919475254871102
 30
0.0
 40
0.1509554546821666
 50
280.6178465251966259
 51
302.2591900346922102
  0
ARC
  5
10FC2
  8
0
 10
3782.2798188679039413
 20
27.0859060805768905
 30
0.0
 40
5.643245692271039
 50
83.5232633749227631
 51
84.3182901622776058
  0
ARC
  5
10FC3
  8
0
 10
3782.6376958295118129
 20
30.2383311920611888
 30
0.0
 40
2.470571740670203
 50
81.3155239643350143
 51
83.5232633749227631
  0
ARC
  5
10FC4
  8
0
 10
3782.9195256724869978
 20
32.083440828019782
 30
0.0
 40
0.6040622633037996
 50
75.4167612116396953
 51
81.3155239643350143
  0
ARC
  5
10FC5
  8
0
 10
3783.0374588185009088
 20
32.5367367325317005
 30
0.0
 40
0.1356763070924982
 50
70.0772664587051537
 51
75.4167612116396526
  0
ARC
  5
10FC6
  8
0
 10
3783.0385606878739964
 20
32.5397768436758668
 30
0.0
 40
0.132442672622487
 50
41.5952482789260003
 51
70.0772664587051537
  0
ARC
  5
10FC7
  8
0
 10
3783.0686044962899359
 20
32.5757969435527528
 30
0.0
 40
0.0863454824576018
 50
325.226790460692996
 51
36.95003078277756
  0
ARC
  5
10FC8
  8
0
 10
3782.3908443937762058
 20
30.4509523891492115
 30
0.0
 40
1.9572808253239571
 50
94.1863754133967461
 51
101.954319597765604
  0
ARC
  5
10FC9
  8
0
 10
3780.4522230136099097
 20
56.9361761901711034
 30
0.0
 40
24.5987981895805987
 50
274.1863754133967177
 51
275.0498180497285148
  0
ARC
  5
10FCA
  8
0
 10
3772.2577505532249234
 20
149.670676053467389
 30
0.0
 40
117.6946458080414999
 50
275.0498180497285148
 51
275.204936652236313
  0
ARC
  5
10FCB
  8
0
 10
3782.8476499723178677
 20
33.4182455028236021
 30
0.0
 40
0.9608735797837841
 50
275.204936652236313
 51
283.7440265859505075
  0
ARC
  5
10FCC
  8
0
 10
3783.0491991770591085
 20
32.5950538299208006
 30
0.0
 40
0.1133676674541329
 50
283.642678209981284
 51
322.8252011585018977
  0
ARC
  5
10FCD
  8
0
 10
3782.3161272262750572
 20
26.0885892885030302
 30
0.0
 40
6.3820812710874018
 50
84.2504094145241993
 51
85.3049850217802828
  0
ARC
  5
10FCE
  8
0
 10
3782.8654383597017841
 20
31.5441940435985693
 30
0.0
 40
0.8988918739274036
 50
74.7992056341460341
 51
84.2504094145241993
  0
ARC
  5
10FCF
  8
0
 10
3783.0828279621050569
 20
32.3442768630988482
 30
0.0
 40
0.0698015547868443
 50
8.2053786448896364
 51
74.7992056341460341
  0
ARC
  5
10FD0
  8
0
 10
3782.9899536198709029
 20
32.3335714400536318
 30
0.0
 40
0.1632746839492459
 50
349.6276622586576082
 51
7.2721213191484591
  0
ARC
  5
10FD1
  8
0
 10
3782.3236188391410906
 20
30.5235696753930483
 30
0.0
 40
1.818937918724109
 50
93.0067146741121462
 51
100.1090734799303021
  0
ARC
  5
10FD2
  8
0
 10
3781.6193709067561031
 20
44.4738769872518702
 30
0.0
 40
12.1491385589354604
 50
272.8725110233888813
 51
276.9589371781818272
  0
ARC
  5
10FD3
  8
0
 10
3783.0459741653448873
 20
32.3265941377454311
 30
0.0
 40
0.111958650030927
 50
290.3752925897180148
 51
324.3617050513634013
  0
ARC
  5
10FD4
  8
0
 10
3783.0661025118588441
 20
32.3074279289511423
 30
0.0
 40
0.0845202701238476
 50
326.9714749813135768
 51
357.7941588199274179
  0
ARC
  5
10FD5
  8
0
 10
3782.7791705432709932
 20
32.4958838084986326
 30
0.0
 40
0.874824267487568
 50
68.5773949240488321
 51
86.1104987479961039
  0
ARC
  5
10FD6
  8
0
 10
3783.0665022741118264
 20
33.228217346019143
 30
0.0
 40
0.0881401290146229
 50
6.3077211899729742
 51
68.5773949240488321
  0
ARC
  5
10FD7
  8
0
 10
3783.0561039175449878
 20
33.2270679383816017
 30
0.0
 40
0.0986018189930468
 50
312.3403171147721764
 51
6.3077211899735799
  0
ARC
  5
10FD8
  8
0
 10
3783.4414068016458259
 20
24.2114700834476118
 30
0.0
 40
8.8802341895695829
 50
95.7724528647241442
 51
98.1022243148333501
  0
ARC
  5
10FD9
  8
0
 10
3781.7183041252687872
 20
41.256607581899182
 30
0.0
 40
8.2517766432095172
 50
275.7724528647240732
 51
278.1007945769410981
  0
ARC
  5
10FDA
  8
0
 10
3782.6526775650359014
 20
34.6920102217106319
 30
0.0
 40
1.6210155838485929
 50
278.1007945769410981
 51
284.9032206890589123
  0
ARC
  5
10FDB
  8
0
 10
3783.0364991345159069
 20
33.2498289671546132
 30
0.0
 40
0.1286330028085853
 50
284.903220689059026
 51
311.9664818087084086
  0
ARC
  5
10FDC
  8
0
 10
3782.444560991310027
 20
34.0652368734566267
 30
0.0
 40
1.092291405471489
 50
256.5139677719442943
 51
259.6308971707042019
  0
ARC
  5
10FDD
  8
0
 10
3782.5843099479529883
 20
35.7635215988405193
 30
0.0
 40
2.8817431873604118
 50
260.0921231579346795
 51
263.2973176852888173
  0
ARC
  5
10FDE
  8
0
 10
3782.1790611048340907
 20
33.4434336862838322
 30
0.0
 40
0.5265288559583797
 50
249.5084898465377137
 51
260.0921231579346795
  0
ARC
  5
10FDF
  8
0
 10
3782.0294802856979004
 20
33.0431808222299992
 30
0.0
 40
0.0992388178851306
 50
208.8014479805750057
 51
249.5084898465376
  0
ARC
  5
10FE0
  8
0
 10
3782.0208021114572148
 20
33.0384096699653611
 30
0.0
 40
0.0893355556901074
 50
147.6697243826671126
 51
208.8014479805750057
  0
ARC
  5
10FE1
  8
0
 10
3782.0299279800951808
 20
33.0326337836873734
 30
0.0
 40
0.1001356640557593
 50
113.7901532592227056
 51
147.6697243826669137
  0
ARC
  5
10FE2
  8
0
 10
3782.146829349123891
 20
32.7674594823153811
 30
0.0
 40
0.3899344566497817
 50
97.6180356632931847
 51
113.7901532592227056
  0
ARC
  5
10FE3
  8
0
 10
3782.6822570748458929
 20
29.8113449019369092
 30
0.0
 40
3.393778881997692
 50
96.6528918914965089
 51
99.9622394277542412
  0
ARC
  5
10FE4
  8
0
 10
3782.5988461312808795
 20
31.9869516542556482
 30
0.0
 40
1.3125101914634221
 50
75.835374020815479
 51
79.4765301339168246
  0
ARC
  5
10FE5
  8
0
 10
3781.8434901742739385
 20
40.227835348377738
 30
0.0
 40
7.050945860852968
 50
275.8461246673979872
 51
278.7822714444188819
  0
ARC
  5
10FE6
  8
0
 10
3783.702667982148796
 20
22.0699749130862983
 30
0.0
 40
11.2018467394264594
 50
95.8461246673979588
 51
97.2496528224026235
  0
ARC
  5
10FE7
  8
0
 10
3782.7073556071600251
 20
28.9556618848913203
 30
0.0
 40
3.9183841734841089
 50
93.7641996700224496
 51
99.6505097348645705
  0
ARC
  5
10FE8
  8
0
 10
3778.6020474119818573
 20
74.9066446825488441
 30
0.0
 40
42.2167933309436023
 50
275.2297744881691983
 51
275.6504750716317176
  0
ARC
  5
10FE9
  8
0
 10
3783.3520091854270504
 20
28.1424369827513985
 30
0.0
 40
4.7894354634378731
 50
95.6847069332482363
 51
97.1160498897718725
  0
ARC
  5
10FEA
  8
0
 10
3782.9649492549228853
 20
33.6384680933275817
 30
0.0
 40
0.7353567058438293
 50
260.1028851122514993
 51
263.1776845660033928
  0
ARC
  5
10FEB
  8
0
 10
3782.2355671750251531
 20
27.9343610367672603
 30
0.0
 40
5.1052026273099811
 50
82.065025905599029
 51
83.2173082128340553
  0
ARC
  5
10FEC
  8
0
 10
3782.7500464738632218
 20
31.625462293672161
 30
0.0
 40
1.3784188345929409
 50
77.544721963911158
 51
82.065025905599029
  0
ARC
  5
10FED
  8
0
 10
3782.9934751367668468
 20
32.7275683511199134
 30
0.0
 40
0.2497491416418575
 50
64.3498894045916643
 51
77.544721963911158
  0
ARC
  5
10FEE
  8
0
 10
3783.0600768722488283
 20
32.8662654662393905
 30
0.0
 40
0.0958898523166195
 50
29.8673358983882906
 51
64.3498894045916643
  0
ARC
  5
10FEF
  8
0
 10
3783.0669055920170649
 20
32.8701869756880285
 30
0.0
 40
0.088015231689518
 50
345.0139378988752128
 51
29.8673358983884683
  0
ARC
  5
10FF0
  8
0
 10
3783.0657470674750584
 20
32.8704970993639876
 30
0.0
 40
0.0892145464150476
 50
309.2406009468778052
 51
345.0139378988737917
  0
ARC
  5
10FF1
  8
0
 10
3783.0371882165568422
 20
32.9054630924524503
 30
0.0
 40
0.134361292016173
 50
283.966160165947997
 51
309.2406009468778052
  0
ARC
  5
10FF2
  8
0
 10
3782.7770891512718663
 20
33.9512944838591935
 30
0.0
 40
1.2120508683848279
 50
279.5588027552822155
 51
283.966160165947997
  0
ARC
  5
10FF3
  8
0
 10
3782.626412486191839
 20
34.846060543970637
 30
0.0
 40
2.119415050908632
 50
274.7024304012991252
 51
279.5588027552822155
  0
ARC
  5
10FF4
  8
0
 10
3784.3365776411537809
 20
14.0557180573023395
 30
0.0
 40
18.7411459571325807
 50
94.7024304012991678
 51
96.4293233811515478
  0
ARC
  5
10FF5
  8
0
 10
3782.1544095863469011
 20
32.0709997669387405
 30
0.0
 40
0.6137145368704293
 50
81.231963819072007
 51
82.1784979976707746
  0
ARC
  5
10FF6
  8
0
 10
3782.1020157796838248
 20
32.5341476963555181
 30
0.0
 40
0.2890777159175552
 50
100.268197247223199
 51
113.917600773773799
  0
ARC
  5
10FF7
  8
0
 10
3782.0206557366532252
 20
32.7175949071122218
 30
0.0
 40
0.088398031503721
 50
113.917600773773998
 51
150.862792303105806
  0
ARC
  5
10FF8
  8
0
 10
3782.0222724848708822
 20
32.7166936609312273
 30
0.0
 40
0.0902490094833575
 50
150.8627923031062039
 51
207.309513470422587
  0
ARC
  5
10FF9
  8
0
 10
3782.0188458636371251
 20
32.7149243292365313
 30
0.0
 40
0.0863925515579347
 50
207.3095134704219902
 51
241.7270338828116962
  0
ARC
  5
10FFA
  8
0
 10
3782.0728998798540488
 20
32.8154271048715316
 30
0.0
 40
0.2005093539124264
 50
241.7270338828116962
 51
257.8997766896055737
  0
ARC
  5
10FFB
  8
0
 10
3782.2789434394521777
 20
33.7765161652349235
 30
0.0
 40
1.1834366810337511
 50
257.8997766896055737
 51
262.2151137580681279
  0
ARC
  5
10FFC
  8
0
 10
3782.569518242653885
 20
35.9019334752558592
 30
0.0
 40
3.3286248914228129
 50
262.2151137580681279
 51
264.4563720131500872
  0
LINE
  5
111B3
  8
0
 10
3776.0734855977161715
 20
39.2631243072180212
 30
0.0
 11
3776.1082115084141151
 21
39.3331747455680087
 31
0.0
  0
LINE
  5
111B4
  8
0
 10
3781.7532364489161409
 20
28.0565201799677588
 30
0.0
 11
3781.7532364489161409
 21
28.0645201799677615
 31
0.0
  0
LINE
  5
111B5
  8
0
 10
3783.3332364489151587
 20
28.0565201898249086
 30
0.0
 11
3783.3332364489151587
 21
28.0645201799677615
 31
0.0
  0
LINE
  5
111B6
  8
0
 10
3782.0682364489148313
 20
28.0445201799685009
 30
0.0
 11
3782.0682364489148313
 21
28.0565201799677588
 31
0.0
  0
LINE
  5
111B7
  8
0
 10
3783.0182364489160136
 20
28.0445201799700712
 30
0.0
 11
3783.0182364489160136
 21
28.0565201799677588
 31
0.0
  0
ARC
  5
111B8
  8
0
 10
3774.2525582697880964
 20
28.458439243137061
 30
0.0
 40
0.9740115360708848
 50
187.9370855025516107
 51
200.9285129179500871
  0
ARC
  5
111B9
  8
0
 10
3773.9220663534529194
 20
28.412361645982589
 30
0.0
 40
0.6403229810948106
 50
176.2796093474890995
 51
187.9370855025516107
  0
ARC
  5
111BA
  8
0
 10
3774.138546122362186
 20
28.3982851616473013
 30
0.0
 40
0.857259925293024
 50
160.4498234841327076
 51
176.2796093474890995
  0
ARC
  5
111BB
  8
0
 10
3774.4147319692251585
 20
28.4039526035433703
 30
0.0
 40
1.1199019990037831
 50
156.9791032969532978
 51
165.4578098589036017
  0
ARC
  5
111BC
  8
0
 10
3773.398251834300936
 20
28.1170406623146185
 30
0.0
 40
0.0150204902275132
 50
209.7855008419593901
 51
269.9413073556760878
  0
ARC
  5
111BD
  8
0
 10
3773.3999743232648143
 20
28.1180265622714884
 30
0.0
 40
0.0170051733142208
 50
200.4436734958709962
 51
209.7855008419597027
  0
ARC
  5
111BE
  8
0
 10
3774.4762780635451236
 20
28.5732800875562098
 30
0.0
 40
1.1856149085968779
 50
197.3275022186959973
 51
202.8917138239081055
  0
ARC
  5
111BF
  8
0
 10
3774.1716670357491239
 20
28.4831380232307687
 30
0.0
 40
0.8679930349410732
 50
181.3844841524154106
 51
197.6359015773130068
  0
ARC
  5
111C0
  8
0
 10
3774.0966806420638022
 20
28.4774509036651295
 30
0.0
 40
0.7929005853863305
 50
171.4683997584245105
 51
181.1045671745557968
  0
ARC
  5
111C1
  8
0
 10
3773.8666462282130851
 20
28.5302664123120095
 30
0.0
 40
0.5578700947916115
 50
163.8807564285596072
 51
173.3281237499886061
  0
LINE
  5
111C2
  8
0
 10
3773.3600526663158234
 20
28.1736044159680183
 30
0.0
 11
3773.3425403908158842
 21
28.1695765557680211
 31
0.0
  0
ARC
  5
111C3
  8
0
 10
3773.3452070491239283
 20
28.1579824952380093
 30
0.0
 40
0.0118967771311582
 50
102.9528789732995051
 51
180.4572494876738062
  0
ARC
  5
111C4
  8
0
 10
3773.3258043105311117
 20
28.1578276482194809
 30
0.0
 40
0.0075065793441194
 50
290.4568111034635081
 51
0.4572494876785653
  0
ARC
  5
111C5
  8
0
 10
3773.3273719584781247
 20
28.1475418707913114
 30
0.0
 40
0.0103928303377558
 50
300.0505905887401923
 51
352.5114254391497184
  0
ARC
  5
111C6
  8
0
 10
3740.6592155423600161
 20
28.1557616111112488
 30
0.0
 40
32.6784620071952006
 50
359.983213330888816
 51
0.0055956039469293
  0
ARC
  5
111C7
  8
0
 10
3773.3479607620010938
 20
28.1603027474662291
 30
0.0
 40
0.0103715648886173
 50
111.6316858020482954
 51
187.4773834956841938
  0
ARC
  5
111D8
  8
0
 10
3771.8146357325349527
 20
24.8149823276326309
 30
0.0
 40
0.0075986441664536
 50
192.6759522163106908
 51
269.309926546180975
  0
LINE
  5
111D9
  8
0
 10
3771.8145442162690415
 20
24.8073842345862694
 30
0.0
 11
3773.2719286815149644
 21
24.8073842346680209
 31
0.0
  0
ARC
  5
111DA
  8
0
 10
3773.2718718273140439
 20
24.8150279410119587
 30
0.0
 40
0.0076439177829617
 50
270.4261605059315912
 51
347.0497847479066991
  0
ENDSEC
  0
EOF
