  0
SECTION
  2
HEADER
  9
$ACADVER
  1
AC1009
  9
$INSBASE
 10
5011.2305831178791777
 20
573.0721820161984397
 30
0.0
  9
$EXTMIN
 10
5002.2280150618407788
 20
564.2039059239928065
 30
-0.0015258207003583
  9
$EXTMAX
 10
5020.2304531021000003
 20
581.9634791886967378
 30
0.0000000349246037
  9
$LIMMIN
 10
0.0
 20
0.0
  9
$LIMMAX
 10
11.6929133858000007
 20
8.2677165353999982
  9
$ORTHOMODE
 70
     0
  9
$REGENMODE
 70
     1
  9
$FILLMODE
 70
     1
  9
$QTEXTMODE
 70
     0
  9
$MIRRTEXT
 70
     0
  9
$DRAGMODE
 70
     2
  9
$LTSCALE
 40
0.6431102362
  9
$OSMODE
 70
     7
  9
$ATTMODE
 70
     1
  9
$TEXTSIZE
 40
0.2
  9
$TRACEWID
 40
0.05
  9
$TEXTSTYLE
  7
STANDARD
  9
$CLAYER
  8
0
  9
$CELTYPE
  6
BYLAYER
  9
$CECOLOR
 62
   256
  9
$DIMSCALE
 40
1.0
  9
$DIMASZ
 40
0.1875
  9
$DIMEXO
 40
0.0625
  9
$DIMDLI
 40
0.4443307087
  9
$DIMRND
 40
0.0
  9
$DIMDLE
 40
0.0
  9
$DIMEXE
 40
0.125
  9
$DIMTP
 40
0.01
  9
$DIMTM
 40
0.01
  9
$DIMTXT
 40
2.0
  9
$DIMCEN
 40
0.1052362205
  9
$DIMTSZ
 40
0.0
  9
$DIMTOL
 70
     1
  9
$DIMLIM
 70
     0
  9
$DIMTIH
 70
     1
  9
$DIMTOH
 70
     1
  9
$DIMSE1
 70
     0
  9
$DIMSE2
 70
     0
  9
$DIMTAD
 70
     0
  9
$DIMZIN
 70
     0
  9
$DIMBLK
  1

  9
$DIMASO
 70
     1
  9
$DIMSHO
 70
     1
  9
$DIMPOST
  1
\X
  9
$DIMAPOST
  1

  9
$DIMALT
 70
     1
  9
$DIMALTD
 70
     2
  9
$DIMALTF
 40
25.3999999999999986
  9
$DIMLFAC
 40
1.0
  9
$DIMTOFL
 70
     0
  9
$DIMTVP
 40
0.0
  9
$DIMTIX
 70
     0
  9
$DIMSOXD
 70
     0
  9
$DIMSAH
 70
     0
  9
$DIMBLK1
  1

  9
$DIMBLK2
  1

  9
$DIMSTYLE
  2
STANDARD
  9
$DIMCLRD
 70
     0
  9
$DIMCLRE
 70
     0
  9
$DIMCLRT
 70
     0
  9
$DIMTFAC
 40
1.0
  9
$DIMGAP
 40
0.09
  9
$LUNITS
 70
     2
  9
$LUPREC
 70
     4
  9
$SKETCHINC
 40
0.1
  9
$FILLETRAD
 40
0.0
  9
$AUNITS
 70
     0
  9
$AUPREC
 70
     0
  9
$MENU
  1
.
  9
$ELEVATION
 40
0.0
  9
$PELEVATION
 40
0.0
  9
$THICKNESS
 40
0.0
  9
$LIMCHECK
 70
     0
  9
$BLIPMODE
 70
     0
  9
$CHAMFERA
 40
0.0
  9
$CHAMFERB
 40
0.0
  9
$SKPOLY
 70
     0
  9
$TDCREATE
 40
2458060.468368056230247
  9
$TDUPDATE
 40
2459394.0848726849071681
  9
$TDINDWG
 40
1.6844297917
  9
$TDUSRTIMER
 40
1.6844297917
  9
$USRTIMER
 70
     1
  9
$ANGBASE
 50
0.0
  9
$ANGDIR
 70
     0
  9
$PDMODE
 70
     0
  9
$PDSIZE
 40
0.3125
  9
$PLINEWID
 40
0.0
  9
$COORDS
 70
     1
  9
$SPLFRAME
 70
     0
  9
$SPLINETYPE
 70
     6
  9
$SPLINESEGS
 70
     8
  9
$ATTDIA
 70
     1
  9
$ATTREQ
 70
     1
  9
$HANDLING
 70
     1
  9
$HANDSEED
  5
1EF68
  9
$SURFTAB1
 70
     6
  9
$SURFTAB2
 70
     6
  9
$SURFTYPE
 70
     6
  9
$SURFU
 70
     6
  9
$SURFV
 70
     6
  9
$UCSNAME
  2

  9
$UCSORG
 10
0.0
 20
0.0
 30
0.0
  9
$UCSXDIR
 10
1.0
 20
0.0
 30
0.0
  9
$UCSYDIR
 10
0.0
 20
1.0
 30
0.0
  9
$PUCSNAME
  2

  9
$PUCSORG
 10
0.0
 20
0.0
 30
0.0
  9
$PUCSXDIR
 10
1.0
 20
0.0
 30
0.0
  9
$PUCSYDIR
 10
0.0
 20
1.0
 30
0.0
  9
$USERI1
 70
     0
  9
$USERI2
 70
     0
  9
$USERI3
 70
     0
  9
$USERI4
 70
     0
  9
$USERI5
 70
     0
  9
$USERR1
 40
0.0
  9
$USERR2
 40
0.0
  9
$USERR3
 40
0.0
  9
$USERR4
 40
0.0
  9
$USERR5
 40
0.0
  9
$WORLDVIEW
 70
     1
  9
$SHADEDGE
 70
     3
  9
$SHADEDIF
 70
    70
  9
$TILEMODE
 70
     1
  9
$MAXACTVP
 70
    64
  9
$PLIMCHECK
 70
     0
  9
$PEXTMIN
 10
1.0000000000000000E+20
 20
1.0000000000000000E+20
 30
1.0000000000000000E+20
  9
$PEXTMAX
 10
-1.0000000000000000E+20
 20
-1.0000000000000000E+20
 30
-1.0000000000000000E+20
  9
$PLIMMIN
 10
0.0
 20
0.0
  9
$PLIMMAX
 10
12.0
 20
9.0
  9
$UNITMODE
 70
     0
  9
$VISRETAIN
 70
     1
  9
$PLINEGEN
 70
     0
  9
$PSLTSCALE
 70
     1
  0
ENDSEC
  0
SECTION
  2
TABLES
  0
TABLE
  2
VPORT
 70
     1
  0
VPORT
  2
*ACTIVE
 70
     0
 10
0.0
 20
0.0
 11
1.0
 21
1.0
 12
1099.8638776366578895
 22
440.5040874538057096
 13
0.0
 23
0.0
 14
1.0
 24
1.0
 15
0.0
 25
0.0
 16
0.0
 26
0.0
 36
60.4960186965801583
 17
3911.3653564453120453
 27
132.5796051025390057
 37
0.0
 40
17.8960104472753301
 41
2.3461538461538458
 42
50.0
 43
0.0
 44
0.0
 50
0.0
 51
0.0
 71
     0
 72
   100
 73
     1
 74
     1
 75
     0
 76
     0
 77
     0
 78
     0
  0
ENDTAB
  0
TABLE
  2
LTYPE
 70
     2
  0
LTYPE
  2
CONTINUOUS
 70
     0
  3
Solid line
 72
    65
 73
     0
 40
0.0
  0
LTYPE
  2
PHANTOM2
 70
     0
  3
___ _ _ ___ _ _ ___ _ _ ___ _ _
 72
    65
 73
     6
 40
1.25
 49
0.625
 49
-0.125
 49
0.125
 49
-0.125
 49
0.125
 49
-0.125
  0
ENDTAB
  0
TABLE
  2
LAYER
 70
     2
  0
LAYER
  2
0
 70
     0
 62
   255
  6
CONTINUOUS
  0
LAYER
  2
DEFPOINTS
 70
     0
 62
     7
  6
CONTINUOUS
  0
ENDTAB
  0
TABLE
  2
STYLE
 70
     1
  0
STYLE
  2
STANDARD
 70
     0
 40
0.0
 41
0.8
 50
0.0
 71
     0
 42
0.2
  3
txt
  4

  0
ENDTAB
  0
TABLE
  2
VIEW
 70
     0
  0
ENDTAB
  0
TABLE
  2
UCS
 70
     0
  0
ENDTAB
  0
TABLE
  2
APPID
 70
    11
  0
APPID
  2
ACAD
 70
     0
  0
APPID
  2
ACAD_MLEADERVER
 70
     0
  0
APPID
  2
ACAD_EXEMPT_FROM_CAD_STANDARDS
 70
     0
  0
APPID
  2
ACAD_NAV_VCDISPLAY
 70
     0
  0
APPID
  2
ACAECLAYERSTANDARD
 70
     0
  0
APPID
  2
ACCMTRANSPARENCY
 70
     0
  0
APPID
  2
ACAD_DSTYLE_DIMJAG
 70
     0
  0
APPID
  2
ACAD_DSTYLE_DIMTALN
 70
     0
  0
APPID
  2
ACDBATTR
 70
     0
  0
APPID
  2
ACADANNOTATIVE
 70
     0
  0
APPID
  2
DCO15
 70
     0
  0
ENDTAB
  0
TABLE
  2
DIMSTYLE
 70
     1
  0
DIMSTYLE
  2
STANDARD
 70
     0
  3

  4

  5

  6

  7

 40
1.0
 41
0.1875
 42
0.0625
 43
0.38
 44
0.125
 45
0.0
 46
0.0
 47
0.01
 48
0.01
140
0.15625
141
0.09
142
0.0
143
25.3999999999999986
144
1.0
145
0.0
146
1.0
147
0.09
 71
     1
 72
     0
 73
     1
 74
     1
 75
     0
 76
     0
 77
     0
 78
     4
170
     0
171
     2
172
     0
173
     0
174
     0
175
     0
176
     0
177
     0
178
     0
  0
ENDTAB
  0
ENDSEC
  0
SECTION
  2
BLOCKS
  0
BLOCK
  8
0
  2
$MODEL_SPACE
 70
     0
 10
0.0
 20
0.0
 30
0.0
  3
$MODEL_SPACE
  1

  0
ENDBLK
  5
21
  8
0
  0
BLOCK
 67
     1
  8
0
  2
$PAPER_SPACE
 70
     0
 10
0.0
 20
0.0
 30
0.0
  3
$PAPER_SPACE
  1

  0
ENDBLK
  5
1D
 67
     1
  8
0
  0
ENDSEC
  0
SECTION
  2
ENTITIES
  0
ATTDEF
  5
159BF
  8
DEFPOINTS
 10
5011.230585756774417
 20
573.0755170275250521
 30
0.0
 40
0.001
  1
K-24985K-1
  3

  2
MODELNUMBER
 70
     0
1001
ACDBATTR
1070
     0
1070
     1
  0
ATTDEF
  5
159C0
  8
DEFPOINTS
 10
5011.230585756774417
 20
573.0738501871459221
 30
0.0
 40
0.001
  1
FOREFRONT
  3

  2
TRADENAME
 70
     0
1001
ACDBATTR
1070
     0
1070
     1
  0
ATTDEF
  5
159C1
  8
DEFPOINTS
 10
5011.230585756774417
 20
573.0721836941917218
 30
0.0
 40
0.001
  1
BATHROOM SINK
  3

  2
PRODUCT
 70
     0
1001
ACDBATTR
1070
     0
1070
     1
  0
LINE
  5
1EE35
  8
0
 10
5002.3991045840230072
 20
581.9304497327483432
 30
0.0
 11
5020.0620616517362578
 21
581.9304497327483432
 31
0.0
  0
LINE
  5
1EE36
  8
0
 10
5002.3723162295536895
 20
566.1824165257511368
 30
0.0
 11
5002.3723162295536895
 21
581.9037487120739343
 31
0.0
  0
LINE
  5
1EE37
  8
0
 10
5004.3408184556337801
 20
564.2139142996485361
 30
0.0
 11
5018.1203477801245754
 21
564.2139142996485361
 31
0.0
  0
LINE
  5
1EE38
  8
0
 10
5004.1475986637042297
 20
577.0722082040483656
 30
0.0
 11
5018.3135675720550353
 21
577.0722082040483656
 31
0.0
  0
LINE
  5
1EE39
  8
0
 10
5002.919575801955034
 20
575.6332768011754979
 30
0.0
 11
5002.919575801955034
 21
566.2780623875685251
 31
0.0
  0
LINE
  5
1EE3A
  8
0
 10
5004.1475983357086079
 20
564.7611588682483443
 30
0.0
 11
5018.313567900050657
 21
564.7611588682483443
 31
0.0
  0
ARC
  5
1EE3B
  8
0
 10
5004.3408184556337801
 20
566.1824165257511368
 30
0.0
 40
1.9685022261073719
 50
180.0
 51
270.0
  0
ARC
  5
1EE3C
  8
0
 10
5004.6189088975233972
 20
575.5874544592978737
 30
0.0
 40
1.6999507806728791
 50
140.2781942803424897
 51
178.4553994973674946
  0
ARC
  5
1EE3D
  8
0
 10
5004.1699780679364267
 20
575.9484171871538365
 30
0.0
 40
1.124013828823671
 50
91.1408490806033171
 51
139.8063094530552064
  0
ARC
  5
1EE3E
  8
0
 10
5004.7561504641980719
 20
566.2848886631237519
 30
0.0
 40
1.8365873483266011
 50
180.2129589316861882
 51
214.967023634887795
  0
ARC
  5
1EE3F
  8
0
 10
5004.1749929627321762
 20
565.9017505288529719
 30
0.0
 40
1.140920594007556
 50
215.9257163566371958
 51
268.6241396847104852
  0
CIRCLE
  5
1EE40
  8
0
 10
5011.2305586415050129
 20
579.43276937104838
 30
0.0
 40
0.6889546004999998
  0
ARC
  5
1EE41
  8
0
 10
5011.2305831178791777
 20
575.7486779385028512
 30
0.0
 40
1.112109137746973
 50
77.0604494343892412
 51
102.9395505656107019
  0
ARC
  5
1EE42
  8
0
 10
5010.9111059498818577
 20
576.7561980862207065
 30
0.0
 40
0.0386494394961155
 50
130.6361222935910007
 51
229.3638777064132057
  0
ARC
  5
1EE43
  8
0
 10
5010.989924279873776
 20
576.6743127288933692
 30
0.0
 40
0.1522578180820211
 50
115.0867720200315034
 51
133.0768695272662114
  0
ARC
  5
1EE44
  8
0
 10
5011.0771066024371976
 20
576.4808108213400146
 30
0.0
 40
0.3644835712820699
 50
105.1978125022393016
 51
114.6018424898774981
  0
ARC
  5
1EE45
  8
0
 10
5011.2305831178791777
 20
577.5773036908950644
 30
0.0
 40
0.9359776132483276
 50
254.4051056746245933
 51
285.5948943253753782
  0
ARC
  5
1EE46
  8
0
 10
5010.9982056509461472
 20
576.8389036588421277
 30
0.0
 40
0.1586079394005908
 50
224.9399377960654078
 51
242.1336689957661861
  0
ARC
  5
1EE47
  8
0
 10
5011.083371472995168
 20
577.0032143720546856
 30
0.0
 40
0.3436759667220726
 50
242.3854929356297134
 51
252.3136324862261972
  0
ARC
  5
1EE48
  8
0
 10
5011.5500602858774073
 20
576.7561980862207065
 30
0.0
 40
0.0386494394961155
 50
310.6361222935868227
 51
49.3638777064089993
  0
ARC
  5
1EE49
  8
0
 10
5011.4712419558845795
 20
576.6743127288933692
 30
0.0
 40
0.1522578180820211
 50
46.9231304727338312
 51
64.913227979968454
  0
ARC
  5
1EE4A
  8
0
 10
5011.3840596333211579
 20
576.4808108213400146
 30
0.0
 40
0.3644835712820699
 50
65.3981575101224735
 51
74.8021874977607126
  0
ARC
  5
1EE4B
  8
0
 10
5011.4629605848122083
 20
576.8389036588421277
 30
0.0
 40
0.1586079394005908
 50
297.8663310042337002
 51
315.0600622039344785
  0
ARC
  5
1EE4C
  8
0
 10
5011.377794762764097
 20
577.0032143720546856
 30
0.0
 40
0.3436759667220726
 50
287.6863675137736891
 51
297.6145070643704003
  0
CIRCLE
  5
1EE4D
  8
0
 10
5011.2305831178791777
 20
570.9166702542985377
 30
0.0
 40
0.8749980301499996
  0
ARC
  5
1EE4E
  8
0
 10
5002.3994583663134108
 20
581.9033062960111238
 30
0.0
 40
0.0271457422043012
 50
90.7467397961142836
 51
179.0661631093047106
  0
CIRCLE
  5
1EE4F
  8
0
 10
5011.2305831178791777
 20
570.9166702542985377
 30
0.0
 40
1.2818654472537521
  0
LINE
  5
1EE50
  8
0
 10
5020.088850006204666
 20
566.1824165257511368
 30
0.0
 11
5020.088850006204666
 21
581.9037487120739343
 31
0.0
  0
LINE
  5
1EE51
  8
0
 10
5019.541590433804231
 20
575.6332768011754979
 30
0.0
 11
5019.541590433804231
 21
566.2780623875685251
 31
0.0
  0
ARC
  5
1EE52
  8
0
 10
5018.1203477801245754
 20
566.1824165257511368
 30
0.0
 40
1.9685022261073719
 50
270.0
 51
0.0
  0
ARC
  5
1EE53
  8
0
 10
5017.8422573382358678
 20
575.5874544592978737
 30
0.0
 40
1.6999507806728791
 50
1.544600502632443
 51
39.7218057196575032
  0
ARC
  5
1EE54
  8
0
 10
5018.2911881678228383
 20
575.9484171871538365
 30
0.0
 40
1.124013828823671
 50
40.1936905469447296
 51
88.8591509193966829
  0
ARC
  5
1EE55
  8
0
 10
5017.7050157715611931
 20
566.2848886631237519
 30
0.0
 40
1.8365873483266011
 50
325.0329763651121766
 51
359.7870410683137834
  0
ARC
  5
1EE56
  8
0
 10
5018.2861732730270887
 20
565.9017505288529719
 30
0.0
 40
1.140920594007556
 50
271.3758603152894011
 51
324.0742836433627758
  0
ARC
  5
1EE57
  8
0
 10
5020.0617078694449447
 20
581.9033062960111238
 30
0.0
 40
0.0271457422043012
 50
0.9338368906952542
 51
89.2532602038857448
  0
POINT
  5
1EE59
  8
DEFPOINTS
 10
5011.2305586415050129
 20
579.43276937104838
 30
0.0
  0
LINE
  5
1EE5A
  8
0
 10
5012.2674149439126268
 20
571.6704333400148244
 30
0.0
 11
5019.1497853541632139
 21
576.6738260091259463
 31
0.0
  0
LINE
  5
1EE5B
  8
0
 10
5010.1937512918466382
 20
571.6704333400148244
 30
0.0
 11
5003.311380881596051
 21
576.6738260091259463
 31
0.0
  0
LINE
  5
1EE5C
  8
0
 10
5010.1865408104122253
 20
570.1729265584723407
 30
0.0
 11
5003.2511001388320437
 21
565.2323314883586818
 31
0.0
  0
LINE
  5
1EE5D
  8
0
 10
5012.2746254253470397
 20
570.1729265584723407
 30
0.0
 11
5019.2100660969281307
 21
565.2323314883586818
 31
0.0
  0
ENDSEC
  0
EOF
