  0
SECTION
  2
HEADER
  9
$ACADVER
  1
AC1009
  9
$INSBASE
 10
608.9775538496820673
 20
81.3625357712432162
 30
0.0
  9
$EXTMIN
 10
597.0681050307821351
 20
80.5357641176932049
 30
0.0
  9
$EXTMAX
 10
620.8870026685822268
 20
82.1893074247931992
 30
0.0
  9
$LIMMIN
 10
0.0
 20
0.0
  9
$LIMMAX
 10
11.6929133858000007
 20
8.2677165353999982
  9
$ORTHOMODE
 70
     0
  9
$REGENMODE
 70
     1
  9
$FILLMODE
 70
     1
  9
$QTEXTMODE
 70
     0
  9
$MIRRTEXT
 70
     0
  9
$DRAGMODE
 70
     2
  9
$LTSCALE
 40
0.6431102362
  9
$OSMODE
 70
  4095
  9
$ATTMODE
 70
     1
  9
$TEXTSIZE
 40
0.2
  9
$TRACEWID
 40
0.05
  9
$TEXTSTYLE
  7
STANDARD
  9
$CLAYER
  8
0
  9
$CELTYPE
  6
BYLAYER
  9
$CECOLOR
 62
   256
  9
$DIMSCALE
 40
1.0
  9
$DIMASZ
 40
0.1875
  9
$DIMEXO
 40
0.0625
  9
$DIMDLI
 40
0.4443307087
  9
$DIMRND
 40
0.0
  9
$DIMDLE
 40
0.0
  9
$DIMEXE
 40
0.125
  9
$DIMTP
 40
0.01
  9
$DIMTM
 40
0.01
  9
$DIMTXT
 40
1.0
  9
$DIMCEN
 40
0.1052362205
  9
$DIMTSZ
 40
0.0
  9
$DIMTOL
 70
     1
  9
$DIMLIM
 70
     0
  9
$DIMTIH
 70
     0
  9
$DIMTOH
 70
     1
  9
$DIMSE1
 70
     0
  9
$DIMSE2
 70
     0
  9
$DIMTAD
 70
     0
  9
$DIMZIN
 70
     0
  9
$DIMBLK
  1

  9
$DIMASO
 70
     1
  9
$DIMSHO
 70
     1
  9
$DIMPOST
  1
\X
  9
$DIMAPOST
  1

  9
$DIMALT
 70
     1
  9
$DIMALTD
 70
     2
  9
$DIMALTF
 40
25.3999999999999986
  9
$DIMLFAC
 40
1.0
  9
$DIMTOFL
 70
     0
  9
$DIMTVP
 40
0.0
  9
$DIMTIX
 70
     0
  9
$DIMSOXD
 70
     0
  9
$DIMSAH
 70
     0
  9
$DIMBLK1
  1

  9
$DIMBLK2
  1

  9
$DIMSTYLE
  2
STANDARD
  9
$DIMCLRD
 70
     0
  9
$DIMCLRE
 70
     0
  9
$DIMCLRT
 70
     0
  9
$DIMTFAC
 40
1.0
  9
$DIMGAP
 40
0.09
  9
$LUNITS
 70
     2
  9
$LUPREC
 70
     4
  9
$SKETCHINC
 40
0.1
  9
$FILLETRAD
 40
0.0
  9
$AUNITS
 70
     0
  9
$AUPREC
 70
     0
  9
$MENU
  1
.
  9
$ELEVATION
 40
0.0
  9
$PELEVATION
 40
0.0
  9
$THICKNESS
 40
0.0
  9
$LIMCHECK
 70
     0
  9
$BLIPMODE
 70
     0
  9
$CHAMFERA
 40
0.0
  9
$CHAMFERB
 40
0.0
  9
$SKPOLY
 70
     0
  9
$TDCREATE
 40
2458172.5207638889551163
  9
$TDUPDATE
 40
2459087.8494097217917442
  9
$TDINDWG
 40
0.356320162
  9
$TDUSRTIMER
 40
0.356320162
  9
$USRTIMER
 70
     1
  9
$ANGBASE
 50
0.0
  9
$ANGDIR
 70
     0
  9
$PDMODE
 70
     0
  9
$PDSIZE
 40
0.3125
  9
$PLINEWID
 40
0.0
  9
$COORDS
 70
     1
  9
$SPLFRAME
 70
     0
  9
$SPLINETYPE
 70
     6
  9
$SPLINESEGS
 70
     8
  9
$ATTDIA
 70
     1
  9
$ATTREQ
 70
     1
  9
$HANDLING
 70
     1
  9
$HANDSEED
  5
8EC8
  9
$SURFTAB1
 70
     6
  9
$SURFTAB2
 70
     6
  9
$SURFTYPE
 70
     6
  9
$SURFU
 70
     6
  9
$SURFV
 70
     6
  9
$UCSNAME
  2

  9
$UCSORG
 10
0.0
 20
0.0
 30
0.0
  9
$UCSXDIR
 10
1.0
 20
0.0
 30
0.0
  9
$UCSYDIR
 10
0.0
 20
1.0
 30
0.0
  9
$PUCSNAME
  2

  9
$PUCSORG
 10
0.0
 20
0.0
 30
0.0
  9
$PUCSXDIR
 10
1.0
 20
0.0
 30
0.0
  9
$PUCSYDIR
 10
0.0
 20
1.0
 30
0.0
  9
$USERI1
 70
     0
  9
$USERI2
 70
     0
  9
$USERI3
 70
     0
  9
$USERI4
 70
     0
  9
$USERI5
 70
     0
  9
$USERR1
 40
0.0
  9
$USERR2
 40
0.0
  9
$USERR3
 40
0.0
  9
$USERR4
 40
0.0
  9
$USERR5
 40
0.0
  9
$WORLDVIEW
 70
     1
  9
$SHADEDGE
 70
     3
  9
$SHADEDIF
 70
    70
  9
$TILEMODE
 70
     1
  9
$MAXACTVP
 70
    64
  9
$PLIMCHECK
 70
     0
  9
$PEXTMIN
 10
1.0000000000000000E+20
 20
1.0000000000000000E+20
 30
1.0000000000000000E+20
  9
$PEXTMAX
 10
-1.0000000000000000E+20
 20
-1.0000000000000000E+20
 30
-1.0000000000000000E+20
  9
$PLIMMIN
 10
0.0
 20
0.0
  9
$PLIMMAX
 10
12.0
 20
9.0
  9
$UNITMODE
 70
     0
  9
$VISRETAIN
 70
     1
  9
$PLINEGEN
 70
     0
  9
$PSLTSCALE
 70
     1
  0
ENDSEC
  0
SECTION
  2
TABLES
  0
TABLE
  2
VPORT
 70
     1
  0
VPORT
  2
*ACTIVE
 70
     0
 10
0.0
 20
0.0
 11
1.0
 21
1.0
 12
142.7524918166334089
 22
-7.7684532883647801
 13
0.0
 23
0.0
 14
1.0
 24
1.0
 15
0.0
 25
0.0
 16
0.0
 26
0.0
 36
24.1179433675886514
 17
466.74220170783002
 27
89.133147119929788
 37
0.0
 40
8.4329120678157725
 41
2.9305856832971791
 42
50.0
 43
0.0
 44
0.0
 50
0.0
 51
0.0
 71
     0
 72
   100
 73
     1
 74
     1
 75
     0
 76
     0
 77
     0
 78
     0
  0
ENDTAB
  0
TABLE
  2
LTYPE
 70
     2
  0
LTYPE
  2
CONTINUOUS
 70
     0
  3
Solid line
 72
    65
 73
     0
 40
0.0
  0
LTYPE
  2
PHANTOM2
 70
     0
  3
___ _ _ ___ _ _ ___ _ _ ___ _ _
 72
    65
 73
     6
 40
1.25
 49
0.625
 49
-0.125
 49
0.125
 49
-0.125
 49
0.125
 49
-0.125
  0
ENDTAB
  0
TABLE
  2
LAYER
 70
     2
  0
LAYER
  2
0
 70
     0
 62
   255
  6
CONTINUOUS
  0
LAYER
  2
DEFPOINTS
 70
     0
 62
     7
  6
CONTINUOUS
  0
ENDTAB
  0
TABLE
  2
STYLE
 70
     1
  0
STYLE
  2
STANDARD
 70
     0
 40
0.0
 41
0.8
 50
0.0
 71
     0
 42
0.2
  3
txt
  4

  0
ENDTAB
  0
TABLE
  2
VIEW
 70
     0
  0
ENDTAB
  0
TABLE
  2
UCS
 70
     0
  0
ENDTAB
  0
TABLE
  2
APPID
 70
    10
  0
APPID
  2
ACAD
 70
     0
  0
APPID
  2
ACAD_MLEADERVER
 70
     0
  0
APPID
  2
ACAD_EXEMPT_FROM_CAD_STANDARDS
 70
     0
  0
APPID
  2
ACAD_DSTYLE_DIMJAG
 70
     0
  0
APPID
  2
ACAD_DSTYLE_DIMTALN
 70
     0
  0
APPID
  2
ACAD_NAV_VCDISPLAY
 70
     0
  0
APPID
  2
ACAECLAYERSTANDARD
 70
     0
  0
APPID
  2
ACCMTRANSPARENCY
 70
     0
  0
APPID
  2
DCO15
 70
     0
  0
APPID
  2
ACDBATTR
 70
     0
  0
ENDTAB
  0
TABLE
  2
DIMSTYLE
 70
     1
  0
DIMSTYLE
  2
STANDARD
 70
     0
  3

  4

  5

  6

  7

 40
1.0
 41
0.1875
 42
0.0625
 43
0.38
 44
0.125
 45
0.0
 46
0.0
 47
0.01
 48
0.01
140
0.15625
141
0.09
142
0.0
143
25.3999999999999986
144
1.0
145
0.0
146
1.0
147
0.09
 71
     1
 72
     0
 73
     1
 74
     1
 75
     0
 76
     0
 77
     0
 78
     4
170
     0
171
     2
172
     0
173
     0
174
     0
175
     0
176
     0
177
     0
178
     0
  0
ENDTAB
  0
ENDSEC
  0
SECTION
  2
BLOCKS
  0
BLOCK
  8
0
  2
$MODEL_SPACE
 70
     0
 10
0.0
 20
0.0
 30
0.0
  3
$MODEL_SPACE
  1

  0
ENDBLK
  5
21
  8
0
  0
BLOCK
 67
     1
  8
0
  2
$PAPER_SPACE
 70
     0
 10
0.0
 20
0.0
 30
0.0
  3
$PAPER_SPACE
  1

  0
ENDBLK
  5
1D
 67
     1
  8
0
  0
ENDSEC
  0
SECTION
  2
ENTITIES
  0
ATTDEF
  5
829
  8
DEFPOINTS
 10
608.9743411963304425
 20
81.368428401325275
 30
0.0
 40
0.001
  1
K-25065IN
  3

  2
MODELNUMBER
 70
     0
1001
ACDBATTR
1070
     0
1070
     1
  0
ATTDEF
  5
82A
  8
DEFPOINTS
 10
608.9743411963304425
 20
81.3667617346586098
 30
0.0
 40
0.001
  1
COMPLEMENTARY
  3

  2
TRADENAME
 70
     0
1001
ACDBATTR
1070
     0
1070
     1
  0
ATTDEF
  5
82B
  8
DEFPOINTS
 10
608.9743411963304425
 20
81.3650950679919447
 30
0.0
 40
0.001
  1
TOWEL BAR
  3

  2
PRODUCT
 70
     0
1001
ACDBATTR
1070
     0
1070
     1
  0
LINE
  5
8D18
  8
0
 10
597.0681050307821351
 20
80.6145042751932124
 30
0.0
 11
597.0681050307821351
 21
82.1105672672932059
 31
0.0
  0
LINE
  5
8D19
  8
0
 10
597.7570814087821418
 20
81.303480653093203
 30
0.0
 11
597.7570814087821418
 21
81.4806460074932062
 31
0.0
  0
LINE
  5
8D1A
  8
0
 10
598.7413333772821034
 20
81.2247404956932115
 30
0.0
 11
598.7413333772821034
 21
81.5003310467932067
 31
0.0
  0
LINE
  5
8D1B
  8
0
 10
599.4303097551821793
 20
82.1105672672932059
 30
0.0
 11
599.4303097551821793
 21
81.5003310467932067
 31
0.0
  0
LINE
  5
8D1C
  8
0
 10
599.4303097551821793
 20
81.2247404956932115
 30
0.0
 11
599.4303097551821793
 21
80.6145042751932124
 31
0.0
  0
LINE
  5
8D1D
  8
0
 10
620.8082625110821482
 20
80.5357641176932049
 30
0.0
 11
618.6035381016821475
 21
80.5357641176932049
 31
0.0
  0
LINE
  5
8D1E
  8
0
 10
599.3515695977821451
 20
80.5357641176932049
 30
0.0
 11
597.1468451882822137
 21
80.5357641176932049
 31
0.0
  0
LINE
  5
8D1F
  8
0
 10
620.1192861331820723
 20
81.2247404956932115
 30
0.0
 11
619.2334593614822325
 21
81.2247404956932115
 31
0.0
  0
LINE
  5
8D20
  8
0
 10
619.2137743221820756
 20
81.2247404956932115
 30
0.0
 11
598.7413333772821034
 21
81.2247404956932115
 31
0.0
  0
LINE
  5
8D21
  8
0
 10
598.7216483378822431
 20
81.2247404956932115
 30
0.0
 11
597.8358215662822204
 21
81.2247404956932115
 31
0.0
  0
LINE
  5
8D22
  8
0
 10
597.7767664481822294
 20
81.5003310467932067
 30
0.0
 11
598.7216483378822431
 21
81.5003310467932067
 31
0.0
  0
LINE
  5
8D23
  8
0
 10
598.7413333772821034
 20
81.5003310467932067
 30
0.0
 11
619.2137743221820756
 21
81.5003310467932067
 31
0.0
  0
LINE
  5
8D24
  8
0
 10
619.2334593614822325
 20
81.5003310467932067
 30
0.0
 11
620.1783412512820632
 21
81.5003310467932067
 31
0.0
  0
LINE
  5
8D25
  8
0
 10
597.1468451882822137
 20
82.1893074247931992
 30
0.0
 11
599.3515695977821451
 21
82.1893074247931992
 31
0.0
  0
LINE
  5
8D26
  8
0
 10
618.6035381016821475
 20
82.1893074247931992
 30
0.0
 11
620.8082625110821482
 21
82.1893074247931992
 31
0.0
  0
LINE
  5
8D27
  8
0
 10
618.5247979441821826
 20
80.6145042751932124
 30
0.0
 11
618.5247979441821826
 21
81.2247404956932115
 31
0.0
  0
LINE
  5
8D28
  8
0
 10
618.5247979441821826
 20
81.5003310467932067
 30
0.0
 11
618.5247979441821826
 21
82.1105672672932059
 31
0.0
  0
LINE
  5
8D29
  8
0
 10
619.2137743221820756
 20
81.2247404956932115
 30
0.0
 11
619.2137743221820756
 21
81.5003310467932067
 31
0.0
  0
LINE
  5
8D2A
  8
0
 10
620.1980262906821508
 20
81.4806460074932062
 30
0.0
 11
620.1980262906821508
 21
81.303480653093203
 31
0.0
  0
LINE
  5
8D2B
  8
0
 10
620.8870026685822268
 20
82.1105672672932059
 30
0.0
 11
620.8870026685822268
 21
80.6145042751932124
 31
0.0
  0
ARC
  5
8D2C
  8
0
 10
620.1192861331820723
 20
81.303480653093203
 30
0.0
 40
0.0787401575
 50
270.0
 51
0.0
  0
ARC
  5
8D2D
  8
0
 10
597.8358215662822204
 20
81.303480653093203
 30
0.0
 40
0.0787401575
 50
180.0
 51
270.0
  0
ARC
  5
8D2E
  8
0
 10
618.6035381016821475
 20
82.1105672672932059
 30
0.0
 40
0.0787401575
 50
90.0
 51
180.0
  0
ARC
  5
8D2F
  8
0
 10
618.6035381016821475
 20
80.6145042751932124
 30
0.0
 40
0.0787401575
 50
180.0
 51
270.0
  0
ARC
  5
8D30
  8
0
 10
620.8082625110821482
 20
80.6145042751932124
 30
0.0
 40
0.0787401575
 50
270.0
 51
0.0
  0
ARC
  5
8D31
  8
0
 10
620.8082625110821482
 20
82.1105672672932059
 30
0.0
 40
0.0787401575
 50
0.0
 51
90.0
  0
ARC
  5
8D32
  8
0
 10
597.1468451882822137
 20
82.1105672672932059
 30
0.0
 40
0.0787401575
 50
90.0
 51
180.0
  0
ARC
  5
8D33
  8
0
 10
597.1468451882822137
 20
80.6145042751932124
 30
0.0
 40
0.0787401575
 50
180.0
 51
270.0
  0
ARC
  5
8D34
  8
0
 10
599.3515695977821451
 20
80.6145042751932124
 30
0.0
 40
0.0787401575
 50
270.0
 51
0.0
  0
ARC
  5
8D35
  8
0
 10
599.3515695977821451
 20
82.1105672672932059
 30
0.0
 40
0.0787401575
 50
0.0
 51
90.0
  0
ARC
  5
8D36
  8
0
 10
619.2334593614822325
 20
81.2444255349932121
 30
0.0
 40
0.0196850394
 50
180.0
 51
270.0
  0
ARC
  5
8D37
  8
0
 10
619.2334593614822325
 20
81.4806460074932062
 30
0.0
 40
0.0196850394
 50
90.0
 51
180.0
  0
ARC
  5
8D38
  8
0
 10
620.1783412512820632
 20
81.4806460074932062
 30
0.0
 40
0.0196850394
 50
0.0
 51
90.0
  0
ARC
  5
8D39
  8
0
 10
597.7767664481822294
 20
81.4806460074932062
 30
0.0
 40
0.0196850394
 50
90.0
 51
180.0
  0
ARC
  5
8D3A
  8
0
 10
598.7216483378822431
 20
81.4806460074932062
 30
0.0
 40
0.0196850394
 50
0.0
 51
90.0
  0
ARC
  5
8D3B
  8
0
 10
598.7216483378822431
 20
81.2444255349932121
 30
0.0
 40
0.0196850394
 50
270.0
 51
0.0
  0
ENDSEC
  0
EOF
