  0
SECTION
  2
HEADER
  9
$ACADVER
  1
AC1009
  9
$INSBASE
 10
611.2318842938146872
 20
76.545058560976571
 30
0.0
  9
$EXTMIN
 10
599.3224354749147551
 20
73.4741924192765765
 30
0.0
  9
$EXTMAX
 10
623.1413331127148467
 20
76.545058560976571
 30
0.0
  9
$LIMMIN
 10
0.0
 20
0.0
  9
$LIMMAX
 10
11.6929133858000007
 20
8.2677165353999982
  9
$ORTHOMODE
 70
     0
  9
$REGENMODE
 70
     1
  9
$FILLMODE
 70
     1
  9
$QTEXTMODE
 70
     0
  9
$MIRRTEXT
 70
     0
  9
$DRAGMODE
 70
     2
  9
$LTSCALE
 40
0.6431102362
  9
$OSMODE
 70
  4095
  9
$ATTMODE
 70
     1
  9
$TEXTSIZE
 40
0.2
  9
$TRACEWID
 40
0.05
  9
$TEXTSTYLE
  7
STANDARD
  9
$CLAYER
  8
0
  9
$CELTYPE
  6
BYLAYER
  9
$CECOLOR
 62
   256
  9
$DIMSCALE
 40
1.0
  9
$DIMASZ
 40
0.1875
  9
$DIMEXO
 40
0.0625
  9
$DIMDLI
 40
0.4443307087
  9
$DIMRND
 40
0.0
  9
$DIMDLE
 40
0.0
  9
$DIMEXE
 40
0.125
  9
$DIMTP
 40
0.01
  9
$DIMTM
 40
0.01
  9
$DIMTXT
 40
1.0
  9
$DIMCEN
 40
0.1052362205
  9
$DIMTSZ
 40
0.0
  9
$DIMTOL
 70
     1
  9
$DIMLIM
 70
     0
  9
$DIMTIH
 70
     0
  9
$DIMTOH
 70
     1
  9
$DIMSE1
 70
     0
  9
$DIMSE2
 70
     0
  9
$DIMTAD
 70
     0
  9
$DIMZIN
 70
     0
  9
$DIMBLK
  1

  9
$DIMASO
 70
     1
  9
$DIMSHO
 70
     1
  9
$DIMPOST
  1
\X
  9
$DIMAPOST
  1

  9
$DIMALT
 70
     1
  9
$DIMALTD
 70
     2
  9
$DIMALTF
 40
25.3999999999999986
  9
$DIMLFAC
 40
1.0
  9
$DIMTOFL
 70
     0
  9
$DIMTVP
 40
0.0
  9
$DIMTIX
 70
     0
  9
$DIMSOXD
 70
     0
  9
$DIMSAH
 70
     0
  9
$DIMBLK1
  1

  9
$DIMBLK2
  1

  9
$DIMSTYLE
  2
STANDARD
  9
$DIMCLRD
 70
     0
  9
$DIMCLRE
 70
     0
  9
$DIMCLRT
 70
     0
  9
$DIMTFAC
 40
1.0
  9
$DIMGAP
 40
0.09
  9
$LUNITS
 70
     2
  9
$LUPREC
 70
     4
  9
$SKETCHINC
 40
0.1
  9
$FILLETRAD
 40
0.0
  9
$AUNITS
 70
     0
  9
$AUPREC
 70
     0
  9
$MENU
  1
.
  9
$ELEVATION
 40
0.0
  9
$PELEVATION
 40
0.0
  9
$THICKNESS
 40
0.0
  9
$LIMCHECK
 70
     0
  9
$BLIPMODE
 70
     0
  9
$CHAMFERA
 40
0.0
  9
$CHAMFERB
 40
0.0
  9
$SKPOLY
 70
     0
  9
$TDCREATE
 40
2458172.5207638889551163
  9
$TDUPDATE
 40
2459087.849780092947185
  9
$TDINDWG
 40
0.3564127546
  9
$TDUSRTIMER
 40
0.3564127546
  9
$USRTIMER
 70
     1
  9
$ANGBASE
 50
0.0
  9
$ANGDIR
 70
     0
  9
$PDMODE
 70
     0
  9
$PDSIZE
 40
0.3125
  9
$PLINEWID
 40
0.0
  9
$COORDS
 70
     1
  9
$SPLFRAME
 70
     0
  9
$SPLINETYPE
 70
     6
  9
$SPLINESEGS
 70
     8
  9
$ATTDIA
 70
     1
  9
$ATTREQ
 70
     1
  9
$HANDLING
 70
     1
  9
$HANDSEED
  5
9079
  9
$SURFTAB1
 70
     6
  9
$SURFTAB2
 70
     6
  9
$SURFTYPE
 70
     6
  9
$SURFU
 70
     6
  9
$SURFV
 70
     6
  9
$UCSNAME
  2

  9
$UCSORG
 10
0.0
 20
0.0
 30
0.0
  9
$UCSXDIR
 10
1.0
 20
0.0
 30
0.0
  9
$UCSYDIR
 10
0.0
 20
1.0
 30
0.0
  9
$PUCSNAME
  2

  9
$PUCSORG
 10
0.0
 20
0.0
 30
0.0
  9
$PUCSXDIR
 10
1.0
 20
0.0
 30
0.0
  9
$PUCSYDIR
 10
0.0
 20
1.0
 30
0.0
  9
$USERI1
 70
     0
  9
$USERI2
 70
     0
  9
$USERI3
 70
     0
  9
$USERI4
 70
     0
  9
$USERI5
 70
     0
  9
$USERR1
 40
0.0
  9
$USERR2
 40
0.0
  9
$USERR3
 40
0.0
  9
$USERR4
 40
0.0
  9
$USERR5
 40
0.0
  9
$WORLDVIEW
 70
     1
  9
$SHADEDGE
 70
     3
  9
$SHADEDIF
 70
    70
  9
$TILEMODE
 70
     1
  9
$MAXACTVP
 70
    64
  9
$PLIMCHECK
 70
     0
  9
$PEXTMIN
 10
1.0000000000000000E+20
 20
1.0000000000000000E+20
 30
1.0000000000000000E+20
  9
$PEXTMAX
 10
-1.0000000000000000E+20
 20
-1.0000000000000000E+20
 30
-1.0000000000000000E+20
  9
$PLIMMIN
 10
0.0
 20
0.0
  9
$PLIMMAX
 10
12.0
 20
9.0
  9
$UNITMODE
 70
     0
  9
$VISRETAIN
 70
     1
  9
$PLINEGEN
 70
     0
  9
$PSLTSCALE
 70
     1
  0
ENDSEC
  0
SECTION
  2
TABLES
  0
TABLE
  2
VPORT
 70
     1
  0
VPORT
  2
*ACTIVE
 70
     0
 10
0.0
 20
0.0
 11
1.0
 21
1.0
 12
144.4991948275645086
 22
-14.0464686513965802
 13
0.0
 23
0.0
 14
1.0
 24
1.0
 15
0.0
 25
0.0
 16
0.0
 26
0.0
 36
24.1179433675886514
 17
466.74220170783002
 27
89.133147119929788
 37
0.0
 40
8.1874597205461495
 41
2.9305856832971791
 42
50.0
 43
0.0
 44
0.0
 50
0.0
 51
0.0
 71
     0
 72
   100
 73
     1
 74
     1
 75
     0
 76
     0
 77
     0
 78
     0
  0
ENDTAB
  0
TABLE
  2
LTYPE
 70
     2
  0
LTYPE
  2
CONTINUOUS
 70
     0
  3
Solid line
 72
    65
 73
     0
 40
0.0
  0
LTYPE
  2
PHANTOM2
 70
     0
  3
___ _ _ ___ _ _ ___ _ _ ___ _ _
 72
    65
 73
     6
 40
1.25
 49
0.625
 49
-0.125
 49
0.125
 49
-0.125
 49
0.125
 49
-0.125
  0
ENDTAB
  0
TABLE
  2
LAYER
 70
     2
  0
LAYER
  2
0
 70
     0
 62
   255
  6
CONTINUOUS
  0
LAYER
  2
DEFPOINTS
 70
     0
 62
     7
  6
CONTINUOUS
  0
ENDTAB
  0
TABLE
  2
STYLE
 70
     1
  0
STYLE
  2
STANDARD
 70
     0
 40
0.0
 41
0.8
 50
0.0
 71
     0
 42
0.2
  3
txt
  4

  0
ENDTAB
  0
TABLE
  2
VIEW
 70
     0
  0
ENDTAB
  0
TABLE
  2
UCS
 70
     0
  0
ENDTAB
  0
TABLE
  2
APPID
 70
    10
  0
APPID
  2
ACAD
 70
     0
  0
APPID
  2
ACAD_MLEADERVER
 70
     0
  0
APPID
  2
ACAD_EXEMPT_FROM_CAD_STANDARDS
 70
     0
  0
APPID
  2
ACAD_DSTYLE_DIMJAG
 70
     0
  0
APPID
  2
ACAD_DSTYLE_DIMTALN
 70
     0
  0
APPID
  2
ACAD_NAV_VCDISPLAY
 70
     0
  0
APPID
  2
ACAECLAYERSTANDARD
 70
     0
  0
APPID
  2
ACCMTRANSPARENCY
 70
     0
  0
APPID
  2
DCO15
 70
     0
  0
APPID
  2
ACDBATTR
 70
     0
  0
ENDTAB
  0
TABLE
  2
DIMSTYLE
 70
     1
  0
DIMSTYLE
  2
STANDARD
 70
     0
  3

  4

  5

  6

  7

 40
1.0
 41
0.1875
 42
0.0625
 43
0.38
 44
0.125
 45
0.0
 46
0.0
 47
0.01
 48
0.01
140
0.15625
141
0.09
142
0.0
143
25.3999999999999986
144
1.0
145
0.0
146
1.0
147
0.09
 71
     1
 72
     0
 73
     1
 74
     1
 75
     0
 76
     0
 77
     0
 78
     4
170
     0
171
     2
172
     0
173
     0
174
     0
175
     0
176
     0
177
     0
178
     0
  0
ENDTAB
  0
ENDSEC
  0
SECTION
  2
BLOCKS
  0
BLOCK
  8
0
  2
$MODEL_SPACE
 70
     0
 10
0.0
 20
0.0
 30
0.0
  3
$MODEL_SPACE
  1

  0
ENDBLK
  5
21
  8
0
  0
BLOCK
 67
     1
  8
0
  2
$PAPER_SPACE
 70
     0
 10
0.0
 20
0.0
 30
0.0
  3
$PAPER_SPACE
  1

  0
ENDBLK
  5
1D
 67
     1
  8
0
  0
ENDSEC
  0
SECTION
  2
ENTITIES
  0
ATTDEF
  5
829
  8
DEFPOINTS
 10
611.2266542450979614
 20
76.5420910807490742
 30
0.0
 40
0.001
  1
K-25065IN
  3

  2
MODELNUMBER
 70
     0
1001
ACDBATTR
1070
     0
1070
     1
  0
ATTDEF
  5
82A
  8
DEFPOINTS
 10
611.2266542450979614
 20
76.5404244140824233
 30
0.0
 40
0.001
  1
COMPLEMENTARY
  3

  2
TRADENAME
 70
     0
1001
ACDBATTR
1070
     0
1070
     1
  0
ATTDEF
  5
82B
  8
DEFPOINTS
 10
611.2266542450979614
 20
76.5387577474157439
 30
0.0
 40
0.001
  1
TOWEL BAR
  3

  2
PRODUCT
 70
     0
1001
ACDBATTR
1070
     0
1070
     1
  0
LINE
  5
8F94
  8
0
 10
599.3224354749147551
 20
76.2497829704765735
 30
0.0
 11
599.3224354749147551
 21
76.545058560976571
 31
0.0
  0
LINE
  5
8F95
  8
0
 10
600.0114118529146481
 20
76.2104128921765636
 30
0.0
 11
600.0114118529146481
 21
73.4938774586765788
 31
0.0
  0
LINE
  5
8F96
  8
0
 10
600.995663821414837
 20
73.4741924192765765
 30
0.0
 11
600.995663821414837
 21
76.2104128916765831
 31
0.0
  0
LINE
  5
8F97
  8
0
 10
601.6846401993147992
 20
76.545058560976571
 30
0.0
 11
601.6846401993147992
 21
76.2497829704765735
 31
0.0
  0
LINE
  5
8F98
  8
0
 10
600.0310968923148494
 20
73.4741924192765765
 30
0.0
 11
600.9759787820147494
 21
73.4741924192765765
 31
0.0
  0
LINE
  5
8F99
  8
0
 10
621.4681047663148092
 20
73.4741924192765765
 30
0.0
 11
600.995663821414837
 21
73.4741924192765765
 31
0.0
  0
LINE
  5
8F9A
  8
0
 10
621.4877898056148524
 20
73.4741924192765765
 30
0.0
 11
622.4326716954147969
 21
73.4741924192765765
 31
0.0
  0
LINE
  5
8F9B
  8
0
 10
600.995663821414837
 20
74.1631687972765832
 30
0.0
 11
621.4681047663148092
 21
74.1631687972765832
 31
0.0
  0
LINE
  5
8F9C
  8
0
 10
623.1216331127146759
 20
76.2300979310765854
 30
0.0
 11
620.798828388314746
 21
76.2300979310765854
 31
0.0
  0
ARC
  5
8F9D
  8
0
 10
623.1216331127146759
 20
76.2497979310765857
 30
0.0
 40
0.0197
 50
270.0
 51
0.0
  0
ARC
  5
8F9E
  8
0
 10
620.798828388314746
 20
76.2497979310765857
 30
0.0
 40
0.0197
 50
180.0
 51
270.0
  0
LINE
  5
8F9F
  8
0
 10
601.6649551600147561
 20
76.2300979310765712
 30
0.0
 11
599.3421205143148427
 21
76.2300979310765854
 31
0.0
  0
LINE
  5
8FA0
  8
0
 10
623.1413331127148467
 20
76.545058560976571
 30
0.0
 11
620.7791283883148026
 21
76.545058560976571
 31
0.0
  0
LINE
  5
8FA1
  8
0
 10
601.6846401993147992
 20
76.545058560976571
 30
0.0
 11
599.3224354749147551
 21
76.545058560976571
 31
0.0
  0
LINE
  5
8FA2
  8
0
 10
620.7791283883148026
 20
76.2497979310765857
 30
0.0
 11
620.7791283883148026
 21
76.545058560976571
 31
0.0
  0
LINE
  5
8FA3
  8
0
 10
621.4681047663148092
 20
73.4741924192765765
 30
0.0
 11
621.4681047663148092
 21
76.2104128916765831
 31
0.0
  0
LINE
  5
8FA4
  8
0
 10
622.4523567348146571
 20
73.4938774586765788
 30
0.0
 11
622.4523567348146571
 21
76.2104128916765831
 31
0.0
  0
LINE
  5
8FA5
  8
0
 10
623.1413331127148467
 20
76.545058560976571
 30
0.0
 11
623.1413331127148467
 21
76.2497979310765857
 31
0.0
  0
ARC
  5
8FA6
  8
0
 10
599.3421205143148427
 20
76.2497829704765735
 30
0.0
 40
0.0196850394
 50
180.0
 51
270.0
  0
ARC
  5
8FA7
  8
0
 10
601.6649551600147561
 20
76.2497829704765735
 30
0.0
 40
0.0196850394
 50
270.0
 51
0.0
  0
ARC
  5
8FA8
  8
0
 10
622.4326716954147969
 20
73.4938774586765788
 30
0.0
 40
0.0196850394
 50
270.0
 51
0.0
  0
ARC
  5
8FA9
  8
0
 10
621.4877898056148524
 20
73.4938774586765788
 30
0.0
 40
0.0196850394
 50
180.0000012007998862
 51
270.0
  0
ARC
  5
8FAA
  8
0
 10
622.4326716954147969
 20
76.2104128916765831
 30
0.0
 40
0.0196850394
 50
0.0
 51
89.9999999997003641
  0
ARC
  5
8FAB
  8
0
 10
621.4877898056148524
 20
76.2104128916765831
 30
0.0
 40
0.0196850394
 50
90.0
 51
180.0
  0
ARC
  5
8FAC
  8
0
 10
600.0310968923148494
 20
76.2104128916765831
 30
0.0
 40
0.0196850394
 50
89.9999999997003641
 51
179.9999999998998135
  0
ARC
  5
8FAD
  8
0
 10
600.0310968923148494
 20
73.4938774586765788
 30
0.0
 40
0.0196850394
 50
180.0
 51
270.0
  0
ARC
  5
8FAE
  8
0
 10
600.9759787820147494
 20
73.4938774586765788
 30
0.0
 40
0.0196850394
 50
270.0
 51
359.9999987989996839
  0
ARC
  5
8FAF
  8
0
 10
600.9759787820147494
 20
76.2104128916765831
 30
0.0
 40
0.0196850394
 50
0.0
 51
90.0
  0
ENDSEC
  0
EOF
