  0
SECTION
  2
HEADER
  9
$ACADVER
  1
AC1009
  9
$INSBASE
 10
3885.5506689657950119
 20
70.5963709027822404
 30
0.0
  9
$EXTMIN
 10
3874.7638872489701498
 20
66.0801202607447635
 30
0.0
  9
$EXTMAX
 10
3889.2120863138429741
 20
72.8020208157636262
 30
0.0
  9
$LIMMIN
 10
0.0
 20
0.0
  9
$LIMMAX
 10
11.6929133858000007
 20
8.2677165353999982
  9
$ORTHOMODE
 70
     0
  9
$REGENMODE
 70
     1
  9
$FILLMODE
 70
     1
  9
$QTEXTMODE
 70
     0
  9
$MIRRTEXT
 70
     0
  9
$DRAGMODE
 70
     2
  9
$LTSCALE
 40
0.6431102362
  9
$OSMODE
 70
  4095
  9
$ATTMODE
 70
     1
  9
$TEXTSIZE
 40
0.2
  9
$TRACEWID
 40
0.05
  9
$TEXTSTYLE
  7
STANDARD
  9
$CLAYER
  8
0
  9
$CELTYPE
  6
BYLAYER
  9
$CECOLOR
 62
   256
  9
$DIMSCALE
 40
1.0
  9
$DIMASZ
 40
0.1875
  9
$DIMEXO
 40
0.0625
  9
$DIMDLI
 40
0.4443307087
  9
$DIMRND
 40
0.0
  9
$DIMDLE
 40
0.0
  9
$DIMEXE
 40
0.125
  9
$DIMTP
 40
0.01
  9
$DIMTM
 40
0.01
  9
$DIMTXT
 40
2.0
  9
$DIMCEN
 40
0.1052362205
  9
$DIMTSZ
 40
0.0
  9
$DIMTOL
 70
     1
  9
$DIMLIM
 70
     0
  9
$DIMTIH
 70
     1
  9
$DIMTOH
 70
     1
  9
$DIMSE1
 70
     0
  9
$DIMSE2
 70
     0
  9
$DIMTAD
 70
     0
  9
$DIMZIN
 70
     0
  9
$DIMBLK
  1

  9
$DIMASO
 70
     1
  9
$DIMSHO
 70
     1
  9
$DIMPOST
  1
\X
  9
$DIMAPOST
  1

  9
$DIMALT
 70
     1
  9
$DIMALTD
 70
     2
  9
$DIMALTF
 40
25.3999999999999986
  9
$DIMLFAC
 40
1.0
  9
$DIMTOFL
 70
     0
  9
$DIMTVP
 40
0.0
  9
$DIMTIX
 70
     0
  9
$DIMSOXD
 70
     0
  9
$DIMSAH
 70
     0
  9
$DIMBLK1
  1

  9
$DIMBLK2
  1

  9
$DIMSTYLE
  2
STANDARD
  9
$DIMCLRD
 70
     0
  9
$DIMCLRE
 70
     0
  9
$DIMCLRT
 70
     0
  9
$DIMTFAC
 40
1.0
  9
$DIMGAP
 40
0.09
  9
$LUNITS
 70
     2
  9
$LUPREC
 70
     4
  9
$SKETCHINC
 40
0.1
  9
$FILLETRAD
 40
0.0
  9
$AUNITS
 70
     0
  9
$AUPREC
 70
     0
  9
$MENU
  1
.
  9
$ELEVATION
 40
0.0
  9
$PELEVATION
 40
0.0
  9
$THICKNESS
 40
0.0
  9
$LIMCHECK
 70
     0
  9
$BLIPMODE
 70
     0
  9
$CHAMFERA
 40
0.0
  9
$CHAMFERB
 40
0.0
  9
$SKPOLY
 70
     0
  9
$TDCREATE
 40
2458060.468368056230247
  9
$TDUPDATE
 40
2459081.6347916671074927
  9
$TDINDWG
 40
0.4079815972
  9
$TDUSRTIMER
 40
0.4079815972
  9
$USRTIMER
 70
     1
  9
$ANGBASE
 50
0.0
  9
$ANGDIR
 70
     0
  9
$PDMODE
 70
     0
  9
$PDSIZE
 40
0.3125
  9
$PLINEWID
 40
0.0
  9
$COORDS
 70
     1
  9
$SPLFRAME
 70
     0
  9
$SPLINETYPE
 70
     6
  9
$SPLINESEGS
 70
     8
  9
$ATTDIA
 70
     1
  9
$ATTREQ
 70
     1
  9
$HANDLING
 70
     1
  9
$HANDSEED
  5
7148
  9
$SURFTAB1
 70
     6
  9
$SURFTAB2
 70
     6
  9
$SURFTYPE
 70
     6
  9
$SURFU
 70
     6
  9
$SURFV
 70
     6
  9
$UCSNAME
  2

  9
$UCSORG
 10
0.0
 20
0.0
 30
0.0
  9
$UCSXDIR
 10
1.0
 20
0.0
 30
0.0
  9
$UCSYDIR
 10
0.0
 20
1.0
 30
0.0
  9
$PUCSNAME
  2

  9
$PUCSORG
 10
0.0
 20
0.0
 30
0.0
  9
$PUCSXDIR
 10
1.0
 20
0.0
 30
0.0
  9
$PUCSYDIR
 10
0.0
 20
1.0
 30
0.0
  9
$USERI1
 70
     0
  9
$USERI2
 70
     0
  9
$USERI3
 70
     0
  9
$USERI4
 70
     0
  9
$USERI5
 70
     0
  9
$USERR1
 40
0.0
  9
$USERR2
 40
0.0
  9
$USERR3
 40
0.0
  9
$USERR4
 40
0.0
  9
$USERR5
 40
0.0
  9
$WORLDVIEW
 70
     1
  9
$SHADEDGE
 70
     3
  9
$SHADEDIF
 70
    70
  9
$TILEMODE
 70
     1
  9
$MAXACTVP
 70
    64
  9
$PLIMCHECK
 70
     0
  9
$PEXTMIN
 10
1.0000000000000000E+20
 20
1.0000000000000000E+20
 30
1.0000000000000000E+20
  9
$PEXTMAX
 10
-1.0000000000000000E+20
 20
-1.0000000000000000E+20
 30
-1.0000000000000000E+20
  9
$PLIMMIN
 10
0.0
 20
0.0
  9
$PLIMMAX
 10
12.0
 20
9.0
  9
$UNITMODE
 70
     0
  9
$VISRETAIN
 70
     1
  9
$PLINEGEN
 70
     0
  9
$PSLTSCALE
 70
     1
  0
ENDSEC
  0
SECTION
  2
TABLES
  0
TABLE
  2
VPORT
 70
     1
  0
VPORT
  2
*ACTIVE
 70
     0
 10
0.0
 20
0.0
 11
1.0
 21
1.0
 12
96.841244632477256
 22
-48.5366784207872826
 13
0.0
 23
0.0
 14
1.0
 24
1.0
 15
0.0
 25
0.0
 16
0.0
 26
0.0
 36
5.1040778033513332
 17
3792.35791015625
 27
120.1806564331053977
 37
0.0
 40
29.1885768631304785
 41
2.0031380753138071
 42
50.0
 43
0.0
 44
0.0
 50
0.0
 51
0.0
 71
     0
 72
   100
 73
     1
 74
     1
 75
     0
 76
     0
 77
     0
 78
     0
  0
ENDTAB
  0
TABLE
  2
LTYPE
 70
     2
  0
LTYPE
  2
CONTINUOUS
 70
     0
  3
Solid line
 72
    65
 73
     0
 40
0.0
  0
LTYPE
  2
PHANTOM2
 70
     0
  3
___ _ _ ___ _ _ ___ _ _ ___ _ _
 72
    65
 73
     6
 40
1.25
 49
0.625
 49
-0.125
 49
0.125
 49
-0.125
 49
0.125
 49
-0.125
  0
ENDTAB
  0
TABLE
  2
LAYER
 70
     2
  0
LAYER
  2
0
 70
     0
 62
   255
  6
CONTINUOUS
  0
LAYER
  2
DEFPOINTS
 70
     0
 62
     7
  6
CONTINUOUS
  0
ENDTAB
  0
TABLE
  2
STYLE
 70
     1
  0
STYLE
  2
STANDARD
 70
     0
 40
0.0
 41
0.8
 50
0.0
 71
     0
 42
0.2
  3
txt
  4

  0
ENDTAB
  0
TABLE
  2
VIEW
 70
     0
  0
ENDTAB
  0
TABLE
  2
UCS
 70
     0
  0
ENDTAB
  0
TABLE
  2
APPID
 70
     9
  0
APPID
  2
ACAD
 70
     0
  0
APPID
  2
ACAD_MLEADERVER
 70
     0
  0
APPID
  2
ACAD_EXEMPT_FROM_CAD_STANDARDS
 70
     0
  0
APPID
  2
ACAD_NAV_VCDISPLAY
 70
     0
  0
APPID
  2
ACAECLAYERSTANDARD
 70
     0
  0
APPID
  2
ACCMTRANSPARENCY
 70
     0
  0
APPID
  2
ACAD_DSTYLE_DIMJAG
 70
     0
  0
APPID
  2
ACAD_DSTYLE_DIMTALN
 70
     0
  0
APPID
  2
ACDBATTR
 70
     0
  0
ENDTAB
  0
TABLE
  2
DIMSTYLE
 70
     1
  0
DIMSTYLE
  2
STANDARD
 70
     0
  3

  4

  5

  6

  7

 40
1.0
 41
0.1875
 42
0.0625
 43
0.38
 44
0.125
 45
0.0
 46
0.0
 47
0.01
 48
0.01
140
0.15625
141
0.09
142
0.0
143
25.3999999999999986
144
1.0
145
0.0
146
1.0
147
0.09
 71
     1
 72
     0
 73
     1
 74
     1
 75
     0
 76
     0
 77
     0
 78
     4
170
     0
171
     2
172
     0
173
     0
174
     0
175
     0
176
     0
177
     0
178
     0
  0
ENDTAB
  0
ENDSEC
  0
SECTION
  2
BLOCKS
  0
BLOCK
  8
0
  2
$MODEL_SPACE
 70
     0
 10
0.0
 20
0.0
 30
0.0
  3
$MODEL_SPACE
  1

  0
ENDBLK
  5
21
  8
0
  0
BLOCK
 67
     1
  8
0
  2
$PAPER_SPACE
 70
     0
 10
0.0
 20
0.0
 30
0.0
  3
$PAPER_SPACE
  1

  0
ENDBLK
  5
1D
 67
     1
  8
0
  0
BLOCK
  8
0
  2
_FILLED
 70
     0
 10
0.0
 20
0.0
 30
0.0
  3
_FILLED
  1

  0
SOLID
  5
69B4
  8
0
  6
BYBLOCK
 62
     0
 10
0.0
 20
0.0
 30
0.0
 11
-1.0
 21
0.1666666667
 31
0.0
 12
-1.0
 22
-0.1666666667
 32
0.0
 13
-1.0
 23
-0.1666666667
 33
0.0
  0
ENDBLK
  5
69B5
  8
0
  6
BYBLOCK
 62
     0
  0
BLOCK
  8
0
  2
A$CDFAF6206
 70
     0
 10
0.0
 20
0.0
 30
0.0
  3
A$CDFAF6206
  1

  0
LINE
  5
6A0E
  8
0
 10
7.4646650085734834
 20
10.9287685970688493
 30
0.0
 11
7.4646650085734896
 21
10.8905784766688498
 31
0.0
  0
ARC
  5
6A0F
  8
0
 10
7.7269027075262349
 20
10.8926811525838598
 30
0.0
 40
0.2622461286616791
 50
180.4593995232625048
 51
217.0214027758331099
  0
LINE
  5
6A10
  8
0
 10
9.767814609867095
 20
10.9287685970688493
 30
0.0
 11
9.767814609867095
 21
10.8905433757650094
 31
0.0
  0
ARC
  5
6A11
  8
0
 10
9.5068669568548287
 20
10.8922438613003703
 30
0.0
 40
0.2609531936261092
 50
322.8847083717149076
 51
359.6266329125650145
  0
LINE
  5
6A12
  8
0
 10
7.517522606271406
 20
10.7347792678688396
 30
0.0
 11
9.7149570120691777
 21
10.7347792678688396
 31
0.0
  0
LINE
  5
6A13
  8
0
 10
7.4646650085734834
 20
10.9287685970688493
 30
0.0
 11
9.7678146123202936
 21
10.9287685970688493
 31
0.0
  0
ARC
  5
6A14
  8
0
 10
4.0826771419203629
 20
8.527951346868889
 30
0.0
 40
4.0826771653999172
 50
13.3117747050523896
 51
32.7200330051415591
  0
ARC
  5
6A15
  8
0
 10
4.0826771460567306
 20
8.5279513475907933
 30
0.0
 40
4.0826771612084691
 50
359.6656501984817851
 51
13.3117747085593798
  0
ARC
  5
6A16
  8
0
 10
13.1498041284835097
 20
8.5279508235212234
 30
0.0
 40
4.0826788382043553
 50
147.2799733478981068
 51
166.6882233021349862
  0
ARC
  5
6A17
  8
0
 10
13.1498064934207992
 20
8.5279506557033251
 30
0.0
 40
4.0826811782395342
 50
166.688228652086309
 51
180.3343397625230011
  0
LINE
  5
6A18
  8
0
 10
8.1652847935202928
 20
8.504127000268852
 30
0.0
 11
9.0671948248202892
 21
8.5041270002687881
 31
0.0
  0
LINE
  5
6A19
  8
0
 10
8.1652847935202786
 20
8.5041270002667204
 30
0.0
 11
8.1652847935202928
 21
8.3607006934688481
 31
0.0
  0
ARC
  5
6A1A
  8
0
 10
5.6196779630382627
 20
8.3631022096452732
 30
0.0
 40
2.545607963272567
 50
342.0511668832173768
 51
359.945947387132378
  0
LINE
  5
6A1B
  8
0
 10
9.0671948248202892
 20
8.5041270002687881
 30
0.0
 11
9.0671948248202892
 21
8.2885990108688503
 31
0.0
  0
ARC
  5
6A1C
  8
0
 10
9.4521885297801163
 20
7.9614488056228501
 30
0.0
 40
0.5052201595850959
 50
139.6436242991769916
 51
174.6757930071850069
  0
ARC
  5
6A1D
  8
0
 10
9.9238413395551746
 20
8.1492417579399508
 30
0.0
 40
0.9848265662939324
 50
188.2263441834095943
 51
209.5593615864376034
  0
ARC
  5
6A1E
  8
0
 10
8.0788764238271256
 20
7.5665710856463297
 30
0.0
 40
0.0393715937169877
 50
162.1669117288323037
 51
227.2023190037006088
  0
ARC
  5
6A1F
  8
0
 10
8.7223682141740682
 20
8.2079667397440517
 30
0.0
 40
0.947895137885075
 50
225.0018610752970858
 51
261.4598823366255829
  0
ARC
  5
6A20
  8
0
 10
8.6645157662702701
 20
8.1695128573935332
 30
0.0
 40
0.9027466462812931
 50
264.7303071214498118
 51
281.8608311947915013
  0
ARC
  5
6A21
  8
0
 10
8.6645157662698935
 20
8.1695128573999671
 30
0.0
 40
0.9027466462876658
 50
299.1741886792128753
 51
299.1743179154552195
  0
ARC
  5
6A22
  8
0
 10
9.0843330931590316
 20
7.4150554710086141
 30
0.0
 40
0.0393703053609601
 50
251.9700352025496954
 51
252.4698971938937859
  0
ARC
  5
6A23
  8
0
 10
9.0843330931590316
 20
7.4150554710086141
 30
0.0
 40
0.0393703053609601
 50
297.2453716727138726
 51
6.8376113572703074
  0
LINE
  5
6A24
  8
0
 10
9.0671948248202892
 20
7.663402160468852
 30
0.0
 11
9.1234233799329516
 21
7.419742732911689
 31
0.0
  0
ARC
  5
6A25
  8
0
 10
8.8843741880892395
 20
9.8961379890094676
 30
0.0
 40
2.5255097382132701
 50
263.792800240752797
 51
274.9514951129821156
  0
ARC
  5
6A26
  8
0
 10
8.8258167405968848
 20
9.2763025889666508
 30
0.0
 40
1.9029970832759311
 50
246.0108363320686067
 51
263.5276935074397215
  0
ARC
  5
6A27
  8
0
 10
8.607491361665744
 20
8.3225444804829642
 30
0.0
 40
1.064510137163637
 50
283.1717405874071005
 51
297.7022170607311864
  0
LINE
  5
6A28
  8
0
 10
9.0671948248202892
 20
8.2885990108688503
 30
0.0
 11
26.2014378595979593
 21
8.2885990108689942
 31
0.0
  0
LINE
  5
6A29
  8
0
 10
26.2014378595979913
 20
7.6634021604689053
 30
0.0
 11
9.0671948248202892
 21
7.6634021604688618
 31
0.0
  0
LINE
  5
6A2A
  8
0
 10
27.8039676758446994
 20
10.9287685970690802
 30
0.0
 11
27.8039676758446888
 21
10.8905784766690807
 31
0.0
  0
ARC
  5
6A2B
  8
0
 10
27.5417299768919399
 20
10.8926811525840801
 30
0.0
 40
0.2622461286616791
 50
322.9785972241680838
 51
359.5406004767386889
  0
LINE
  5
6A2C
  8
0
 10
25.5008180745510913
 20
10.9287685970690305
 30
0.0
 11
25.5008180745510913
 21
10.8905433757651799
 31
0.0
  0
ARC
  5
6A2D
  8
0
 10
25.7617657275633505
 20
10.8922438613005497
 30
0.0
 40
0.2609531936261092
 50
180.3733670874362929
 51
217.1152916282862861
  0
LINE
  5
6A2E
  8
0
 10
27.7511100781467803
 20
10.7347792678690706
 30
0.0
 11
25.5536756723490015
 21
10.7347792678690208
 31
0.0
  0
LINE
  5
6A2F
  8
0
 10
27.8039676758446888
 20
10.9287685970686006
 30
0.0
 11
25.5008180745510806
 21
10.9287685970686006
 31
0.0
  0
ARC
  5
6A30
  8
0
 10
31.1859555424978616
 20
8.5279513468691981
 30
0.0
 40
4.0826771653999172
 50
147.2799669948597057
 51
166.6882252949490066
  0
ARC
  5
6A31
  8
0
 10
31.185955538361501
 20
8.5279513475911024
 30
0.0
 40
4.0826771612084691
 50
166.6882252914419098
 51
180.3343498015194086
  0
ARC
  5
6A32
  8
0
 10
22.1188285559344706
 20
8.5279508235212251
 30
0.0
 40
4.0826788382046102
 50
13.3117766978667795
 51
32.7200266521023977
  0
ARC
  5
6A33
  8
0
 10
22.1188261909974315
 20
8.5279506557034264
 30
0.0
 40
4.0826811782395342
 50
359.665660237478221
 51
13.31177134791497
  0
LINE
  5
6A34
  8
0
 10
27.1033478908979397
 20
8.5041270002690652
 30
0.0
 11
26.2014378595979416
 21
8.5041270002689835
 31
0.0
  0
LINE
  5
6A35
  8
0
 10
27.1033478908979504
 20
8.5041270002669354
 30
0.0
 11
27.1033478908979397
 21
8.3607006934690649
 31
0.0
  0
ARC
  5
6A36
  8
0
 10
29.6489547213799689
 20
8.3631022096455467
 30
0.0
 40
2.545607963272567
 50
180.0540526128687873
 51
197.9488331167837032
  0
LINE
  5
6A37
  8
0
 10
26.2014378595979416
 20
8.5041270002689835
 30
0.0
 11
26.2014378595979487
 21
8.2885990108690457
 31
0.0
  0
ARC
  5
6A38
  8
0
 10
25.8164441546381305
 20
7.9614488056230366
 30
0.0
 40
0.5052201595850959
 50
5.324206992816312
 51
40.3563757008241879
  0
ARC
  5
6A39
  8
0
 10
25.3447913448601803
 20
8.149241757940846
 30
0.0
 40
0.9848265662968968
 50
330.4406384136033807
 51
351.7736558165743759
  0
ARC
  5
6A3A
  8
0
 10
27.1897562605911212
 20
7.5665710856465473
 30
0.0
 40
0.0393715937169877
 50
312.7976809963004143
 51
17.8330882711689185
  0
ARC
  5
6A3B
  8
0
 10
26.5462644702441715
 20
8.2079667397442542
 30
0.0
 40
0.947895137885075
 50
278.5401176633754972
 51
314.9981389247041079
  0
ARC
  5
6A3C
  8
0
 10
26.6041169181479695
 20
8.1695128573937392
 30
0.0
 40
0.9027466462812931
 50
258.139168805210204
 51
275.2696928785518935
  0
ARC
  5
6A3D
  8
0
 10
26.6041169181483497
 20
8.1695128574001732
 30
0.0
 40
0.9027466462876658
 50
240.8256820845460027
 51
240.8258113207880058
  0
ARC
  5
6A3E
  8
0
 10
26.1842995912592293
 20
7.4150554710088086
 30
0.0
 40
0.0393703053609601
 50
287.5301028061073794
 51
288.0299647974517825
  0
ARC
  5
6A3F
  8
0
 10
26.1842995912592293
 20
7.4150554710088086
 30
0.0
 40
0.0393703053609601
 50
173.1623886427310026
 51
242.7546283272870085
  0
LINE
  5
6A40
  8
0
 10
26.2014378595981192
 20
7.6634021604690448
 30
0.0
 11
26.1452093044853093
 21
7.4197427329118826
 31
0.0
  0
ARC
  5
6A41
  8
0
 10
26.384258496328961
 20
9.8961379890096666
 30
0.0
 40
2.5255097382132701
 50
265.0485048870193054
 51
276.2071997592482262
  0
ARC
  5
6A42
  8
0
 10
26.4428159438213299
 20
9.2763025889668516
 30
0.0
 40
1.9029970832759311
 50
276.4723064925619838
 51
293.9891636679327007
  0
ARC
  5
6A43
  8
0
 10
26.6611413227524885
 20
8.3225444804831703
 30
0.0
 40
1.064510137163637
 50
242.2977829392704052
 51
256.8282594125943774
  0
LINE
  5
6A44
  8
0
 62
     4
 10
17.9031473532159602
 20
10.9287685970686006
 30
0.0
 11
24.6329820359843588
 21
20.0952817181593808
 31
0.0
  0
LINE
  5
6A45
  8
0
 62
     4
 10
17.9031473532159602
 20
-0.0000000300842942
 30
0.0
 11
22.3963351323106608
 21
4.993614497796286
 31
0.0
  0
ENDBLK
  5
6A49
  8
0
  0
ENDSEC
  0
SECTION
  2
ENTITIES
  0
ATTDEF
  5
3930
  8
DEFPOINTS
 10
3885.5507706570219852
 20
70.598166756650599
 30
0.0
 40
0.001
  1
K-25071IN
  3

  2
MODELNUMBER
 70
     0
1001
ACDBATTR
1070
     0
1070
     1
  0
ATTDEF
  5
3931
  8
DEFPOINTS
 10
3885.5507706570219852
 20
70.5965000899839339
 30
0.0
 40
0.001
  1
COMPLEMENTARY
  3

  2
TRADENAME
 70
     0
1001
ACDBATTR
1070
     0
1070
     1
  0
ATTDEF
  5
3932
  8
DEFPOINTS
 10
3885.5507706570219852
 20
70.5948334233172687
 30
0.0
 40
0.001
  1
TOILET TISSUE HOLDER
  3

  2
PRODUCT
 70
     0
1001
ACDBATTR
1070
     0
1070
     1
  0
ARC
  5
708F
  8
0
 10
3882.8341335326949775
 20
71.3444023989322318
 30
0.0
 40
0.0787401574999995
 50
90.0
 51
180.0000000000007958
  0
ARC
  5
7090
  8
0
 10
3883.4444271336328711
 20
71.0687636565093328
 30
0.0
 40
0.019742561409285
 50
90.1665265992766933
 51
179.783018788933191
  0
ARC
  5
7091
  8
0
 10
3883.6801509204001377
 20
71.0676753070382148
 30
0.0
 40
0.0208354592735479
 50
15.0123583289300502
 51
88.7918577380458203
  0
ARC
  5
7092
  8
0
 10
3883.7779152322877962
 20
70.9196935299774225
 30
0.0
 40
0.2025063573610451
 50
257.8545358691267779
 51
270.3112819095666737
  0
ARC
  5
7093
  8
0
 10
3883.7566996298469348
 20
70.8206785029775716
 30
0.0
 40
0.1012440217150235
 50
246.1993810953972002
 51
257.8027663640078799
  0
ARC
  5
7094
  8
0
 10
3883.7234566772940525
 20
70.7509929853899848
 30
0.0
 40
0.0241785791915821
 50
196.5123988949555098
 51
251.643319924678309
  0
ARC
  5
7095
  8
0
 10
3883.7779152322877962
 20
70.9455905707774122
 30
0.0
 40
0.2025063573610451
 50
257.8545358691267779
 51
270.3112819095666737
  0
ARC
  5
7096
  8
0
 10
3883.7566996298469348
 20
70.8465755437775613
 30
0.0
 40
0.1012440217150235
 50
246.1993810953972002
 51
257.8027663640078799
  0
ARC
  5
7097
  8
0
 10
3883.7234566772940525
 20
70.7768900261899745
 30
0.0
 40
0.0241785791915821
 50
196.5123988949555098
 51
251.643319924678309
  0
ARC
  5
7098
  8
0
 10
3889.1344463214009011
 20
70.9196935299774225
 30
0.0
 40
0.2025063573610451
 50
269.6887180904333263
 51
282.1454641308731084
  0
ARC
  5
7099
  8
0
 10
3889.1556619238422172
 20
70.8206785029775716
 30
0.0
 40
0.1012440217150235
 50
282.1972336359920064
 51
293.8006189046027998
  0
ARC
  5
709A
  8
0
 10
3889.1889048763960091
 20
70.7509929853899848
 30
0.0
 40
0.0241785791915821
 50
288.356680075321492
 51
343.4876011050444049
  0
ARC
  5
709B
  8
0
 10
3889.1344463214009011
 20
70.9455905707774122
 30
0.0
 40
0.2025063573610451
 50
269.6887180904333263
 51
282.1454641308731084
  0
ARC
  5
709C
  8
0
 10
3889.1556619238422172
 20
70.8465755437775613
 30
0.0
 40
0.1012440217150235
 50
282.1972336359920064
 51
293.8006189046027998
  0
ARC
  5
709D
  8
0
 10
3889.1889048763960091
 20
70.7768900261899745
 30
0.0
 40
0.0241785791915821
 50
288.356680075321492
 51
343.4876011050444049
  0
ARC
  5
709E
  8
0
 10
3882.8341335326240369
 20
69.8483394065615215
 30
0.0
 40
0.0787401573292885
 50
179.9999998757805884
 51
270.0000000514588123
  0
ARC
  5
709F
  8
0
 10
3883.4444569355378007
 20
68.942924025501938
 30
0.0
 40
0.019772413976835
 50
180.2526520940710952
 51
269.7473653696802103
  0
ARC
  5
70A0
  8
0
 10
3883.6805433565668864
 20
68.9429010865983969
 30
0.0
 40
0.0197320130297386
 50
270.1360935661692793
 51
359.8134387126997922
  0
ARC
  5
70A1
  8
0
 10
3883.4443697476272064
 20
68.9034667698999499
 30
0.0
 40
0.0196850338322875
 50
89.9999837944548915
 51
180.0000159144697136
  0
ARC
  5
70A2
  8
0
 10
3883.444406961607001
 20
68.6673029161319732
 30
0.0
 40
0.0197223290987132
 50
180.1645001649872881
 51
269.8919049433919213
  0
ARC
  5
70A3
  8
0
 10
3889.1922972985189517
 20
68.6673276323806618
 30
0.0
 40
0.0197892346715751
 50
270.300970106936802
 51
359.7151286576520874
  0
ARC
  5
70A4
  8
0
 10
3888.9561947620381943
 20
69.2971535449639191
 30
0.0
 40
0.0196990512326881
 50
90.0406768573448772
 51
179.9056846183052016
  0
ARC
  5
70A5
  8
0
 10
3889.1924327524361615
 20
69.2971990550743158
 30
0.0
 40
0.0196535614064873
 50
359.9081589566488901
 51
90.0918407522940612
  0
ARC
  5
70A6
  8
0
 10
3888.9561807766240236
 20
68.9428368430615137
 30
0.0
 40
0.0196850392292891
 50
179.9999997941914955
 51
270.0000004968708254
  0
ARC
  5
70A7
  8
0
 10
3889.192401249536033
 20
68.9428368428916087
 30
0.0
 40
0.019685039059369
 50
269.999999298257876
 51
359.9996068927366082
  0
ARC
  5
70A8
  8
0
 10
3889.1924012493659575
 20
68.9034667646029391
 30
0.0
 40
0.0196850392292909
 50
359.9999995031266735
 51
90.0000002058092718
  0
LINE
  5
70A9
  8
0
 10
3882.8341335326240369
 20
71.4231425564322393
 30
0.0
 11
3888.2672043988950463
 21
71.4231425564322393
 31
0.0
  0
LINE
  5
70AA
  8
0
 10
3888.3459445563948975
 20
71.3444023989322318
 30
0.0
 11
3888.3459445563948975
 21
71.0885061345322384
 31
0.0
  0
LINE
  5
70AB
  8
0
 10
3888.3459445563948975
 20
70.7171901612322387
 30
0.0
 11
3888.3459445563948975
 21
69.8483394067322365
 31
0.0
  0
LINE
  5
70AC
  8
0
 10
3888.2672043988950463
 20
69.769599249232229
 30
0.0
 11
3883.7002752649941613
 21
69.769599249232229
 31
0.0
  0
LINE
  5
70AD
  8
0
 10
3882.8341335326949775
 20
69.769599249232229
 30
0.0
 11
3883.4246847137937948
 21
69.769599249232229
 31
0.0
  0
LINE
  5
70AE
  8
0
 10
3882.7553933751951263
 20
71.3444023989322318
 30
0.0
 11
3882.7553933752938065
 21
69.8483394067322365
 31
0.0
  0
LINE
  5
70AF
  8
0
 10
3883.4443697531951329
 20
71.0885061345322384
 30
0.0
 11
3883.6805902255941874
 21
71.0885061345322384
 31
0.0
  0
LINE
  5
70B0
  8
0
 10
3883.4246847137937948
 20
71.0688384221322309
 30
0.0
 11
3883.4246847137937948
 21
68.9428368371322335
 31
0.0
  0
LINE
  5
70B1
  8
0
 10
3883.7002752649941613
 20
68.9428368371322335
 30
0.0
 11
3883.7002752649941613
 21
71.0885061345322384
 31
0.0
  0
LINE
  5
70B2
  8
0
 10
3883.4443697531951329
 20
68.9231518037322246
 30
0.0
 11
3889.1924012492950169
 21
68.9231518038322406
 31
0.0
  0
LINE
  5
70B3
  8
0
 10
3883.4246847137937948
 20
68.9034667644322383
 30
0.0
 11
3883.4246847137937948
 21
68.6672462920322744
 31
0.0
  0
LINE
  5
70B4
  8
0
 10
3883.4443697531951329
 20
68.6475386707322315
 30
0.0
 11
3889.1924012492950169
 21
68.6475386707322315
 31
0.0
  0
LINE
  5
70B5
  8
0
 10
3889.2120862885940369
 20
68.9034667644322383
 30
0.0
 11
3889.2120862885940369
 21
68.667229241841838
 31
0.0
  0
LINE
  5
70B6
  8
0
 10
3888.9561807767950086
 20
69.3168525912322337
 30
0.0
 11
3889.1924012492950169
 21
69.3168525912322337
 31
0.0
  0
LINE
  5
70B7
  8
0
 10
3888.9364957374950791
 20
69.2971859718322349
 30
0.0
 11
3888.9364957373950347
 21
68.9428368431322269
 31
0.0
  0
LINE
  5
70B8
  8
0
 10
3889.2120862885940369
 20
69.2971675518322314
 30
0.0
 11
3889.2120862885940369
 21
68.9428367078322282
 31
0.0
  0
ARC
  5
70B9
  8
0
 10
3888.2672043988950463
 20
71.3444023989322318
 30
0.0
 40
0.0787401575000004
 50
0.0
 51
90.0
  0
ARC
  5
70BA
  8
0
 10
3888.2672043988950463
 20
69.8483394067322365
 30
0.0
 40
0.0787401574999991
 50
270.0
 51
0.0000000000008142
  0
ARC
  5
70BB
  8
0
 10
3884.2908264460947976
 20
70.761725233532232
 30
0.0
 40
0.1476377953000004
 50
197.5567863958139014
 51
342.4432136041862123
  0
ARC
  5
70BC
  8
0
 10
3887.6372845181049343
 20
70.7617233505325203
 30
0.0
 40
0.1476359123042926
 50
197.55709575476331
 51
342.4437488701933034
  0
LINE
  5
70BD
  8
0
 10
3883.7790154224949219
 20
70.7430872020322283
 30
0.0
 11
3889.1333461311901374
 21
70.7430872020322283
 31
0.0
  0
LINE
  5
70BE
  8
0
 10
3889.1333461311937754
 20
70.7171901612322387
 30
0.0
 11
3883.7790154224949219
 21
70.7171901612322387
 31
0.0
  0
LINE
  5
70BF
  8
0
 10
3883.7002752649941613
 20
70.6672462920322317
 30
0.0
 11
3884.0742910130938981
 21
70.66724629193223
 31
0.0
  0
LINE
  5
70C0
  8
0
 10
3884.0939760523938276
 20
70.7171901612322387
 30
0.0
 11
3884.0939760523938276
 21
70.6869325303322285
 31
0.0
  0
ARC
  5
70C1
  8
0
 10
3884.0742910131398276
 20
70.6869313312238745
 30
0.0
 40
0.0196850392916366
 50
269.999999854039288
 51
0.0034901555131747
  0
LINE
  5
70C2
  8
0
 10
3883.7002752649941613
 20
71.0885061345322384
 30
0.0
 11
3889.2120862885940369
 21
71.0885061345322384
 31
0.0
  0
LINE
  5
70C3
  8
0
 10
3889.2120862885940369
 20
71.0885061345322384
 30
0.0
 11
3889.2120862885940369
 21
70.7441208812322344
 31
0.0
  0
LINE
  5
70C4
  8
0
 10
3883.4246847137937948
 20
71.0097659770322309
 30
0.0
 11
3883.7002752649941613
 21
71.0097659770322309
 31
0.0
  0
ENDSEC
  0
EOF
