  0
SECTION
  2
HEADER
  9
$ACADVER
  1
AC1009
  9
$INSBASE
 10
5094.0346960190699974
 20
594.3226755275826463
 30
0.0
  9
$EXTMIN
 10
5086.4615753909165505
 20
572.4404871080784005
 30
0.0
  9
$EXTMAX
 10
5101.6078166472243538
 20
594.3270159627076055
 30
0.0
  9
$LIMMIN
 10
0.0
 20
0.0
  9
$LIMMAX
 10
11.6929133858000007
 20
8.2677165353999982
  9
$ORTHOMODE
 70
     0
  9
$REGENMODE
 70
     1
  9
$FILLMODE
 70
     1
  9
$QTEXTMODE
 70
     0
  9
$MIRRTEXT
 70
     0
  9
$DRAGMODE
 70
     2
  9
$LTSCALE
 40
0.6431102362
  9
$OSMODE
 70
     7
  9
$ATTMODE
 70
     1
  9
$TEXTSIZE
 40
0.2
  9
$TRACEWID
 40
0.05
  9
$TEXTSTYLE
  7
STANDARD
  9
$CLAYER
  8
0
  9
$CELTYPE
  6
BYLAYER
  9
$CECOLOR
 62
   256
  9
$DIMSCALE
 40
1.0
  9
$DIMASZ
 40
0.1875
  9
$DIMEXO
 40
0.0625
  9
$DIMDLI
 40
0.4443307087
  9
$DIMRND
 40
0.0
  9
$DIMDLE
 40
0.0
  9
$DIMEXE
 40
0.125
  9
$DIMTP
 40
0.01
  9
$DIMTM
 40
0.01
  9
$DIMTXT
 40
2.0
  9
$DIMCEN
 40
0.1052362205
  9
$DIMTSZ
 40
0.0
  9
$DIMTOL
 70
     1
  9
$DIMLIM
 70
     0
  9
$DIMTIH
 70
     1
  9
$DIMTOH
 70
     1
  9
$DIMSE1
 70
     0
  9
$DIMSE2
 70
     0
  9
$DIMTAD
 70
     0
  9
$DIMZIN
 70
     0
  9
$DIMBLK
  1

  9
$DIMASO
 70
     1
  9
$DIMSHO
 70
     1
  9
$DIMPOST
  1
\X
  9
$DIMAPOST
  1

  9
$DIMALT
 70
     1
  9
$DIMALTD
 70
     2
  9
$DIMALTF
 40
25.3999999999999986
  9
$DIMLFAC
 40
1.0
  9
$DIMTOFL
 70
     0
  9
$DIMTVP
 40
0.0
  9
$DIMTIX
 70
     0
  9
$DIMSOXD
 70
     0
  9
$DIMSAH
 70
     0
  9
$DIMBLK1
  1

  9
$DIMBLK2
  1

  9
$DIMSTYLE
  2
STANDARD
  9
$DIMCLRD
 70
     0
  9
$DIMCLRE
 70
     0
  9
$DIMCLRT
 70
     0
  9
$DIMTFAC
 40
1.0
  9
$DIMGAP
 40
0.09
  9
$LUNITS
 70
     2
  9
$LUPREC
 70
     4
  9
$SKETCHINC
 40
0.1
  9
$FILLETRAD
 40
0.0
  9
$AUNITS
 70
     0
  9
$AUPREC
 70
     0
  9
$MENU
  1
.
  9
$ELEVATION
 40
0.0
  9
$PELEVATION
 40
0.0
  9
$THICKNESS
 40
0.0
  9
$LIMCHECK
 70
     0
  9
$BLIPMODE
 70
     0
  9
$CHAMFERA
 40
0.0
  9
$CHAMFERB
 40
0.0
  9
$SKPOLY
 70
     0
  9
$TDCREATE
 40
2458060.468368056230247
  9
$TDUPDATE
 40
2459431.6849884260445833
  9
$TDINDWG
 40
1.7828904398000001
  9
$TDUSRTIMER
 40
1.7828904398000001
  9
$USRTIMER
 70
     1
  9
$ANGBASE
 50
0.0
  9
$ANGDIR
 70
     0
  9
$PDMODE
 70
     0
  9
$PDSIZE
 40
0.3125
  9
$PLINEWID
 40
0.0
  9
$COORDS
 70
     1
  9
$SPLFRAME
 70
     0
  9
$SPLINETYPE
 70
     6
  9
$SPLINESEGS
 70
     8
  9
$ATTDIA
 70
     1
  9
$ATTREQ
 70
     1
  9
$HANDLING
 70
     1
  9
$HANDSEED
  5
1F48A
  9
$SURFTAB1
 70
     6
  9
$SURFTAB2
 70
     6
  9
$SURFTYPE
 70
     6
  9
$SURFU
 70
     6
  9
$SURFV
 70
     6
  9
$UCSNAME
  2

  9
$UCSORG
 10
0.0
 20
0.0
 30
0.0
  9
$UCSXDIR
 10
1.0
 20
0.0
 30
0.0
  9
$UCSYDIR
 10
0.0
 20
1.0
 30
0.0
  9
$PUCSNAME
  2

  9
$PUCSORG
 10
0.0
 20
0.0
 30
0.0
  9
$PUCSXDIR
 10
1.0
 20
0.0
 30
0.0
  9
$PUCSYDIR
 10
0.0
 20
1.0
 30
0.0
  9
$USERI1
 70
     0
  9
$USERI2
 70
     0
  9
$USERI3
 70
     0
  9
$USERI4
 70
     0
  9
$USERI5
 70
     0
  9
$USERR1
 40
0.0
  9
$USERR2
 40
0.0
  9
$USERR3
 40
0.0
  9
$USERR4
 40
0.0
  9
$USERR5
 40
0.0
  9
$WORLDVIEW
 70
     1
  9
$SHADEDGE
 70
     3
  9
$SHADEDIF
 70
    70
  9
$TILEMODE
 70
     1
  9
$MAXACTVP
 70
    64
  9
$PLIMCHECK
 70
     0
  9
$PEXTMIN
 10
1.0000000000000000E+20
 20
1.0000000000000000E+20
 30
1.0000000000000000E+20
  9
$PEXTMAX
 10
-1.0000000000000000E+20
 20
-1.0000000000000000E+20
 30
-1.0000000000000000E+20
  9
$PLIMMIN
 10
0.0
 20
0.0
  9
$PLIMMAX
 10
12.0
 20
9.0
  9
$UNITMODE
 70
     0
  9
$VISRETAIN
 70
     1
  9
$PLINEGEN
 70
     0
  9
$PSLTSCALE
 70
     1
  0
ENDSEC
  0
SECTION
  2
TABLES
  0
TABLE
  2
VPORT
 70
     1
  0
VPORT
  2
*ACTIVE
 70
     0
 10
0.0
 20
0.0
 11
1.0
 21
1.0
 12
1182.5493987844060939
 22
450.8133743667074214
 13
0.0
 23
0.0
 14
1.0
 24
1.0
 15
0.0
 25
0.0
 16
0.0
 26
0.0
 36
60.4960186965801583
 17
3911.3653564453120453
 27
132.5796051025390057
 37
0.0
 40
22.1027731127757185
 41
2.23170731707317
 42
50.0
 43
0.0
 44
0.0
 50
0.0
 51
0.0
 71
     0
 72
   100
 73
     1
 74
     1
 75
     0
 76
     0
 77
     0
 78
     0
  0
ENDTAB
  0
TABLE
  2
LTYPE
 70
     2
  0
LTYPE
  2
CONTINUOUS
 70
     0
  3
Solid line
 72
    65
 73
     0
 40
0.0
  0
LTYPE
  2
PHANTOM2
 70
     0
  3
___ _ _ ___ _ _ ___ _ _ ___ _ _
 72
    65
 73
     6
 40
1.25
 49
0.625
 49
-0.125
 49
0.125
 49
-0.125
 49
0.125
 49
-0.125
  0
ENDTAB
  0
TABLE
  2
LAYER
 70
     2
  0
LAYER
  2
0
 70
     0
 62
   255
  6
CONTINUOUS
  0
LAYER
  2
DEFPOINTS
 70
     0
 62
     7
  6
CONTINUOUS
  0
ENDTAB
  0
TABLE
  2
STYLE
 70
     1
  0
STYLE
  2
STANDARD
 70
     0
 40
0.0
 41
0.8
 50
0.0
 71
     0
 42
0.2
  3
txt
  4

  0
ENDTAB
  0
TABLE
  2
VIEW
 70
     0
  0
ENDTAB
  0
TABLE
  2
UCS
 70
     0
  0
ENDTAB
  0
TABLE
  2
APPID
 70
    11
  0
APPID
  2
ACAD
 70
     0
  0
APPID
  2
ACAD_MLEADERVER
 70
     0
  0
APPID
  2
ACAD_EXEMPT_FROM_CAD_STANDARDS
 70
     0
  0
APPID
  2
ACAD_NAV_VCDISPLAY
 70
     0
  0
APPID
  2
ACAECLAYERSTANDARD
 70
     0
  0
APPID
  2
ACCMTRANSPARENCY
 70
     0
  0
APPID
  2
ACAD_DSTYLE_DIMJAG
 70
     0
  0
APPID
  2
ACAD_DSTYLE_DIMTALN
 70
     0
  0
APPID
  2
ACDBATTR
 70
     0
  0
APPID
  2
ACADANNOTATIVE
 70
     0
  0
APPID
  2
DCO15
 70
     0
  0
ENDTAB
  0
TABLE
  2
DIMSTYLE
 70
     1
  0
DIMSTYLE
  2
STANDARD
 70
     0
  3

  4

  5

  6

  7

 40
1.0
 41
0.1875
 42
0.0625
 43
0.38
 44
0.125
 45
0.0
 46
0.0
 47
0.01
 48
0.01
140
0.15625
141
0.09
142
0.0
143
25.3999999999999986
144
1.0
145
0.0
146
1.0
147
0.09
 71
     1
 72
     0
 73
     1
 74
     1
 75
     0
 76
     0
 77
     0
 78
     4
170
     0
171
     2
172
     0
173
     0
174
     0
175
     0
176
     0
177
     0
178
     0
  0
ENDTAB
  0
ENDSEC
  0
SECTION
  2
BLOCKS
  0
BLOCK
  8
0
  2
$MODEL_SPACE
 70
     0
 10
0.0
 20
0.0
 30
0.0
  3
$MODEL_SPACE
  1

  0
ENDBLK
  5
21
  8
0
  0
BLOCK
 67
     1
  8
0
  2
$PAPER_SPACE
 70
     0
 10
0.0
 20
0.0
 30
0.0
  3
$PAPER_SPACE
  1

  0
ENDBLK
  5
1D
 67
     1
  8
0
  0
ENDSEC
  0
SECTION
  2
ENTITIES
  0
ATTDEF
  5
159BF
  8
DEFPOINTS
 10
5094.0346966519100533
 20
594.3260159627071744
 30
0.0
 40
0.001
  1
K-25094T-GS
  3

  2
MODELNUMBER
 70
     0
1001
ACDBATTR
1070
     0
1070
     1
  0
ATTDEF
  5
159C0
  8
DEFPOINTS
 10
5094.0346966519100533
 20
594.3243491223280444
 30
0.0
 40
0.001
  1
VEIL
  3

  2
TRADENAME
 70
     0
1001
ACDBATTR
1070
     0
1070
     1
  0
ATTDEF
  5
159C1
  8
DEFPOINTS
 10
5094.0346966519100533
 20
594.3226826293738441
 30
0.0
 40
0.001
  1
TOILET
  3

  2
PRODUCT
 70
     0
1001
ACDBATTR
1070
     0
1070
     1
  0
LINE
  5
1F384
  8
0
 10
5086.7862768702207177
 20
594.3226755275826463
 30
0.0
 11
5101.2831151679201867
 21
594.3226755275826463
 31
0.0
  0
ARC
  5
1F385
  8
0
 10
5130.2279762238058538
 20
587.0032018255654975
 30
0.0
 40
43.7664008328887775
 50
175.9253805261452044
 51
184.0746194738547956
  0
LINE
  5
1F386
  8
0
 10
5086.5722012469195761
 20
590.1130495762826058
 30
0.0
 11
5086.7862768702207177
 21
594.3226755275826463
 31
0.0
  0
ARC
  5
1F387
  8
0
 10
5110.7592208737951296
 20
585.8461064174407511
 30
0.0
 40
24.2657198562563785
 50
184.6157947328406976
 51
192.9092860333240083
  0
LINE
  5
1F388
  8
0
 10
5089.7482398843203555
 20
591.8311560765824879
 30
0.0
 11
5089.7406316780197812
 21
592.0647579562825058
 31
0.0
  0
ARC
  5
1F389
  8
0
 10
5089.7091988158827007
 20
592.0306270828532433
 30
0.0
 40
0.0463997989557419
 50
47.356447346665
 51
74.9780291587061356
  0
ARC
  5
1F38A
  8
0
 10
5089.700391025891804
 20
591.9974445971110981
 30
0.0
 40
0.0807312637200229
 50
75.0445661107845723
 51
89.517924744944807
  0
LINE
  5
1F38B
  8
0
 10
5089.7010702746201787
 20
592.0781730032825863
 30
0.0
 11
5089.4803520987206866
 21
592.0781730032825863
 31
0.0
  0
ARC
  5
1F38C
  8
0
 10
5089.480932098806079
 20
591.9512091931533178
 30
0.0
 40
0.1269651349098033
 50
90.2617385680181741
 51
120.2789943079908994
  0
ARC
  5
1F38D
  8
0
 10
5089.5412373256403953
 20
591.8610485110292529
 30
0.0
 40
0.2353257881532672
 50
121.8906178335718948
 51
136.2083358036854008
  0
ARC
  5
1F38E
  8
0
 10
5091.4302019468159415
 20
590.2854570575771049
 30
0.0
 40
2.694625080066086
 50
139.8228403334416043
 51
149.5720610187927093
  0
ARC
  5
1F38F
  8
0
 10
5100.6815543720676942
 20
584.6330850715795577
 30
0.0
 40
13.5357393873003709
 50
148.7742741391197967
 51
154.6466740663298083
  0
ARC
  5
1F390
  8
0
 10
5101.3933539659774397
 20
583.2157495440934554
 30
0.0
 40
14.5565692185614406
 50
168.9467577216894085
 51
191.0532422783105915
  0
ARC
  5
1F391
  8
0
 10
5106.3314813761398909
 20
582.7371768012385473
 30
0.0
 40
19.5006800641407096
 50
161.8682191662720982
 51
170.3485333003607138
  0
ARC
  5
1F392
  8
0
 10
5101.4433598472051017
 20
584.2809198266610338
 30
0.0
 40
14.3749701698076002
 50
154.6783938427026044
 51
161.6525257765979973
  0
ARC
  5
1F393
  8
0
 10
5101.7863776068106745
 20
583.5890520023629051
 30
0.0
 40
15.0166923519991098
 50
192.1637157300534966
 51
201.6133997982508959
  0
ARC
  5
1F394
  8
0
 10
5101.8840589971168811
 20
583.7385953677101043
 30
0.0
 40
15.1629390696935502
 50
202.002790712060488
 51
214.8765375739949093
  0
ARC
  5
1F395
  8
0
 10
5095.4807720015678569
 20
579.3004111112190913
 30
0.0
 40
7.3720017307898944
 50
215.0353890882944938
 51
234.3980549113391874
  0
ARC
  5
1F396
  8
0
 10
5090.4622132330759996
 20
603.6522236335721345
 30
0.0
 40
11.8653697583319797
 50
268.3604752362617774
 51
270.0016537482450758
  0
ARC
  5
1F397
  8
0
 10
5171.2691078662373911
 20
3426.8058359837300486
 30
0.0
 40
2836.1752099044160786
 50
268.3550314194000066
 51
268.3604752362617774
  0
ARC
  5
1F398
  8
0
 10
5089.8639879176171235
 20
592.1691898855291356
 30
0.0
 40
0.3699082384668745
 50
259.4779865393193745
 51
268.3550314194000066
  0
ARC
  5
1F399
  8
0
 10
5089.8232758625390488
 20
591.9499973206764025
 30
0.0
 40
0.1469668741680054
 50
245.042789093341014
 51
259.4779865393193745
  0
ARC
  5
1F39A
  8
0
 10
5089.771784352393297
 20
591.8393577726685635
 30
0.0
 40
0.0249321037111876
 50
199.2057399313218866
 51
245.0427890933383139
  0
LINE
  5
1F39B
  8
0
 10
5089.7630423702203188
 20
591.8402696067824991
 30
0.0
 11
5089.7479430647154004
 21
591.8402696067824991
 31
0.0
  0
LINE
  5
1F39C
  8
0
 10
5089.7630423702203188
 20
591.8402696067824991
 30
0.0
 11
5089.7630423702203188
 21
591.8159406591263405
 31
0.0
  0
ARC
  5
1F39D
  8
0
 10
5100.816198302648445
 20
591.7794150580361929
 30
0.0
 40
11.0406647177675392
 50
179.0757620002891883
 51
179.8361634819686117
  0
ARC
  5
1F39E
  8
0
 10
5090.5033254548243349
 20
591.9457864011084212
 30
0.0
 40
0.7264499730961289
 50
177.1135227941043979
 51
179.0757620002891883
  0
ARC
  5
1F39F
  8
0
 10
5089.8569198980403598
 20
591.9799713134685817
 30
0.0
 40
0.0791590502066977
 50
90.1164848401967618
 51
178.2647060672109944
  0
LINE
  5
1F3A0
  8
0
 10
5089.8567589643198517
 20
592.0591302000825635
 30
0.0
 11
5090.1993869949201326
 21
592.0591302000825635
 31
0.0
  0
ARC
  5
1F3A1
  8
0
 10
5090.1992731120872122
 20
591.9997781749201522
 30
0.0
 40
0.059352134419833
 50
3.86487135003865
 51
89.8900627621082862
  0
ARC
  5
1F3A2
  8
0
 10
4888.2749577250906441
 20
573.8749760957362014
 30
0.0
 40
202.7954656863138041
 50
5.1168162910445956
 51
5.1287750422326388
  0
ARC
  5
1F3A3
  8
0
 10
5084.6534044428672132
 20
591.7818581417321866
 30
0.0
 40
5.6117451821333111
 50
0.0680186317860023
 51
1.8356823293294411
  0
LINE
  5
1F3A4
  8
0
 10
5090.2728848898195793
 20
591.9288522839826783
 30
0.0
 11
5090.2632241112105476
 21
591.9288522839826783
 31
0.0
  0
LINE
  5
1F3A5
  8
0
 10
5090.2728848898195793
 20
591.9288522839826783
 30
0.0
 11
5090.2728848898195793
 21
591.788364468849295
 31
0.0
  0
LINE
  5
1F3A6
  8
0
 10
5090.2974707236207905
 20
591.8796396854826298
 30
0.0
 11
5090.2728848898195793
 21
591.8796396854826298
 31
0.0
  0
LINE
  5
1F3A7
  8
0
 10
5090.4382392205206997
 20
592.1155165542826353
 30
0.0
 11
5090.3269372557206225
 21
592.1158601579826382
 31
0.0
  0
LINE
  5
1F3A8
  8
0
 10
5090.2875716741200449
 20
592.0764900789824878
 30
0.0
 11
5090.2875716741200449
 21
591.8796396854826298
 31
0.0
  0
ARC
  5
1F3A9
  8
0
 10
5090.3270950424512193
 20
592.0763368074195796
 30
0.0
 40
0.0395236655231405
 50
90.2287373307372746
 51
179.7778081668558059
  0
ARC
  5
1F3AA
  8
0
 10
5090.4378340515440868
 20
592.0954436313686529
 30
0.0
 40
0.0200770116353965
 50
36.0686987767057232
 51
88.8436502030953648
  0
ARC
  5
1F3AB
  8
0
 10
5090.4413888268200026
 20
592.1046570080826541
 30
0.0
 40
0.0196850394000109
 50
7.6105393737579838
 51
89.9999999999478888
  0
LINE
  5
1F3AC
  8
0
 10
5090.4413888268200026
 20
592.124342047482628
 30
0.0
 11
5090.3673730788195826
 21
592.124342047482628
 31
0.0
  0
LINE
  5
1F3AD
  8
0
 10
5090.3476880394200634
 20
592.1440270881824972
 30
0.0
 11
5090.3476880394200634
 21
592.1519011025826558
 31
0.0
  0
ARC
  5
1F3AE
  8
0
 10
5090.3673730786485976
 20
592.1440270867118443
 30
0.0
 40
0.0196850392292802
 50
179.9999957192962086
 51
270.0000004968708254
  0
ARC
  5
1F3AF
  8
0
 10
5090.3673730788195826
 20
592.1519011025826558
 30
0.0
 40
0.0196850393999988
 50
89.9999967982967206
 51
180.0000000000194973
  0
LINE
  5
1F3B0
  8
0
 10
5090.3673730799200712
 20
592.171586141982516
 30
0.0
 11
5090.5051683544206753
 21
592.171586141982516
 31
0.0
  0
ARC
  5
1F3B1
  8
0
 10
5090.5051683544206753
 20
592.1519011025826558
 30
0.0
 40
0.0196850394000023
 50
359.9999967983031866
 51
90.0
  0
LINE
  5
1F3B2
  8
0
 10
5090.5248533938201945
 20
592.1519011014826219
 30
0.0
 11
5090.5248533938201945
 21
592.1072640694826532
 31
0.0
  0
LINE
  5
1F3B3
  8
0
 10
5090.4382392205206997
 20
592.1072640694826532
 30
0.0
 11
5090.4382392205206997
 21
592.1155165542826353
 31
0.0
  0
LINE
  5
1F3B4
  8
0
 10
5090.4382392205206997
 20
592.1072640694826532
 30
0.0
 11
5097.6311528176202046
 21
592.1072640694826532
 31
0.0
  0
ARC
  5
1F3B5
  8
0
 10
5090.4586457059403983
 20
591.8785676252498433
 30
0.0
 40
0.163109414057927
 50
173.6602740014251935
 51
179.623412484599811
  0
ARC
  5
1F3B6
  8
0
 10
5090.0940478898010042
 20
591.8768830925090469
 30
0.0
 40
0.2034415103268875
 50
0.7763704481336114
 51
5.5556366868173983
  0
ARC
  5
1F3B7
  8
0
 10
5097.6443129619319734
 20
591.9765312937332737
 30
0.0
 40
7.3474811233781123
 50
180.7555842663921908
 51
181.4701019391933983
  0
LINE
  5
1F3B8
  8
0
 10
5091.4127133179199518
 20
592.1058896556826312
 30
0.0
 11
5091.4117558379193724
 21
592.101101788960591
 31
0.0
  0
LINE
  5
1F3B9
  8
0
 10
5091.4117558379193724
 20
592.101101788960591
 30
0.0
 11
5091.4115707474202281
 21
592.0941210089825972
 31
0.0
  0
LINE
  5
1F3BA
  8
0
 10
5091.4127133179199518
 20
592.1058896556826312
 30
0.0
 11
5091.4126458031214497
 21
592.0425503272824699
 31
0.0
  0
LINE
  5
1F3BB
  8
0
 10
5091.4126458031214497
 20
592.0425503272824699
 30
0.0
 11
5091.4117596754203987
 21
592.0381192570824851
 31
0.0
  0
LINE
  5
1F3BC
  8
0
 10
5091.4117596754203987
 20
592.0381192570824851
 30
0.0
 11
5091.4116239424201922
 21
592.0330000182825643
 31
0.0
  0
LINE
  5
1F3BD
  8
0
 10
5091.4115707474202281
 20
592.0941210089825972
 30
0.0
 11
5091.41069362185317
 21
592.0314706290031381
 31
0.0
  0
ARC
  5
1F3BE
  8
0
 10
5124.644921724854612
 20
591.7549506334661373
 30
0.0
 40
33.2353784529428609
 50
179.5232907754532903
 51
179.9450007264717044
  0
ARC
  5
1F3BF
  8
0
 10
5107.8889294933969722
 20
591.7890958426715997
 30
0.0
 40
16.4791106394468585
 50
179.1519451231962137
 51
180.0077950195031065
  0
LINE
  5
1F3C0
  8
0
 10
5091.4126458031214497
 20
592.0425503272824699
 30
0.0
 11
5091.422491189120592
 21
592.0425503272824699
 31
0.0
  0
LINE
  5
1F3C1
  8
0
 10
5091.4117596754203987
 20
592.0381192570824851
 30
0.0
 11
5091.422491189120592
 21
592.0381192570824851
 31
0.0
  0
LINE
  5
1F3C2
  8
0
 10
5091.422491189120592
 20
592.1048588447825978
 30
0.0
 11
5091.422491189120592
 21
591.786853880182548
 31
0.0
  0
ARC
  5
1F3C3
  8
0
 10
5057.841415814334141
 20
587.0032018255654975
 30
0.0
 40
43.7664008328897225
 50
355.9253805261452044
 51
4.074619473854793
  0
LINE
  5
1F3C4
  8
0
 10
5101.4971907912213283
 20
590.1130495762826058
 30
0.0
 11
5101.2831151679201867
 21
594.3226755275826463
 31
0.0
  0
ARC
  5
1F3C5
  8
0
 10
5077.3101711643448652
 20
585.8461064174407511
 30
0.0
 40
24.2657198562563785
 50
347.0907139666759917
 51
355.3842052671591887
  0
LINE
  5
1F3C6
  8
0
 10
5098.3211521538205488
 20
591.8311560765824879
 30
0.0
 11
5098.3287603601211231
 21
592.0647579562825058
 31
0.0
  0
ARC
  5
1F3C7
  8
0
 10
5098.3601932222563846
 20
592.0306270828532433
 30
0.0
 40
0.0463997989557419
 50
105.0219708412937933
 51
132.6435526533350071
  0
ARC
  5
1F3C8
  8
0
 10
5098.3690010122472813
 20
591.9974445971110981
 30
0.0
 40
0.0807312637200229
 50
90.4820752550552072
 51
104.9554338892153993
  0
LINE
  5
1F3C9
  8
0
 10
5098.3683217635207257
 20
592.0781730032825863
 30
0.0
 11
5098.5890399394202177
 21
592.0781730032825863
 31
0.0
  0
ARC
  5
1F3CA
  8
0
 10
5098.5884599393348253
 20
591.9512091931533178
 30
0.0
 40
0.1269651349098033
 50
59.7210056920091006
 51
89.7382614319818543
  0
ARC
  5
1F3CB
  8
0
 10
5098.5281547124995996
 20
591.8610485110292529
 30
0.0
 40
0.2353257881532672
 50
43.7916641963145921
 51
58.1093821664281407
  0
ARC
  5
1F3CC
  8
0
 10
5096.6391900913240534
 20
590.2854570575771049
 30
0.0
 40
2.694625080066086
 50
30.4279389812073191
 51
40.1771596665583672
  0
ARC
  5
1F3CD
  8
0
 10
5087.3878376660713911
 20
584.6330850715795577
 30
0.0
 40
13.5357393873003709
 50
25.3533259336702201
 51
31.2257258608802104
  0
ARC
  5
1F3CE
  8
0
 10
5086.6760380721625552
 20
583.2157495440934554
 30
0.0
 40
14.5565692185615791
 50
348.9467577216893801
 51
11.0532422783106092
  0
ARC
  5
1F3CF
  8
0
 10
5081.7379106620010134
 20
582.7371768012385473
 30
0.0
 40
19.5006800641407096
 50
9.6514666996393306
 51
18.1317808337279303
  0
ARC
  5
1F3D0
  8
0
 10
5086.6260321909358026
 20
584.2809198266610338
 30
0.0
 40
14.3749701698076002
 50
18.3474742234019601
 51
25.3216061572973494
  0
ARC
  5
1F3D1
  8
0
 10
5086.2830144313302299
 20
583.5890520023629051
 30
0.0
 40
15.0166923519991098
 50
338.3866002017489905
 51
347.836284269946475
  0
ARC
  5
1F3D2
  8
0
 10
5086.1853330410240233
 20
583.7385953677101043
 30
0.0
 40
15.1629390696935502
 50
325.1234624260051191
 51
337.9972092879394836
  0
ARC
  5
1F3D3
  8
0
 10
5092.5886200365721379
 20
579.3004111112190913
 30
0.0
 40
7.3720017307898944
 50
305.6019450886607842
 51
324.9646109117055062
  0
ARC
  5
1F3D4
  8
0
 10
5097.6071788050639952
 20
603.6522236335721345
 30
0.0
 40
11.8653697583319797
 50
269.9983462517549242
 51
271.6395247637382226
  0
ARC
  5
1F3D5
  8
0
 10
5016.8002841719026037
 20
3426.8058359837300486
 30
0.0
 40
2836.1752099044160786
 50
271.6395247637382226
 51
271.6449685805998797
  0
ARC
  5
1F3D6
  8
0
 10
5098.2054041205237809
 20
592.1691898855291356
 30
0.0
 40
0.3699082384668745
 50
271.6449685805998797
 51
280.5220134606805118
  0
ARC
  5
1F3D7
  8
0
 10
5098.2461161756018555
 20
591.9499973206764025
 30
0.0
 40
0.1469668741680054
 50
280.5220134606805118
 51
294.957210906658986
  0
ARC
  5
1F3D8
  8
0
 10
5098.2976076857476073
 20
591.8393577726685635
 30
0.0
 40
0.0249321037111876
 50
294.9572109066617145
 51
340.7942600686781134
  0
LINE
  5
1F3D9
  8
0
 10
5098.3063496679205855
 20
591.8402696067824991
 30
0.0
 11
5098.3214489734264134
 21
591.8402696067824991
 31
0.0
  0
LINE
  5
1F3DA
  8
0
 10
5098.3063496679205855
 20
591.8402696067824991
 30
0.0
 11
5098.3063496679205855
 21
591.8159406591263405
 31
0.0
  0
ARC
  5
1F3DB
  8
0
 10
5087.2531937354915499
 20
591.7794150580361929
 30
0.0
 40
11.0406647177675392
 50
0.1638365180314102
 51
0.924237999710818
  0
ARC
  5
1F3DC
  8
0
 10
5097.5660665833165694
 20
591.9457864011084212
 30
0.0
 40
0.7264499730961289
 50
0.924237999710818
 51
2.886477205895607
  0
ARC
  5
1F3DD
  8
0
 10
5098.212472140099635
 20
591.9799713134685817
 30
0.0
 40
0.0791590502066977
 50
1.735293932788962
 51
89.8835151598032667
  0
LINE
  5
1F3DE
  8
0
 10
5098.2126330738210527
 20
592.0591302000825635
 30
0.0
 11
5097.8700050432207718
 21
592.0591302000825635
 31
0.0
  0
ARC
  5
1F3DF
  8
0
 10
5097.8701189260536921
 20
591.9997781749201522
 30
0.0
 40
0.059352134419833
 50
90.1099372378917138
 51
176.1351286499613025
  0
ARC
  5
1F3E0
  8
0
 10
5299.7944343130502602
 20
573.8749760957362014
 30
0.0
 40
202.7954656863138041
 50
174.8712249577673106
 51
174.8831837089554142
  0
ARC
  5
1F3E1
  8
0
 10
5103.4159875952736911
 20
591.7818581417321866
 30
0.0
 40
5.6117451821333111
 50
178.1643176706706129
 51
179.9319813682139966
  0
LINE
  5
1F3E2
  8
0
 10
5097.7965071483204156
 20
591.9288522839826783
 30
0.0
 11
5097.8061679269294473
 21
591.9288522839826783
 31
0.0
  0
LINE
  5
1F3E3
  8
0
 10
5097.7965071483204156
 20
591.9288522839826783
 30
0.0
 11
5097.7965071483204156
 21
591.788364468849295
 31
0.0
  0
LINE
  5
1F3E4
  8
0
 10
5097.7719213145201138
 20
591.8796396854826298
 30
0.0
 11
5097.7965071483204156
 21
591.8796396854826298
 31
0.0
  0
LINE
  5
1F3E5
  8
0
 10
5097.6311528176202046
 20
592.1155165542826353
 30
0.0
 11
5097.7424547824202818
 21
592.1158601579826382
 31
0.0
  0
LINE
  5
1F3E6
  8
0
 10
5097.7818203640190404
 20
592.0764900789824878
 30
0.0
 11
5097.7818203640190404
 21
591.8796396854826298
 31
0.0
  0
ARC
  5
1F3E7
  8
0
 10
5097.742296995689685
 20
592.0763368074195796
 30
0.0
 40
0.0395236655231405
 50
0.2221918331441945
 51
89.7712626692627538
  0
ARC
  5
1F3E8
  8
0
 10
5097.631557986595908
 20
592.0954436313686529
 30
0.0
 40
0.0200770116353965
 50
91.1563497969046352
 51
143.9313012232942981
  0
ARC
  5
1F3E9
  8
0
 10
5097.6280032113199923
 20
592.1046570080826541
 30
0.0
 40
0.0196850394000109
 50
90.0000000000521254
 51
172.3894606262419984
  0
LINE
  5
1F3EA
  8
0
 10
5097.6280032113199923
 20
592.124342047482628
 30
0.0
 11
5097.7020189593213217
 21
592.124342047482628
 31
0.0
  0
LINE
  5
1F3EB
  8
0
 10
5097.7217039987199314
 20
592.1440270881824972
 30
0.0
 11
5097.7217039987199314
 21
592.1519011025826558
 31
0.0
  0
ARC
  5
1F3EC
  8
0
 10
5097.7020189594913973
 20
592.1440270867118443
 30
0.0
 40
0.0196850392292802
 50
269.9999995031291746
 51
0.0000042807037622
  0
ARC
  5
1F3ED
  8
0
 10
5097.7020189593213217
 20
592.1519011025826558
 30
0.0
 40
0.0196850393999988
 50
359.9999999999805027
 51
90.0000032017032652
  0
LINE
  5
1F3EE
  8
0
 10
5097.7020189582190142
 20
592.171586141982516
 30
0.0
 11
5097.564223683720229
 21
592.171586141982516
 31
0.0
  0
ARC
  5
1F3EF
  8
0
 10
5097.564223683720229
 20
592.1519011025826558
 30
0.0
 40
0.0196850394000023
 50
90.0
 51
180.0000032016901912
  0
LINE
  5
1F3F0
  8
0
 10
5097.5445386443207099
 20
592.1519011014826219
 30
0.0
 11
5097.5445386443207099
 21
592.1072640694826532
 31
0.0
  0
LINE
  5
1F3F1
  8
0
 10
5097.6311528176202046
 20
592.1072640694826532
 30
0.0
 11
5097.6311528176202046
 21
592.1155165542826353
 31
0.0
  0
ARC
  5
1F3F2
  8
0
 10
5097.6107463322014155
 20
591.8785676252498433
 30
0.0
 40
0.163109414057927
 50
0.3765875154001725
 51
6.3397259985747887
  0
ARC
  5
1F3F3
  8
0
 10
5097.9753441483399001
 20
591.8768830925090469
 30
0.0
 40
0.2034415103268875
 50
174.4443633131826061
 51
179.2236295518663951
  0
ARC
  5
1F3F4
  8
0
 10
5090.4250790762080214
 20
591.9765312937332737
 30
0.0
 40
7.3474811233781123
 50
358.5298980608066017
 51
359.2444157336076955
  0
LINE
  5
1F3F5
  8
0
 10
5096.656678720220043
 20
592.1058896556826312
 30
0.0
 11
5096.6576362002233509
 21
592.101101788960591
 31
0.0
  0
LINE
  5
1F3F6
  8
0
 10
5096.6576362002233509
 20
592.101101788960591
 30
0.0
 11
5096.6578212907206762
 21
592.0941210089825972
 31
0.0
  0
LINE
  5
1F3F7
  8
0
 10
5096.656678720220043
 20
592.1058896556826312
 30
0.0
 11
5096.6567462350203641
 21
592.0425503272824699
 31
0.0
  0
LINE
  5
1F3F8
  8
0
 10
5096.6567462350203641
 20
592.0425503272824699
 30
0.0
 11
5096.6576323627195961
 21
592.0381192570824851
 31
0.0
  0
LINE
  5
1F3F9
  8
0
 10
5096.6576323627195961
 20
592.0381192570824851
 30
0.0
 11
5096.6577680957198027
 21
592.0330000182825643
 31
0.0
  0
LINE
  5
1F3FA
  8
0
 10
5096.6578212907206762
 20
592.0941210089825972
 30
0.0
 11
5096.6586984162877343
 21
592.0314706290031381
 31
0.0
  0
ARC
  5
1F3FB
  8
0
 10
5063.4244703132835639
 20
591.7549506334661373
 30
0.0
 40
33.2353784529428609
 50
0.0549992735283343
 51
0.4767092245466343
  0
ARC
  5
1F3FC
  8
0
 10
5080.1804625447439321
 20
591.7890958426715997
 30
0.0
 40
16.4791106394468585
 50
359.992204980496922
 51
0.8480548768037509
  0
LINE
  5
1F3FD
  8
0
 10
5096.6567462350203641
 20
592.0425503272824699
 30
0.0
 11
5096.6469008490203123
 21
592.0425503272824699
 31
0.0
  0
LINE
  5
1F3FE
  8
0
 10
5096.6576323627195961
 20
592.0381192570824851
 30
0.0
 11
5096.6469008490203123
 21
592.0381192570824851
 31
0.0
  0
LINE
  5
1F3FF
  8
0
 10
5096.6469008490203123
 20
592.1048588447825978
 30
0.0
 11
5096.6469008490203123
 21
591.786853880182548
 31
0.0
  0
ARC
  5
1F400
  8
0
 10
5094.0346960190699974
 20
577.5490242414756494
 30
0.0
 40
5.10853713339728
 50
236.1502868120292931
 51
303.8497131879706785
  0
LINE
  5
1F401
  8
0
 10
5097.6068363307203981
 20
591.786853880182548
 30
0.0
 11
5090.4625557074214157
 21
591.786853880182548
 31
0.0
  0
LINE
  5
1F402
  8
0
 10
5091.4127133179199518
 20
592.1058896556826312
 30
0.0
 11
5096.656678720220043
 21
592.1058896556826312
 31
0.0
  0
LINE
  5
1F403
  8
0
 10
5096.6469008490203123
 20
592.1048588447825978
 30
0.0
 11
5091.422491189120592
 21
592.1048588447825978
 31
0.0
  0
ENDSEC
  0
EOF
