  0
SECTION
  2
HEADER
  9
$ACADVER
  1
AC1009
  9
$INSBASE
 10
3726.6865034211878083
 20
90.7301180542752377
 30
0.0
  9
$EXTMIN
 10
3722.3112221200872227
 20
87.9501180543252303
 30
0.0
  9
$EXTMAX
 10
3726.7074880027580548
 20
92.2310551426252374
 30
0.0
  9
$LIMMIN
 10
0.0
 20
0.0
  9
$LIMMAX
 10
11.6929133858000007
 20
8.2677165353999982
  9
$ORTHOMODE
 70
     1
  9
$REGENMODE
 70
     1
  9
$FILLMODE
 70
     1
  9
$QTEXTMODE
 70
     0
  9
$MIRRTEXT
 70
     0
  9
$DRAGMODE
 70
     2
  9
$LTSCALE
 40
0.6431102362
  9
$OSMODE
 70
  4095
  9
$ATTMODE
 70
     1
  9
$TEXTSIZE
 40
0.2
  9
$TRACEWID
 40
0.05
  9
$TEXTSTYLE
  7
STANDARD
  9
$CLAYER
  8
0
  9
$CELTYPE
  6
BYLAYER
  9
$CECOLOR
 62
   256
  9
$DIMSCALE
 40
1.0
  9
$DIMASZ
 40
0.1875
  9
$DIMEXO
 40
0.0625
  9
$DIMDLI
 40
0.4443307087
  9
$DIMRND
 40
0.0
  9
$DIMDLE
 40
0.0
  9
$DIMEXE
 40
0.125
  9
$DIMTP
 40
0.01
  9
$DIMTM
 40
0.01
  9
$DIMTXT
 40
2.0
  9
$DIMCEN
 40
0.1052362205
  9
$DIMTSZ
 40
0.0
  9
$DIMTOL
 70
     1
  9
$DIMLIM
 70
     0
  9
$DIMTIH
 70
     1
  9
$DIMTOH
 70
     1
  9
$DIMSE1
 70
     0
  9
$DIMSE2
 70
     0
  9
$DIMTAD
 70
     0
  9
$DIMZIN
 70
     0
  9
$DIMBLK
  1

  9
$DIMASO
 70
     1
  9
$DIMSHO
 70
     1
  9
$DIMPOST
  1
\X
  9
$DIMAPOST
  1

  9
$DIMALT
 70
     1
  9
$DIMALTD
 70
     2
  9
$DIMALTF
 40
25.3999999999999986
  9
$DIMLFAC
 40
1.0
  9
$DIMTOFL
 70
     0
  9
$DIMTVP
 40
0.0
  9
$DIMTIX
 70
     0
  9
$DIMSOXD
 70
     0
  9
$DIMSAH
 70
     0
  9
$DIMBLK1
  1

  9
$DIMBLK2
  1

  9
$DIMSTYLE
  2
STANDARD
  9
$DIMCLRD
 70
     0
  9
$DIMCLRE
 70
     0
  9
$DIMCLRT
 70
     0
  9
$DIMTFAC
 40
1.0
  9
$DIMGAP
 40
0.09
  9
$LUNITS
 70
     2
  9
$LUPREC
 70
     4
  9
$SKETCHINC
 40
0.1
  9
$FILLETRAD
 40
0.0
  9
$AUNITS
 70
     0
  9
$AUPREC
 70
     0
  9
$MENU
  1
.
  9
$ELEVATION
 40
0.0
  9
$PELEVATION
 40
0.0
  9
$THICKNESS
 40
0.0
  9
$LIMCHECK
 70
     0
  9
$BLIPMODE
 70
     0
  9
$CHAMFERA
 40
0.0
  9
$CHAMFERB
 40
0.0
  9
$SKPOLY
 70
     0
  9
$TDCREATE
 40
2458060.468368056230247
  9
$TDUPDATE
 40
2458815.5835648151114583
  9
$TDINDWG
 40
0.2908982639
  9
$TDUSRTIMER
 40
0.2908982639
  9
$USRTIMER
 70
     1
  9
$ANGBASE
 50
0.0
  9
$ANGDIR
 70
     0
  9
$PDMODE
 70
     0
  9
$PDSIZE
 40
0.3125
  9
$PLINEWID
 40
0.0
  9
$COORDS
 70
     1
  9
$SPLFRAME
 70
     0
  9
$SPLINETYPE
 70
     6
  9
$SPLINESEGS
 70
     8
  9
$ATTDIA
 70
     1
  9
$ATTREQ
 70
     1
  9
$HANDLING
 70
     1
  9
$HANDSEED
  5
61B0
  9
$SURFTAB1
 70
     6
  9
$SURFTAB2
 70
     6
  9
$SURFTYPE
 70
     6
  9
$SURFU
 70
     6
  9
$SURFV
 70
     6
  9
$UCSNAME
  2

  9
$UCSORG
 10
0.0
 20
0.0
 30
0.0
  9
$UCSXDIR
 10
1.0
 20
0.0
 30
0.0
  9
$UCSYDIR
 10
0.0
 20
1.0
 30
0.0
  9
$PUCSNAME
  2

  9
$PUCSORG
 10
0.0
 20
0.0
 30
0.0
  9
$PUCSXDIR
 10
1.0
 20
0.0
 30
0.0
  9
$PUCSYDIR
 10
0.0
 20
1.0
 30
0.0
  9
$USERI1
 70
     0
  9
$USERI2
 70
     0
  9
$USERI3
 70
     0
  9
$USERI4
 70
     0
  9
$USERI5
 70
     0
  9
$USERR1
 40
0.0
  9
$USERR2
 40
0.0
  9
$USERR3
 40
0.0
  9
$USERR4
 40
0.0
  9
$USERR5
 40
0.0
  9
$WORLDVIEW
 70
     1
  9
$SHADEDGE
 70
     3
  9
$SHADEDIF
 70
    70
  9
$TILEMODE
 70
     1
  9
$MAXACTVP
 70
    64
  9
$PLIMCHECK
 70
     0
  9
$PEXTMIN
 10
1.0000000000000000E+20
 20
1.0000000000000000E+20
 30
1.0000000000000000E+20
  9
$PEXTMAX
 10
-1.0000000000000000E+20
 20
-1.0000000000000000E+20
 30
-1.0000000000000000E+20
  9
$PLIMMIN
 10
0.0
 20
0.0
  9
$PLIMMAX
 10
12.0
 20
9.0
  9
$UNITMODE
 70
     0
  9
$VISRETAIN
 70
     1
  9
$PLINEGEN
 70
     0
  9
$PSLTSCALE
 70
     1
  0
ENDSEC
  0
SECTION
  2
TABLES
  0
TABLE
  2
VPORT
 70
     1
  0
VPORT
  2
*ACTIVE
 70
     0
 10
0.0
 20
0.0
 11
1.0
 21
1.0
 12
0.0
 22
0.0
 13
0.0
 23
0.0
 14
1.0
 24
1.0
 15
0.0
 25
0.0
 16
0.0
 26
0.0
 36
17.5793265694947287
 17
3724.5093836499740974
 27
90.0905876159667969
 37
0.0
 40
6.141484354470343
 41
2.1481900452488678
 42
50.0
 43
0.0
 44
0.0
 50
0.0
 51
0.0
 71
     0
 72
   100
 73
     1
 74
     1
 75
     0
 76
     0
 77
     0
 78
     0
  0
ENDTAB
  0
TABLE
  2
LTYPE
 70
     2
  0
LTYPE
  2
CONTINUOUS
 70
     0
  3
Solid line
 72
    65
 73
     0
 40
0.0
  0
LTYPE
  2
PHANTOM2
 70
     0
  3
___ _ _ ___ _ _ ___ _ _ ___ _ _
 72
    65
 73
     6
 40
1.25
 49
0.625
 49
-0.125
 49
0.125
 49
-0.125
 49
0.125
 49
-0.125
  0
ENDTAB
  0
TABLE
  2
LAYER
 70
     2
  0
LAYER
  2
0
 70
     0
 62
   255
  6
CONTINUOUS
  0
LAYER
  2
DEFPOINTS
 70
     0
 62
     7
  6
CONTINUOUS
  0
ENDTAB
  0
TABLE
  2
STYLE
 70
     1
  0
STYLE
  2
STANDARD
 70
     0
 40
0.0
 41
0.8
 50
0.0
 71
     0
 42
0.2
  3
txt
  4

  0
ENDTAB
  0
TABLE
  2
VIEW
 70
     0
  0
ENDTAB
  0
TABLE
  2
UCS
 70
     0
  0
ENDTAB
  0
TABLE
  2
APPID
 70
     9
  0
APPID
  2
ACAD
 70
     0
  0
APPID
  2
ACAD_MLEADERVER
 70
     0
  0
APPID
  2
ACAD_EXEMPT_FROM_CAD_STANDARDS
 70
     0
  0
APPID
  2
ACAD_NAV_VCDISPLAY
 70
     0
  0
APPID
  2
ACAECLAYERSTANDARD
 70
     0
  0
APPID
  2
ACCMTRANSPARENCY
 70
     0
  0
APPID
  2
ACAD_DSTYLE_DIMJAG
 70
     0
  0
APPID
  2
ACAD_DSTYLE_DIMTALN
 70
     0
  0
APPID
  2
ACDBATTR
 70
     0
  0
ENDTAB
  0
TABLE
  2
DIMSTYLE
 70
     1
  0
DIMSTYLE
  2
STANDARD
 70
     0
  3

  4

  5

  6

  7

 40
1.0
 41
0.1875
 42
0.0625
 43
0.38
 44
0.125
 45
0.0
 46
0.0
 47
0.01
 48
0.01
140
0.15625
141
0.09
142
0.0
143
25.3999999999999986
144
1.0
145
0.0
146
1.0
147
0.09
 71
     1
 72
     0
 73
     1
 74
     1
 75
     0
 76
     0
 77
     0
 78
     4
170
     0
171
     2
172
     0
173
     0
174
     0
175
     0
176
     0
177
     0
178
     0
  0
ENDTAB
  0
ENDSEC
  0
SECTION
  2
BLOCKS
  0
BLOCK
  8
0
  2
$MODEL_SPACE
 70
     0
 10
0.0
 20
0.0
 30
0.0
  3
$MODEL_SPACE
  1

  0
ENDBLK
  5
21
  8
0
  0
BLOCK
 67
     1
  8
0
  2
$PAPER_SPACE
 70
     0
 10
0.0
 20
0.0
 30
0.0
  3
$PAPER_SPACE
  1

  0
ENDBLK
  5
1D
 67
     1
  8
0
  0
ENDSEC
  0
SECTION
  2
ENTITIES
  0
ATTDEF
  5
3930
  8
DEFPOINTS
 10
3726.696821336089215
 20
90.7317847209418886
 30
0.0
 40
0.001
  1
K-25155
  3

  2
MODELNUMBER
 70
     0
1001
ACDBATTR
1070
     0
1070
     1
  0
ATTDEF
  5
3931
  8
DEFPOINTS
 10
3726.696821336089215
 20
90.7301180542752377
 30
0.0
 40
0.001
  1
ARTIFACTS
  3

  2
TRADENAME
 70
     0
1001
ACDBATTR
1070
     0
1070
     1
  0
ATTDEF
  5
3932
  8
DEFPOINTS
 10
3726.696821336089215
 20
90.7284513876085725
 30
0.0
 40
0.001
  1
GRAB BAR
  3

  2
PRODUCT
 70
     0
1001
ACDBATTR
1070
     0
1070
     1
  0
LINE
  5
607B
  8
0
 10
3722.7959465294870824
 20
88.7301180543252457
 30
0.0
 11
3722.7959465294870824
 21
89.8801180543252372
 31
0.0
  0
LINE
  5
607C
  8
0
 10
3723.3864977105868093
 20
88.7301180543252457
 30
0.0
 11
3723.3864977105868093
 21
89.8801180543252372
 31
0.0
  0
LINE
  5
607D
  8
0
 10
3724.2061953978882229
 20
90.350583862825232
 30
0.0
 11
3724.2061953978882229
 21
91.1096522458252309
 31
0.0
  0
LINE
  5
607E
  8
0
 10
3724.9592405870871517
 20
91.1446768966252279
 30
0.0
 11
3724.9592405870871517
 21
90.3155592120252351
 31
0.0
  0
ARC
  5
607F
  8
0
 10
3723.9412221200877866
 20
89.8801180543252372
 30
0.0
 40
1.1452755906000001
 50
88.4989900865090391
 51
180.0
  0
ARC
  5
6080
  8
0
 10
3723.0912221200878776
 20
88.7301180543252457
 30
0.0
 40
0.7800000000000001
 50
112.2444182455985953
 51
67.7555817623767069
  0
ARC
  5
6081
  8
0
 10
3723.0912221200878776
 20
88.7301180543252457
 30
0.0
 40
0.7
 50
114.9496887116684007
 51
65.0503112974031552
  0
ARC
  5
6082
  8
0
 10
3723.9412221200877866
 20
89.8801180543252372
 30
0.0
 40
0.5547244094
 50
86.9001141100912946
 51
180.0
  0
ARC
  5
6083
  8
0
 10
3723.0912221200878776
 20
88.7301180543252457
 30
0.0
 40
0.455
 50
130.4630358828009946
 51
49.5369641338278015
  0
ARC
  5
6084
  8
0
 10
3723.0912221200878776
 20
88.7301180543252457
 30
0.0
 40
0.3855958896
 50
139.9750409843967134
 51
40.0249590388156733
  0
ARC
  5
6085
  8
0
 10
3723.0912221200878776
 20
88.7301180543252457
 30
0.0
 40
0.2952755906
 50
180.0
 51
0.0
  0
LINE
  5
6086
  8
0
 10
3726.336952318987187
 20
89.5511795408252169
 30
0.0
 11
3726.2748099111868214
 21
89.5511795408252169
 31
0.0
  0
LINE
  5
6087
  8
0
 10
3725.2485647257872188
 20
90.1676180542252439
 30
0.0
 11
3725.404847230886844
 21
90.1676180542252439
 31
0.0
  0
LINE
  5
6088
  8
0
 10
3725.5038945651881477
 20
90.2183620863252287
 30
0.0
 11
3725.4688424098872019
 21
90.2183620863252287
 31
0.0
  0
LINE
  5
6089
  8
0
 10
3725.1708284192868632
 20
90.2379920700252285
 30
0.0
 11
3725.1078362932871642
 21
90.2379920700252285
 31
0.0
  0
LINE
  5
608A
  8
0
 10
3725.0487811751881964
 20
90.3364172668252365
 30
0.0
 11
3725.0042793629881999
 21
90.3364172668252365
 31
0.0
  0
LINE
  5
608B
  8
0
 10
3724.1578055872869299
 20
90.3757873456252412
 30
0.0
 11
3724.0751591279881723
 21
90.3757873456252412
 31
0.0
  0
LINE
  5
608C
  8
0
 10
3725.2735056259871271
 20
90.4883361288252246
 30
0.0
 11
3725.3799063305878008
 21
90.4883361288252246
 31
0.0
  0
LINE
  5
608D
  8
0
 10
3725.4348744937929041
 20
90.1985614347170923
 30
0.0
 11
3725.4230337642870836
 21
90.178118054225223
 31
0.0
  0
LINE
  5
608E
  8
0
 10
3725.2029932734872091
 20
90.2255501249252347
 30
0.0
 11
3725.2303781877049005
 21
90.1781180621625822
 31
0.0
  0
LINE
  5
608F
  8
0
 10
3723.9712221200870772
 20
90.3821842262252346
 30
0.0
 11
3723.9712221200870772
 21
91.0780518823252265
 31
0.0
  0
LINE
  5
6090
  8
0
 10
3724.0751591279881723
 20
90.3757873456252412
 30
0.0
 11
3724.0751591279881723
 21
91.0844487629252342
 31
0.0
  0
LINE
  5
6091
  8
0
 10
3725.0783087341869759
 20
90.2675196290252302
 30
0.0
 11
3725.0783087341869759
 21
91.1927164795251741
 31
0.0
  0
LINE
  5
6092
  8
0
 10
3725.200355978287007
 20
90.235405878425226
 30
0.0
 11
3725.200355978287007
 21
91.2248302301252636
 31
0.0
  0
LINE
  5
6093
  8
0
 10
3725.5511386596881493
 20
91.3340952386252525
 30
0.0
 11
3725.5511386596881493
 21
90.1261408699252371
 31
0.0
  0
LINE
  5
6094
  8
0
 10
3726.2449739451872119
 20
89.5780598079252286
 30
0.0
 11
3726.2449739451872119
 21
91.8821763006252468
 31
0.0
  0
LINE
  5
6095
  8
0
 10
3726.366173835887821
 20
89.5279580820252363
 30
0.0
 11
3726.366173835887821
 21
91.9322780269322948
 31
0.0
  0
LINE
  5
6096
  8
0
 10
3726.6865034211878083
 20
92.2310551426252232
 30
0.0
 11
3726.6865034211878083
 21
89.2291809659252237
 31
0.0
  0
ARC
  5
6097
  8
0
 10
3724.1578055872869299
 20
90.316732227525236
 30
0.0
 40
0.0590551181
 50
34.9751457857042709
 51
90.0
  0
ARC
  5
6098
  8
0
 10
3724.0233874743871638
 20
90.3821842262252346
 30
0.0
 40
0.0521653543
 50
180.0
 51
352.9562617161985827
  0
ARC
  5
6099
  8
0
 10
3724.5962228561870688
 20
90.6234319664252155
 30
0.0
 40
0.4759910775
 50
214.9751457858008905
 51
319.6989600115970234
  0
ARC
  5
609A
  8
0
 10
3725.0042793629881999
 20
90.2773621487252456
 30
0.0
 40
0.0590551181
 50
90.0
 51
139.6989600113965935
  0
ARC
  5
609B
  8
0
 10
3725.5015583853491989
 20
90.1687818907240199
 30
0.0
 40
0.0496352045638235
 50
2.6958049866691849
 51
87.3022632558478762
  0
ARC
  5
609C
  8
0
 10
3725.4691743879598107
 20
90.1787563610792944
 30
0.0
 40
0.0396071165536999
 50
90.4802461483416351
 51
149.9974687187057896
  0
ARC
  5
609D
  8
0
 10
3726.2770168584961539
 20
89.5836276268098146
 30
0.0
 40
0.0325230518323457
 50
189.857368772942209
 51
266.1090363894376196
  0
ARC
  5
609E
  8
0
 10
3726.3369496784598596
 20
89.521179541134444
 30
0.0
 40
0.0299999998069873
 50
13.0588281871733702
 51
89.9949569644835208
  0
ARC
  5
609F
  8
0
 10
3725.7010328558590118
 20
90.1189061695781533
 30
0.0
 40
0.0291024820926864
 50
104.0331373380398929
 51
172.6162594521834137
  0
ARC
  5
60A0
  8
0
 10
3725.6433689929640423
 20
90.1263811698000552
 30
0.0
 40
0.0290438567252995
 50
318.5098091642086047
 51
352.6115419349999911
  0
ARC
  5
60A1
  8
0
 10
3725.5865949656849807
 20
90.1282303448446527
 30
0.0
 40
0.0355178200405351
 50
183.3725959570888051
 51
218.5036577562696891
  0
ARC
  5
60A2
  8
0
 10
3725.0466222278969326
 20
90.3047307606428404
 30
0.0
 40
0.0317599706200056
 50
3.8978004015261631
 51
86.1021994044227768
  0
ARC
  5
60A3
  8
0
 10
3725.1096384316419972
 20
90.2693217673799637
 30
0.0
 40
0.0313814857082096
 50
183.2921245401500983
 51
266.7078754598517207
  0
ARC
  5
60A4
  8
0
 10
3725.1689173322329225
 20
90.269430715972959
 30
0.0
 40
0.0314966779048631
 50
273.4786056189478813
 51
356.5213945750988955
  0
ARC
  5
60A5
  8
0
 10
3725.2236916237920923
 20
90.2363695170218989
 30
0.0
 40
0.0233555336155702
 50
182.3646688030698044
 51
207.5968608219106102
  0
ARC
  5
60A6
  8
0
 10
3726.6941278778917876
 20
89.561295432824096
 30
0.0
 40
0.3322019739007413
 50
221.8715830840478134
 51
268.6848737029250742
  0
ARC
  5
60A7
  8
0
 10
3726.8305474639278145
 20
89.6151531572381259
 30
0.0
 40
0.4724889920946724
 50
190.6345559918769084
 51
215.6811212909937012
  0
ARC
  5
60A8
  8
0
 10
3725.0096355718819723
 20
89.4647862869793755
 30
0.0
 40
1.240520772542103
 50
5.2390476859559101
 51
18.3828605690420908
  0
ARC
  5
60A9
  8
0
 10
3725.7710957926469746
 20
89.7509457715646164
 30
0.0
 40
0.4288253661130249
 50
14.1811933408175097
 51
68.19143174576935
  0
ARC
  5
60AA
  8
0
 10
3725.8154085368528285
 20
89.7560852803462978
 30
0.0
 40
0.409474955198296
 50
73.6893929563471488
 51
107.2509070691315003
  0
ARC
  5
60AB
  8
0
 10
3725.6115405698301402
 20
90.1505242596730056
 30
0.0
 40
0.0689454993667193
 50
220.0963354120383997
 51
321.0047063912602994
  0
ARC
  5
60AC
  8
0
 10
3725.4041970980661063
 20
90.1897441171613963
 30
0.0
 40
0.0221356123416728
 50
271.6830446675854205
 51
328.3169555492352742
  0
ARC
  5
60AD
  8
0
 10
3725.2505049952219451
 20
90.1919786978108249
 30
0.0
 40
0.0244377904357208
 50
214.5538392816908129
 51
265.4461357681493041
  0
ARC
  5
60AE
  8
0
 10
3724.3605164363930271
 20
90.7344930930647138
 30
0.0
 40
1.062526335221557
 50
347.5589860888285898
 51
359.7640792911450944
  0
ARC
  5
60AF
  8
0
 10
3725.4113308445921575
 20
90.5023492447295865
 30
0.0
 40
0.0136285028974202
 50
166.2507763674437911
 51
193.7492254013864965
  0
ARC
  5
60B0
  8
0
 10
3724.9052269560638706
 20
90.340343657218213
 30
0.0
 40
0.5178065196304741
 50
342.1447383342493822
 51
17.8552616231077792
  0
ARC
  5
60B1
  8
0
 10
3725.3789765033347976
 20
90.1876561173482543
 30
0.0
 40
0.0200596237389445
 50
272.6567196460392779
 51
342.3595488165512961
  0
ARC
  5
60B2
  8
0
 10
3726.2919991607650445
 20
90.7343935175504868
 30
0.0
 40
1.0616295777231961
 50
180.2307458914660003
 51
192.446187949838702
  0
ARC
  5
60B3
  8
0
 10
3725.2417841920278079
 20
90.5023492454252221
 30
0.0
 40
0.0139170919042522
 50
346.541311793379009
 51
13.4586882066748696
  0
ARC
  5
60B4
  8
0
 10
3725.759700814342068
 20
90.3390128651309681
 30
0.0
 40
0.5291805487973698
 50
162.3898910093028007
 51
197.6125509188973126
  0
ARC
  5
60B5
  8
0
 10
3725.2747088361211354
 20
90.1898509772270671
 30
0.0
 40
0.0222654553359423
 50
209.4788081968322899
 51
266.9023500033924847
  0
ARC
  5
60B6
  8
0
 10
3725.3763134301220816
 20
90.5151374134264444
 30
0.0
 40
0.0270410389969008
 50
277.6353796776376157
 51
323.6509754150695812
  0
ARC
  5
60B7
  8
0
 10
3725.2770994576721932
 20
90.5151389847601138
 30
0.0
 40
0.0270427201243315
 50
216.3505309777343939
 51
262.3631073860768765
  0
LINE
  5
60B8
  8
0
 10
3726.336952318987187
 20
91.90905656772523
 30
0.0
 11
3726.2748099111868214
 21
91.90905656772523
 31
0.0
  0
LINE
  5
60B9
  8
0
 10
3725.2485647257872188
 20
91.2926180543252315
 30
0.0
 11
3725.404847230886844
 21
91.2926180543252315
 31
0.0
  0
LINE
  5
60BA
  8
0
 10
3725.5038945651881477
 20
91.2418740222252183
 30
0.0
 11
3725.4688424098872019
 21
91.2418740222252183
 31
0.0
  0
LINE
  5
60BB
  8
0
 10
3725.1708284192868632
 20
91.2222440385252327
 30
0.0
 11
3725.1078362932871642
 21
91.2222440385252327
 31
0.0
  0
LINE
  5
60BC
  8
0
 10
3725.0487811751881964
 20
91.1238188417252388
 30
0.0
 11
3725.0042793629881999
 21
91.1238188417252388
 31
0.0
  0
LINE
  5
60BD
  8
0
 10
3724.1578055872869299
 20
91.0844487629252342
 30
0.0
 11
3724.0751591279881723
 21
91.0844487629252342
 31
0.0
  0
LINE
  5
60BE
  8
0
 10
3725.2735056259871271
 20
90.9718999797252366
 30
0.0
 11
3725.3799063305878008
 21
90.9718999797252366
 31
0.0
  0
LINE
  5
60BF
  8
0
 10
3725.4348744937929041
 20
91.2616746738333688
 30
0.0
 11
3725.4230337642870836
 21
91.282118054325224
 31
0.0
  0
LINE
  5
60C0
  8
0
 10
3725.2029932734872091
 20
91.2346859836252406
 30
0.0
 11
3725.2303781877049005
 21
91.2821180463878932
 31
0.0
  0
ARC
  5
60C1
  8
0
 10
3724.1578055872869299
 20
91.1435038810252252
 30
0.0
 40
0.0590551181
 50
270.0
 51
325.0248542142957149
  0
ARC
  5
60C2
  8
0
 10
3724.0233874743871638
 20
91.0780518823252265
 30
0.0
 40
0.0521653543
 50
7.0437382838005203
 51
180.0
  0
ARC
  5
60C3
  8
0
 10
3724.5962228561870688
 20
90.8368041421252315
 30
0.0
 40
0.4759910775
 50
40.3010399884029482
 51
145.0248542141985126
  0
ARC
  5
60C4
  8
0
 10
3725.0042793629881999
 20
91.1828739598252298
 30
0.0
 40
0.0590551181
 50
220.3010399886032928
 51
270.0
  0
ARC
  5
60C5
  8
0
 10
3725.5015583853491989
 20
91.291454217826427
 30
0.0
 40
0.0496352045638235
 50
272.6977367441521096
 51
357.304195013330002
  0
ARC
  5
60C6
  8
0
 10
3725.4691743879598107
 20
91.2814797474711952
 30
0.0
 40
0.0396071165536999
 50
210.0025312812942104
 51
269.5197538516583222
  0
ARC
  5
60C7
  8
0
 10
3726.2770168584961539
 20
91.8766084817406465
 30
0.0
 40
0.0325230518323457
 50
93.8909636105624799
 51
170.142631227057791
  0
ARC
  5
60C8
  8
0
 10
3726.3369496784598596
 20
91.9390565674160172
 30
0.0
 40
0.0299999998069873
 50
270.0050430355165076
 51
346.9411718128267239
  0
ARC
  5
60C9
  8
0
 10
3725.7010328558590118
 20
91.3413299389722937
 30
0.0
 40
0.0291024820926864
 50
187.3837405478157052
 51
255.9668626619601071
  0
ARC
  5
60CA
  8
0
 10
3725.6433689929640423
 20
91.3338549387504202
 30
0.0
 40
0.0290438567252995
 50
7.38845806499915
 51
41.4901908357914024
  0
ARC
  5
60CB
  8
0
 10
3725.5865949656849807
 20
91.3320057637058085
 30
0.0
 40
0.0355178200405351
 50
141.4963422437301972
 51
176.6274040429111949
  0
ARC
  5
60CC
  8
0
 10
3725.0466222278969326
 20
91.1555053479076065
 30
0.0
 40
0.0317599706200056
 50
273.8978005955772232
 51
356.1021995984738169
  0
ARC
  5
60CD
  8
0
 10
3725.1096384316419972
 20
91.1909143411704974
 30
0.0
 40
0.0313814857082096
 50
93.2921245401482651
 51
176.7078754598499017
  0
ARC
  5
60CE
  8
0
 10
3725.1689173322329225
 20
91.1908053925775164
 30
0.0
 40
0.0314966779048631
 50
3.4786054249011631
 51
86.521394381052076
  0
ARC
  5
60CF
  8
0
 10
3725.2236916237920923
 20
91.2238665915285765
 30
0.0
 40
0.0233555336155702
 50
152.4031391780887077
 51
177.6353311969293998
  0
ARC
  5
60D0
  8
0
 10
3726.6941278778917876
 20
91.8989406757263652
 30
0.0
 40
0.3322019739007413
 50
91.3151262970749258
 51
138.1284169159521866
  0
ARC
  5
60D1
  8
0
 10
3726.8305474639278145
 20
91.845082951312321
 30
0.0
 40
0.4724889920946724
 50
144.3188787090062988
 51
169.3654440081230916
  0
ARC
  5
60D2
  8
0
 10
3725.0096355718819723
 20
91.9954498215710998
 30
0.0
 40
1.240520772542103
 50
341.6171394309578773
 51
354.7609523140433225
  0
ARC
  5
60D3
  8
0
 10
3725.7710957926469746
 20
91.7092903369858448
 30
0.0
 40
0.4288253661130249
 50
291.808568254230579
 51
345.818806659182485
  0
ARC
  5
60D4
  8
0
 10
3725.8154085368528285
 20
91.7041508282041633
 30
0.0
 40
0.409474955198296
 50
252.749092930868386
 51
286.3106070436527943
  0
ARC
  5
60D5
  8
0
 10
3725.6115405698301402
 20
91.3097118488774555
 30
0.0
 40
0.0689454993667193
 50
38.9952936087397717
 51
139.9036645879614866
  0
ARC
  5
60D6
  8
0
 10
3725.4041970980661063
 20
91.2704919913890649
 30
0.0
 40
0.0221356123416728
 50
31.6830444507646689
 51
88.3169553324145653
  0
ARC
  5
60D7
  8
0
 10
3725.2505049952219451
 20
91.2682574107396363
 30
0.0
 40
0.0244377904357208
 50
94.5538642318507243
 51
145.4461607183091871
  0
ARC
  5
60D8
  8
0
 10
3724.3605164363930271
 20
90.7257430154857474
 30
0.0
 40
1.062526335221557
 50
0.2359207088548796
 51
12.4410139111706304
  0
ARC
  5
60D9
  8
0
 10
3725.4113308445921575
 20
90.9578868638208888
 30
0.0
 40
0.0136285028974202
 50
166.2507745986133898
 51
193.7492236325552994
  0
ARC
  5
60DA
  8
0
 10
3724.9052269560638706
 20
91.1198924513322481
 30
0.0
 40
0.5178065196304741
 50
342.1447383768921782
 51
17.8552616657505894
  0
ARC
  5
60DB
  8
0
 10
3725.3789765033347976
 20
91.2725799912021927
 30
0.0
 40
0.0200596237389445
 50
17.6404511834486684
 51
87.3432803539607505
  0
ARC
  5
60DC
  8
0
 10
3726.2919991607650445
 20
90.7258425909999744
 30
0.0
 40
1.0616295777231961
 50
167.5538120501603885
 51
179.769254108533886
  0
ARC
  5
60DD
  8
0
 10
3725.2417841920278079
 20
90.9578868631252249
 30
0.0
 40
0.0139170919042522
 50
346.5413117933251215
 51
13.4586882066202307
  0
ARC
  5
60DE
  8
0
 10
3725.759700814342068
 20
91.1212232434194789
 30
0.0
 40
0.5291805487973698
 50
162.3874490810947862
 51
197.610108990697114
  0
ARC
  5
60DF
  8
0
 10
3725.2747088361211354
 20
91.270385131323394
 30
0.0
 40
0.0222654553359423
 50
93.0976499966075437
 51
150.5211918031675964
  0
ARC
  5
60E0
  8
0
 10
3725.3763134301220816
 20
90.9450986951240026
 30
0.0
 40
0.0270410389969008
 50
36.349024584930369
 51
82.3646203223624553
  0
ARC
  5
60E1
  8
0
 10
3725.2770994576721932
 20
90.9450971237903332
 30
0.0
 40
0.0270427201243315
 50
97.6368926139230808
 51
143.6494690222656061
  0
LINE
  5
60E2
  8
0
 10
3725.672171701087791
 20
90.1226462510252162
 30
0.0
 11
3725.672171701087791
 21
91.3375898575252165
 31
0.0
  0
ENDSEC
  0
EOF
