  0
SECTION
  2
HEADER
  9
$ACADVER
  1
AC1009
  9
$INSBASE
 10
3757.3717187465649658
 20
89.6971935306303578
 30
0.0
  9
$EXTMIN
 10
3743.8707816585151704
 20
85.3219122295303549
 30
0.0
  9
$EXTMAX
 10
3770.872655834615216
 20
89.7023274059048958
 30
0.0
  9
$LIMMIN
 10
0.0
 20
0.0
  9
$LIMMAX
 10
11.6929133858000007
 20
8.2677165353999982
  9
$ORTHOMODE
 70
     1
  9
$REGENMODE
 70
     1
  9
$FILLMODE
 70
     1
  9
$QTEXTMODE
 70
     0
  9
$MIRRTEXT
 70
     0
  9
$DRAGMODE
 70
     2
  9
$LTSCALE
 40
0.6431102362
  9
$OSMODE
 70
  4095
  9
$ATTMODE
 70
     1
  9
$TEXTSIZE
 40
0.2
  9
$TRACEWID
 40
0.05
  9
$TEXTSTYLE
  7
STANDARD
  9
$CLAYER
  8
0
  9
$CELTYPE
  6
BYLAYER
  9
$CECOLOR
 62
   256
  9
$DIMSCALE
 40
1.0
  9
$DIMASZ
 40
0.1875
  9
$DIMEXO
 40
0.0625
  9
$DIMDLI
 40
0.4443307087
  9
$DIMRND
 40
0.0
  9
$DIMDLE
 40
0.0
  9
$DIMEXE
 40
0.125
  9
$DIMTP
 40
0.01
  9
$DIMTM
 40
0.01
  9
$DIMTXT
 40
2.0
  9
$DIMCEN
 40
0.1052362205
  9
$DIMTSZ
 40
0.0
  9
$DIMTOL
 70
     1
  9
$DIMLIM
 70
     0
  9
$DIMTIH
 70
     1
  9
$DIMTOH
 70
     1
  9
$DIMSE1
 70
     0
  9
$DIMSE2
 70
     0
  9
$DIMTAD
 70
     0
  9
$DIMZIN
 70
     0
  9
$DIMBLK
  1

  9
$DIMASO
 70
     1
  9
$DIMSHO
 70
     1
  9
$DIMPOST
  1
\X
  9
$DIMAPOST
  1

  9
$DIMALT
 70
     1
  9
$DIMALTD
 70
     2
  9
$DIMALTF
 40
25.3999999999999986
  9
$DIMLFAC
 40
1.0
  9
$DIMTOFL
 70
     0
  9
$DIMTVP
 40
0.0
  9
$DIMTIX
 70
     0
  9
$DIMSOXD
 70
     0
  9
$DIMSAH
 70
     0
  9
$DIMBLK1
  1

  9
$DIMBLK2
  1

  9
$DIMSTYLE
  2
STANDARD
  9
$DIMCLRD
 70
     0
  9
$DIMCLRE
 70
     0
  9
$DIMCLRT
 70
     0
  9
$DIMTFAC
 40
1.0
  9
$DIMGAP
 40
0.09
  9
$LUNITS
 70
     2
  9
$LUPREC
 70
     4
  9
$SKETCHINC
 40
0.1
  9
$FILLETRAD
 40
0.0
  9
$AUNITS
 70
     0
  9
$AUPREC
 70
     0
  9
$MENU
  1
.
  9
$ELEVATION
 40
0.0
  9
$PELEVATION
 40
0.0
  9
$THICKNESS
 40
0.0
  9
$LIMCHECK
 70
     0
  9
$BLIPMODE
 70
     0
  9
$CHAMFERA
 40
0.0
  9
$CHAMFERB
 40
0.0
  9
$SKPOLY
 70
     0
  9
$TDCREATE
 40
2458060.468368056230247
  9
$TDUPDATE
 40
2458815.5999421300366521
  9
$TDINDWG
 40
0.2900186343
  9
$TDUSRTIMER
 40
0.2900186343
  9
$USRTIMER
 70
     1
  9
$ANGBASE
 50
0.0
  9
$ANGDIR
 70
     0
  9
$PDMODE
 70
     0
  9
$PDSIZE
 40
0.3125
  9
$PLINEWID
 40
0.0
  9
$COORDS
 70
     1
  9
$SPLFRAME
 70
     0
  9
$SPLINETYPE
 70
     6
  9
$SPLINESEGS
 70
     8
  9
$ATTDIA
 70
     1
  9
$ATTREQ
 70
     1
  9
$HANDLING
 70
     1
  9
$HANDSEED
  5
6396
  9
$SURFTAB1
 70
     6
  9
$SURFTAB2
 70
     6
  9
$SURFTYPE
 70
     6
  9
$SURFU
 70
     6
  9
$SURFV
 70
     6
  9
$UCSNAME
  2

  9
$UCSORG
 10
0.0
 20
0.0
 30
0.0
  9
$UCSXDIR
 10
1.0
 20
0.0
 30
0.0
  9
$UCSYDIR
 10
0.0
 20
1.0
 30
0.0
  9
$PUCSNAME
  2

  9
$PUCSORG
 10
0.0
 20
0.0
 30
0.0
  9
$PUCSXDIR
 10
1.0
 20
0.0
 30
0.0
  9
$PUCSYDIR
 10
0.0
 20
1.0
 30
0.0
  9
$USERI1
 70
     0
  9
$USERI2
 70
     0
  9
$USERI3
 70
     0
  9
$USERI4
 70
     0
  9
$USERI5
 70
     0
  9
$USERR1
 40
0.0
  9
$USERR2
 40
0.0
  9
$USERR3
 40
0.0
  9
$USERR4
 40
0.0
  9
$USERR5
 40
0.0
  9
$WORLDVIEW
 70
     1
  9
$SHADEDGE
 70
     3
  9
$SHADEDIF
 70
    70
  9
$TILEMODE
 70
     1
  9
$MAXACTVP
 70
    64
  9
$PLIMCHECK
 70
     0
  9
$PEXTMIN
 10
1.0000000000000000E+20
 20
1.0000000000000000E+20
 30
1.0000000000000000E+20
  9
$PEXTMAX
 10
-1.0000000000000000E+20
 20
-1.0000000000000000E+20
 30
-1.0000000000000000E+20
  9
$PLIMMIN
 10
0.0
 20
0.0
  9
$PLIMMAX
 10
12.0
 20
9.0
  9
$UNITMODE
 70
     0
  9
$VISRETAIN
 70
     1
  9
$PLINEGEN
 70
     0
  9
$PSLTSCALE
 70
     1
  0
ENDSEC
  0
SECTION
  2
TABLES
  0
TABLE
  2
VPORT
 70
     1
  0
VPORT
  2
*ACTIVE
 70
     0
 10
0.0
 20
0.0
 11
1.0
 21
1.0
 12
0.0
 22
0.0
 13
0.0
 23
0.0
 14
1.0
 24
1.0
 15
0.0
 25
0.0
 16
0.0
 26
0.0
 36
78.3671292350433077
 17
3757.3717041015629547
 27
87.5121668157454025
 37
0.0
 40
27.3568912446571417
 41
2.1481900452488678
 42
50.0
 43
0.0
 44
0.0
 50
0.0
 51
0.0
 71
     0
 72
   100
 73
     1
 74
     1
 75
     0
 76
     0
 77
     0
 78
     0
  0
ENDTAB
  0
TABLE
  2
LTYPE
 70
     3
  0
LTYPE
  2
CONTINUOUS
 70
     0
  3
Solid line
 72
    65
 73
     0
 40
0.0
  0
LTYPE
  2
PHANTOM2
 70
     0
  3
___ _ _ ___ _ _ ___ _ _ ___ _ _
 72
    65
 73
     6
 40
1.25
 49
0.625
 49
-0.125
 49
0.125
 49
-0.125
 49
0.125
 49
-0.125
  0
ENDTAB
  0
TABLE
  2
LAYER
 70
     2
  0
LAYER
  2
0
 70
     0
 62
   255
  6
CONTINUOUS
  0
LAYER
  2
DEFPOINTS
 70
     0
 62
     7
  6
CONTINUOUS
  0
ENDTAB
  0
TABLE
  2
STYLE
 70
     1
  0
STYLE
  2
STANDARD
 70
     0
 40
0.0
 41
0.8
 50
0.0
 71
     0
 42
0.2
  3
txt
  4

  0
ENDTAB
  0
TABLE
  2
VIEW
 70
     0
  0
ENDTAB
  0
TABLE
  2
UCS
 70
     0
  0
ENDTAB
  0
TABLE
  2
APPID
 70
     9
  0
APPID
  2
ACAD
 70
     0
  0
APPID
  2
ACAD_MLEADERVER
 70
     0
  0
APPID
  2
ACAD_EXEMPT_FROM_CAD_STANDARDS
 70
     0
  0
APPID
  2
ACAD_NAV_VCDISPLAY
 70
     0
  0
APPID
  2
ACAECLAYERSTANDARD
 70
     0
  0
APPID
  2
ACCMTRANSPARENCY
 70
     0
  0
APPID
  2
ACAD_DSTYLE_DIMJAG
 70
     0
  0
APPID
  2
ACAD_DSTYLE_DIMTALN
 70
     0
  0
APPID
  2
ACDBATTR
 70
     0
  0
ENDTAB
  0
TABLE
  2
DIMSTYLE
 70
     2
  0
DIMSTYLE
  2
STANDARD
 70
     0
  3

  4

  5

  6

  7

 40
1.0
 41
0.1875
 42
0.0625
 43
0.38
 44
0.125
 45
0.0
 46
0.0
 47
0.01
 48
0.01
140
0.15625
141
0.09
142
0.0
143
25.3999999999999986
144
1.0
145
0.0
146
1.0
147
0.09
 71
     1
 72
     0
 73
     1
 74
     1
 75
     0
 76
     0
 77
     0
 78
     4
170
     0
171
     2
172
     0
173
     0
174
     0
175
     0
176
     0
177
     0
178
     0
  0
ENDTAB
  0
ENDSEC
  0
SECTION
  2
BLOCKS
  0
BLOCK
  8
0
  2
$MODEL_SPACE
 70
     0
 10
0.0
 20
0.0
 30
0.0
  3
$MODEL_SPACE
  1

  0
ENDBLK
  5
21
  8
0
  0
BLOCK
 67
     1
  8
0
  2
$PAPER_SPACE
 70
     0
 10
0.0
 20
0.0
 30
0.0
  3
$PAPER_SPACE
  1

  0
ENDBLK
  5
1D
 67
     1
  8
0
  0
ENDSEC
  0
SECTION
  2
ENTITIES
  0
ATTDEF
  5
3930
  8
DEFPOINTS
 10
3757.3684369924039856
 20
89.7013274059048626
 30
0.0
 40
0.001
  1
K-25156
  3

  2
MODELNUMBER
 70
     0
1001
ACDBATTR
1070
     0
1070
     1
  0
ATTDEF
  5
3931
  8
DEFPOINTS
 10
3757.3684369924039856
 20
89.6996607392381833
 30
0.0
 40
0.001
  1
ARTIFACTS
  3

  2
TRADENAME
 70
     0
1001
ACDBATTR
1070
     0
1070
     1
  0
ATTDEF
  5
3932
  8
DEFPOINTS
 10
3757.3684369924039856
 20
89.6979940725715466
 30
0.0
 40
0.001
  1
GRAB BAR
  3

  2
PRODUCT
 70
     0
1001
ACDBATTR
1070
     0
1070
     1
  0
LINE
  5
61BC
  8
0
 10
3744.1927802334162152
 20
89.3476424284303476
 30
0.0
 11
3744.1927802334162152
 21
89.2855000206303657
 31
0.0
  0
LINE
  5
61BD
  8
0
 10
3744.8092187468150769
 20
88.2592548352303652
 30
0.0
 11
3744.8092187468150769
 21
88.4155373403303599
 31
0.0
  0
LINE
  5
61BE
  8
0
 10
3744.8599627789158149
 20
88.5145846746303562
 30
0.0
 11
3744.8599627789158149
 21
88.4795325193303341
 31
0.0
  0
LINE
  5
61BF
  8
0
 10
3744.8795927626151752
 20
88.1815185287303365
 30
0.0
 11
3744.8795927626151752
 21
88.1185264027303532
 31
0.0
  0
LINE
  5
61C0
  8
0
 10
3744.9780179594158653
 20
88.059471284630348
 30
0.0
 11
3744.9780179594158653
 21
88.0149694724303657
 31
0.0
  0
LINE
  5
61C1
  8
0
 10
3745.0173880382158131
 20
87.1684956967303464
 30
0.0
 11
3745.0173880382158131
 21
87.0858492374303523
 31
0.0
  0
LINE
  5
61C2
  8
0
 10
3745.0764431563147809
 20
86.1019122295303561
 30
0.0
 11
3745.0764431563147809
 21
86.9819122295303657
 31
0.0
  0
LINE
  5
61C3
  8
0
 10
3745.1299368214149581
 20
88.2841957354303446
 30
0.0
 11
3745.1299368214149581
 21
88.3905964400303361
 31
0.0
  0
LINE
  5
61C4
  8
0
 10
3744.8401621273069395
 20
88.4455646032354252
 30
0.0
 11
3744.8197187468149423
 21
88.4337238737303437
 31
0.0
  0
LINE
  5
61C5
  8
0
 10
3744.8671508175148119
 20
88.2136833829303555
 30
0.0
 11
3744.819718754753012
 21
88.2410682971477343
 31
0.0
  0
LINE
  5
61C6
  8
0
 10
3745.0237849188160908
 20
86.9819122295303657
 30
0.0
 11
3745.7196525749159264
 21
86.9819122295303657
 31
0.0
  0
LINE
  5
61C7
  8
0
 10
3745.0173880382158131
 20
87.0858492374303523
 30
0.0
 11
3745.7260494555148398
 21
87.0858492374303523
 31
0.0
  0
LINE
  5
61C8
  8
0
 10
3745.7512529371151686
 20
87.2168855064303443
 30
0.0
 11
3744.9921845565149852
 21
87.2168855064303443
 31
0.0
  0
LINE
  5
61C9
  8
0
 10
3744.9571599057148887
 20
87.9699306974303568
 30
0.0
 11
3745.7862775880148547
 21
87.9699306974303568
 31
0.0
  0
LINE
  5
61CA
  8
0
 10
3744.9091203216157737
 20
88.0889988436303355
 30
0.0
 11
3745.8343171721157887
 21
88.0889988436303355
 31
0.0
  0
LINE
  5
61CB
  8
0
 10
3744.8770065710150448
 20
88.2110460877303524
 30
0.0
 11
3745.8664309227160629
 21
88.2110460877303524
 31
0.0
  0
LINE
  5
61CC
  8
0
 10
3745.9756959312148865
 20
88.5618287691303578
 30
0.0
 11
3744.7677415625148569
 21
88.5618287691303578
 31
0.0
  0
LINE
  5
61CD
  8
0
 10
3744.2196605005151469
 20
89.2556640546303441
 30
0.0
 11
3746.5237769932150513
 21
89.2556640546303441
 31
0.0
  0
LINE
  5
61CE
  8
0
 10
3744.1695587746148703
 20
89.3768639453303564
 30
0.0
 11
3746.573878719521872
 21
89.3768639453303564
 31
0.0
  0
LINE
  5
61CF
  8
0
 10
3746.8726558352150278
 20
89.6971935306303578
 30
0.0
 11
3743.8707816585151704
 21
89.6971935306303578
 31
0.0
  0
ARC
  5
61D0
  8
0
 10
3745.3717187468150769
 20
86.1019122295303561
 30
0.0
 40
0.2952755906
 50
180.0
 51
270.000000009692485
  0
ARC
  5
61D1
  8
0
 10
3744.9583329201150264
 20
87.1684956967303464
 30
0.0
 40
0.0590551181
 50
0.0
 51
55.0248542142939314
  0
ARC
  5
61D2
  8
0
 10
3745.0237849188160908
 20
87.0340775838303671
 30
0.0
 40
0.0521653543
 50
97.0437382838075138
 51
270.0
  0
ARC
  5
61D3
  8
0
 10
3745.2650326590151053
 20
87.6069129656303573
 30
0.0
 40
0.4759910775
 50
130.3010399883903858
 51
235.0248542141972052
  0
ARC
  5
61D4
  8
0
 10
3744.9189628413150785
 20
88.0149694724303657
 30
0.0
 40
0.0590551181
 50
310.3010399885932884
 51
0.0
  0
ARC
  5
61D5
  8
0
 10
3744.810382583315004
 20
88.5122484947917769
 30
0.0
 40
0.0496352045638235
 50
2.6977367441631679
 51
87.3041950133370221
  0
ARC
  5
61D6
  8
0
 10
3744.8203570536688858
 20
88.4798644974029003
 30
0.0
 40
0.0396071165536999
 50
300.0025312812986726
 51
359.5197538516690088
  0
ARC
  5
61D7
  8
0
 10
3744.2252283193997755
 20
89.2877069679397977
 30
0.0
 40
0.0325230518323457
 50
183.8909636105751986
 51
260.1426312270647259
  0
ARC
  5
61D8
  8
0
 10
3744.1627802337238791
 20
89.3476397879031339
 30
0.0
 40
0.0299999998069873
 50
0.0050430355132232
 51
76.9411718128232849
  0
ARC
  5
61D9
  8
0
 10
3744.7605068621678583
 20
88.7117229653015045
 30
0.0
 40
0.0291024820926864
 50
277.383740547822697
 51
345.9668626619503016
  0
ARC
  5
61DA
  8
0
 10
3744.7679818623901156
 20
88.6540591024072455
 30
0.0
 40
0.0290438567252995
 50
97.3884580650029079
 51
131.4901908357967102
  0
ARC
  5
61DB
  8
0
 10
3744.7698310374339599
 20
88.5972850751279282
 30
0.0
 40
0.0355178200405351
 50
231.4963422437423048
 51
266.6274040429025831
  0
ARC
  5
61DC
  8
0
 10
3744.9463314532331424
 20
88.0573123373406332
 30
0.0
 40
0.0317599706200056
 50
3.8978005955714501
 51
86.1021995984610555
  0
ARC
  5
61DD
  8
0
 10
3744.910922459970152
 20
88.1203285410850867
 30
0.0
 40
0.0313814857082096
 50
183.2921245401525141
 51
266.7078754598517776
  0
ARC
  5
61DE
  8
0
 10
3744.9110314085628488
 20
88.1796074416761542
 30
0.0
 40
0.0314966779048631
 50
93.4786054248967844
 51
176.5213943810589114
  0
ARC
  5
61DF
  8
0
 10
3744.8779702096121582
 20
88.2343817332350966
 30
0.0
 40
0.0233555336155702
 50
242.4031391780885087
 51
267.6353311969413085
  0
LINE
  5
61E0
  8
0
 10
3746.3921800766152046
 20
85.717244293830376
 30
0.0
 11
3746.3921800766152046
 21
86.4865801652303361
 31
0.0
  0
LINE
  5
61E1
  8
0
 10
3746.545564188615117
 20
85.6964430034303604
 30
0.0
 11
3746.545564188615117
 21
86.507381455630366
 31
0.0
  0
LINE
  5
61E2
  8
0
 10
3746.7039634934149035
 20
85.7367136226303614
 30
0.0
 11
3746.7039634934371861
 21
86.4671108364846646
 31
0.0
  0
LINE
  5
61E3
  8
0
 10
3747.3770333926381682
 20
85.4003815051807749
 30
0.0
 11
3747.377033392614976
 21
86.8034429539303574
 31
0.0
  0
LINE
  5
61E4
  8
0
 10
3747.5309891886158766
 20
85.3714430034303433
 30
0.0
 11
3747.5309891886158766
 21
86.8323814556303546
 31
0.0
  0
LINE
  5
61E5
  8
0
 10
3747.7563888256158862
 20
85.4334082925303591
 30
0.0
 11
3747.7563888256158862
 21
86.7704161665303673
 31
0.0
  0
LINE
  5
61E6
  8
0
 10
3747.5764926592150914
 20
85.4019122295303532
 30
0.0
 11
3747.7248927626151271
 21
85.4019122295303532
 31
0.0
  0
LINE
  5
61E7
  8
0
 10
3747.7563888256158862
 20
85.4769122295303561
 30
0.0
 11
3766.9870486675158645
 21
85.4769122295303703
 31
0.0
  0
LINE
  5
61E8
  8
0
 10
3746.5910676592161508
 20
85.7269122295303561
 30
0.0
 11
3746.674490849616177
 21
85.7269122295303561
 31
0.0
  0
LINE
  5
61E9
  8
0
 10
3745.3717187468150769
 20
85.8066366390303585
 30
0.0
 11
3746.251718746815186
 21
85.8066366390303585
 31
0.0
  0
LINE
  5
61EA
  8
0
 10
3745.6669943374149625
 20
86.3971878201303696
 30
0.0
 11
3746.251718746815186
 21
86.3971878201303696
 31
0.0
  0
LINE
  5
61EB
  8
0
 10
3746.5910676592161508
 20
86.4769122295303561
 30
0.0
 11
3746.674490849616177
 21
86.4769122295303561
 31
0.0
  0
LINE
  5
61EC
  8
0
 10
3747.7563888256158862
 20
86.7269122295303561
 30
0.0
 11
3766.9870486675158645
 21
86.7269122295303561
 31
0.0
  0
LINE
  5
61ED
  8
0
 10
3747.7248927626151271
 20
86.8019122295303589
 30
0.0
 11
3747.5764926592150914
 21
86.8019122295303589
 31
0.0
  0
ARC
  5
61EE
  8
0
 10
3747.4570187468148106
 20
85.4019122295303532
 30
0.0
 40
0.08
 50
181.0963674661998937
 51
337.6127067570027975
  0
ARC
  5
61EF
  8
0
 10
3747.4570187468148106
 20
86.8019122295303589
 30
0.0
 40
0.08
 50
22.3872932429972202
 51
178.9036325337999926
  0
ARC
  5
61F0
  8
0
 10
3746.47159374681587
 20
86.4769122295303561
 30
0.0
 40
0.08
 50
22.3872932429972202
 51
173.0588853485006098
  0
ARC
  5
61F1
  8
0
 10
3746.47159374681587
 20
85.7269122295303561
 30
0.0
 40
0.08
 50
186.941114651499305
 51
337.6127067570027975
  0
ARC
  5
61F2
  8
0
 10
3747.5764926592150914
 20
86.8511248279303487
 30
0.0
 40
0.0492125984
 50
202.3872932433984886
 51
270.0
  0
ARC
  5
61F3
  8
0
 10
3747.5764926592150914
 20
85.3526996311303492
 30
0.0
 40
0.0492125984
 50
90.0
 51
157.6127067566013977
  0
ARC
  5
61F4
  8
0
 10
3746.674490849616177
 20
85.7761248279303601
 30
0.0
 40
0.0492125984
 50
270.0
 51
306.7900205581095179
  0
ARC
  5
61F5
  8
0
 10
3746.674490849616177
 20
86.4276996311303662
 30
0.0
 40
0.0492125984
 50
53.2099794418904608
 51
90.0
  0
ARC
  5
61F6
  8
0
 10
3746.5910676592161508
 20
86.5261248279303743
 30
0.0
 40
0.0492125984
 50
202.3872932433984886
 51
270.0
  0
ARC
  5
61F7
  8
0
 10
3746.5910676592161508
 20
85.6776996311303662
 30
0.0
 40
0.0492125984
 50
90.0
 51
157.6127067566013977
  0
ARC
  5
61F8
  8
0
 10
3746.3433281633151637
 20
86.4925274682303638
 30
0.0
 40
0.0492125984
 50
325.6441304806072026
 51
353.0588853484999277
  0
ARC
  5
61F9
  8
0
 10
3746.3431471018589036
 20
85.7112525352819716
 30
0.0
 40
0.0493977102630458
 50
6.9669205182779637
 51
34.2977783331507027
  0
ARC
  5
61FA
  8
0
 10
3747.7248927626151271
 20
86.7704161665303673
 30
0.0
 40
0.031496063
 50
0.0
 51
90.0
  0
ARC
  5
61FB
  8
0
 10
3747.7248927626151271
 20
85.4334082925303591
 30
0.0
 40
0.031496063
 50
270.0
 51
0.0
  0
ARC
  5
61FC
  8
0
 10
3746.2574643646858021
 20
85.6546735485335944
 30
0.0
 40
0.1520716705966328
 50
33.7172932300316432
 51
92.1652818437240313
  0
ARC
  5
61FD
  8
0
 10
3746.2574702394849737
 20
86.5491161177518364
 30
0.0
 40
0.1520371246968819
 50
267.8320104011893932
 51
326.2982295683139
  0
ARC
  5
61FE
  8
0
 10
3746.9255333662190424
 20
86.8653457130677396
 30
0.0
 40
0.4557238477684615
 50
240.9093174459250974
 51
352.1931554930305879
  0
ARC
  5
61FF
  8
0
 10
3746.9257130223950298
 20
85.3388382750381709
 30
0.0
 40
0.4554971413432726
 50
7.765109097050046
 51
119.1324179647308057
  0
ARC
  5
6200
  8
0
 10
3744.202896125415009
 20
89.7048179873344083
 30
0.0
 40
0.3322019739007413
 50
181.3151262970716004
 51
228.1284169159463886
  0
ARC
  5
6201
  8
0
 10
3744.2567538498278736
 20
89.8412375733714157
 30
0.0
 40
0.4724889920946724
 50
234.3188787089956122
 51
259.3654440081231769
  0
ARC
  5
6202
  8
0
 10
3744.1063869795689243
 20
88.0203256813248913
 30
0.0
 40
1.240520772542103
 50
71.617139430969246
 51
84.7609523140339292
  0
ARC
  5
6203
  8
0
 10
3744.3925464641552026
 20
88.7817859020901068
 30
0.0
 40
0.4288253661130249
 50
21.8085682542357802
 51
75.8188066591921341
  0
ARC
  5
6204
  8
0
 10
3744.3976859729368698
 20
88.8260986462961455
 30
0.0
 40
0.409474955198296
 50
342.7490929308739851
 51
16.3106070436513804
  0
ARC
  5
6205
  8
0
 10
3744.7921249522628386
 20
88.622230679273116
 30
0.0
 40
0.0689454993667193
 50
128.9952936087412922
 51
229.903664587961913
  0
ARC
  5
6206
  8
0
 10
3744.831344809751954
 20
88.4148872075087269
 30
0.0
 40
0.0221356123416728
 50
121.6830444507615994
 51
178.3169553324192123
  0
ARC
  5
6207
  8
0
 10
3744.8335793904011553
 20
88.2611951046642389
 30
0.0
 40
0.0244377904357208
 50
184.5538642318597056
 51
235.4461607183112903
  0
ARC
  5
6208
  8
0
 10
3745.3760937856550299
 20
87.3712065458366141
 30
0.0
 40
1.062526335221557
 50
90.2359207088459385
 51
102.4410139111708986
  0
ARC
  5
6209
  8
0
 10
3745.1439499373200306
 20
88.4220209540350766
 30
0.0
 40
0.0136285028974202
 50
256.2507745986155214
 51
283.7492236325476256
  0
ARC
  5
620A
  8
0
 10
3744.9819443498081455
 20
87.9159170655067754
 30
0.0
 40
0.5178065196304741
 50
72.1447383769025237
 51
107.8552616657450045
  0
ARC
  5
620B
  8
0
 10
3744.8292568099382152
 20
88.3896666127772619
 30
0.0
 40
0.0200596237389445
 50
107.6404511834520008
 51
177.3432803539635074
  0
ARC
  5
620C
  8
0
 10
3745.3759942101410161
 20
89.3026892702075799
 30
0.0
 40
1.0616295777231961
 50
257.5538120501703929
 51
269.7692541085340281
  0
ARC
  5
620D
  8
0
 10
3745.143949938015794
 20
88.2524743014710964
 30
0.0
 40
0.0139170919042522
 50
76.5413117933192666
 51
103.4586882066270022
  0
ARC
  5
620E
  8
0
 10
3744.9806135577209716
 20
88.7703909237850439
 30
0.0
 40
0.5291805487973698
 50
252.3874490810995042
 51
287.6101089907074879
  0
ARC
  5
620F
  8
0
 10
3744.8314516698169427
 20
88.2853989455639834
 30
0.0
 40
0.0222654553359423
 50
183.0976499965956066
 51
240.5211918031644984
  0
ARC
  5
6210
  8
0
 10
3745.1567381060172011
 20
88.3870035395647449
 30
0.0
 40
0.0270410389969008
 50
126.3490245849318967
 51
172.3646203223665907
  0
ARC
  5
6211
  8
0
 10
3745.1567396773511973
 20
88.287789567114686
 30
0.0
 40
0.0270427201243315
 50
187.6368926139122095
 51
233.6494690222743031
  0
LINE
  5
6212
  8
0
 10
3746.5506572603148925
 20
89.3476424284303476
 30
0.0
 11
3746.5506572603148925
 21
89.2855000206303657
 31
0.0
  0
LINE
  5
6213
  8
0
 10
3745.9342187469160308
 20
88.2592548352303652
 30
0.0
 11
3745.9342187469160308
 21
88.4155373403303599
 31
0.0
  0
LINE
  5
6214
  8
0
 10
3745.8834747148148381
 20
88.5145846746303562
 30
0.0
 11
3745.8834747148148381
 21
88.4795325193303341
 31
0.0
  0
LINE
  5
6215
  8
0
 10
3745.863844731115023
 20
88.1815185287303365
 30
0.0
 11
3745.863844731115023
 21
88.1185264027303532
 31
0.0
  0
LINE
  5
6216
  8
0
 10
3745.7654195343147876
 20
88.059471284630348
 30
0.0
 11
3745.7654195343147876
 21
88.0149694724303657
 31
0.0
  0
LINE
  5
6217
  8
0
 10
3745.7260494555148398
 20
87.1684956967303464
 30
0.0
 11
3745.7260494555148398
 21
87.0858492374303523
 31
0.0
  0
LINE
  5
6218
  8
0
 10
3745.6669943374149625
 20
86.1019122295303561
 30
0.0
 11
3745.6669943374149625
 21
86.9819122295303657
 31
0.0
  0
LINE
  5
6219
  8
0
 10
3745.6135006723147853
 20
88.2841957354303446
 30
0.0
 11
3745.6135006723147853
 21
88.3905964400303361
 31
0.0
  0
LINE
  5
621A
  8
0
 10
3745.9032753664228039
 20
88.4455646032354252
 30
0.0
 11
3745.9237187469161654
 21
88.4337238737303437
 31
0.0
  0
LINE
  5
621B
  8
0
 10
3745.876286676215841
 20
88.2136833829303555
 30
0.0
 11
3745.9237187389780956
 21
88.2410682971477343
 31
0.0
  0
ARC
  5
621C
  8
0
 10
3745.3717187469151213
 20
86.1019122295303561
 30
0.0
 40
0.2952755906
 50
269.999999990307515
 51
0.0
  0
ARC
  5
621D
  8
0
 10
3745.7851045736160813
 20
87.1684956967303464
 30
0.0
 40
0.0590551181
 50
124.9751457857060046
 51
180.0
  0
ARC
  5
621E
  8
0
 10
3745.7196525749159264
 20
87.0340775838303671
 30
0.0
 40
0.0521653543
 50
270.0
 51
82.9562617161925004
  0
ARC
  5
621F
  8
0
 10
3745.4784048347150929
 20
87.6069129656303573
 30
0.0
 40
0.4759910775
 50
304.9751457858027948
 51
49.6989600116096071
  0
ARC
  5
6220
  8
0
 10
3745.8244746524151196
 20
88.0149694724303657
 30
0.0
 40
0.0590551181
 50
180.0
 51
229.6989600114065979
  0
ARC
  5
6221
  8
0
 10
3745.9330549104170132
 20
88.5122484947917769
 30
0.0
 40
0.0496352045638235
 50
92.6958049866629779
 51
177.3022632558368059
  0
ARC
  5
6222
  8
0
 10
3745.9230804400608577
 20
88.4798644974029003
 30
0.0
 40
0.0396071165536999
 50
180.4802461483309912
 51
239.9974687187012989
  0
ARC
  5
6223
  8
0
 10
3746.5182091743308774
 20
89.2877069679397977
 30
0.0
 40
0.0325230518323457
 50
279.8573687729352741
 51
356.1090363894247162
  0
ARC
  5
6224
  8
0
 10
3746.5806572600058644
 20
89.3476397879031339
 30
0.0
 40
0.0299999998069873
 50
103.0588281871767009
 51
179.994956964486704
  0
ARC
  5
6225
  8
0
 10
3745.9829306315627946
 20
88.7117229653015045
 30
0.0
 40
0.0291024820926864
 50
194.0331373380496984
 51
262.6162594521771894
  0
ARC
  5
6226
  8
0
 10
3745.9754556313409921
 20
88.6540591024072455
 30
0.0
 40
0.0290438567252995
 50
48.5098091642032898
 51
82.6115419349971063
  0
ARC
  5
6227
  8
0
 10
3745.9736064562957836
 20
88.5972850751279282
 30
0.0
 40
0.0355178200405351
 50
273.3725959570974169
 51
308.5036577562576099
  0
ARC
  5
6228
  8
0
 10
3745.7971060404979653
 20
88.0573123373406332
 30
0.0
 40
0.0317599706200056
 50
93.8978004015389587
 51
176.1021994044284895
  0
ARC
  5
6229
  8
0
 10
3745.8325150337609557
 20
88.1203285410850867
 30
0.0
 40
0.0313814857082096
 50
273.2921245401482793
 51
356.7078754598475143
  0
ARC
  5
622A
  8
0
 10
3745.8324060851668946
 20
88.1796074416761542
 30
0.0
 40
0.0314966779048631
 50
3.478605618941125
 51
86.5213945751032156
  0
ARC
  5
622B
  8
0
 10
3745.8654672841189495
 20
88.2343817332350966
 30
0.0
 40
0.0233555336155702
 50
272.3646688030586915
 51
297.5968608219114913
  0
ARC
  5
622C
  8
0
 10
3746.5405413683170082
 20
89.7048179873344083
 30
0.0
 40
0.3322019739007413
 50
311.8715830840536114
 51
358.684873702928428
  0
ARC
  5
622D
  8
0
 10
3746.4866836439018698
 20
89.8412375733714157
 30
0.0
 40
0.4724889920946724
 50
280.6345559918768231
 51
305.6811212910038762
  0
ARC
  5
622E
  8
0
 10
3746.6370505141608191
 20
88.0203256813248913
 30
0.0
 40
1.240520772542103
 50
95.2390476859660851
 51
108.3828605690306972
  0
ARC
  5
622F
  8
0
 10
3746.3508910295759051
 20
88.7817859020901068
 30
0.0
 40
0.4288253661130249
 50
104.1811933408077948
 51
158.1914317457641914
  0
ARC
  5
6230
  8
0
 10
3746.3457515207937831
 20
88.8260986462961455
 30
0.0
 40
0.409474955198296
 50
163.6893929563485983
 51
197.2509070691259012
  0
ARC
  5
6231
  8
0
 10
3745.9513125414678143
 20
88.622230679273116
 30
0.0
 40
0.0689454993667193
 50
310.0963354120381155
 51
51.0047063912586509
  0
ARC
  5
6232
  8
0
 10
3745.9120926839800632
 20
88.4148872075087269
 30
0.0
 40
0.0221356123416728
 50
1.6830446675807329
 51
58.3169555492384291
  0
ARC
  5
6233
  8
0
 10
3745.9098581033299524
 20
88.2611951046642389
 30
0.0
 40
0.0244377904357208
 50
304.5538392816886812
 51
355.4461357681402092
  0
ARC
  5
6234
  8
0
 10
3745.3673437080760777
 20
87.3712065458366141
 30
0.0
 40
1.062526335221557
 50
77.5589860888291014
 51
89.7640792911540615
  0
ARC
  5
6235
  8
0
 10
3745.5994875564110771
 20
88.4220209540350766
 30
0.0
 40
0.0136285028974202
 50
256.2507763674523744
 51
283.7492254013844786
  0
ARC
  5
6236
  8
0
 10
3745.7614931439220527
 20
87.9159170655067754
 30
0.0
 40
0.5178065196304741
 50
72.1447383342549955
 51
107.8552616230975048
  0
ARC
  5
6237
  8
0
 10
3745.914180683791983
 20
88.3896666127772619
 30
0.0
 40
0.0200596237389445
 50
2.6567196460364428
 51
72.359548816547985
  0
ARC
  5
6238
  8
0
 10
3745.3674432835910011
 20
89.3026892702075799
 30
0.0
 40
1.0616295777231961
 50
270.2307458914659719
 51
282.4461879498294934
  0
ARC
  5
6239
  8
0
 10
3745.5994875557148589
 20
88.2524743014710964
 30
0.0
 40
0.0139170919042522
 50
76.5413117933729836
 51
103.4586882066809039
  0
ARC
  5
623A
  8
0
 10
3745.7628239360092266
 20
88.7703909237850439
 30
0.0
 40
0.5291805487973698
 50
252.3898910092923984
 51
287.6125509189005243
  0
ARC
  5
623B
  8
0
 10
3745.9119858239141649
 20
88.2853989455639834
 30
0.0
 40
0.0222654553359423
 50
299.4788081968354732
 51
356.9023500034035123
  0
ARC
  5
623C
  8
0
 10
3745.5866993877139066
 20
88.3870035395647449
 30
0.0
 40
0.0270410389969008
 50
7.6353796776325487
 51
53.6509754150680394
  0
ARC
  5
623D
  8
0
 10
3745.5866978163799104
 20
88.287789567114686
 30
0.0
 40
0.0270427201243315
 50
306.3505309777257253
 51
352.363107386086881
  0
LINE
  5
623E
  8
0
 10
3744.7642469436159445
 20
88.6828618105303548
 30
0.0
 11
3745.9791905501160727
 21
88.6828618105303548
 31
0.0
  0
LINE
  5
623F
  8
0
 10
3770.5506572597150807
 20
89.3476424284303476
 30
0.0
 11
3770.5506572597150807
 21
89.2855000206303657
 31
0.0
  0
LINE
  5
6240
  8
0
 10
3769.9342187463148548
 20
88.2592548352303652
 30
0.0
 11
3769.9342187463148548
 21
88.4155373403303599
 31
0.0
  0
LINE
  5
6241
  8
0
 10
3769.8834747142150263
 20
88.5145846746303562
 30
0.0
 11
3769.8834747142150263
 21
88.4795325193303341
 31
0.0
  0
LINE
  5
6242
  8
0
 10
3769.8638447305152113
 20
88.1815185287303365
 30
0.0
 11
3769.8638447305152113
 21
88.1185264027303532
 31
0.0
  0
LINE
  5
6243
  8
0
 10
3769.7654195337158853
 20
88.059471284630348
 30
0.0
 11
3769.7654195337158853
 21
88.0149694724303657
 31
0.0
  0
LINE
  5
6244
  8
0
 10
3769.726049454915028
 20
87.1684956967303464
 30
0.0
 11
3769.726049454915028
 21
87.0858492374303523
 31
0.0
  0
LINE
  5
6245
  8
0
 10
3769.6669943368151507
 20
86.1019122295303561
 30
0.0
 11
3769.6669943368151507
 21
86.9819122295303657
 31
0.0
  0
LINE
  5
6246
  8
0
 10
3769.6135006717158831
 20
88.2841957354303446
 30
0.0
 11
3769.6135006717158831
 21
88.3905964400303361
 31
0.0
  0
LINE
  5
6247
  8
0
 10
3769.9032753658239017
 20
88.4455646032354252
 30
0.0
 11
3769.9237187463149894
 21
88.4337238737303437
 31
0.0
  0
LINE
  5
6248
  8
0
 10
3769.8762866756160292
 20
88.2136833829303555
 30
0.0
 11
3769.9237187383778291
 21
88.2410682971477343
 31
0.0
  0
LINE
  5
6249
  8
0
 10
3769.7196525743152051
 20
86.9819122295303657
 30
0.0
 11
3769.0237849182149148
 21
86.9819122295303657
 31
0.0
  0
LINE
  5
624A
  8
0
 10
3769.726049454915028
 20
87.0858492374303523
 30
0.0
 11
3769.0173880376150919
 21
87.0858492374303523
 31
0.0
  0
LINE
  5
624B
  8
0
 10
3768.9921845560152178
 20
87.2168855064303443
 30
0.0
 11
3769.751252936615856
 21
87.2168855064303443
 31
0.0
  0
LINE
  5
624C
  8
0
 10
3769.7862775874150429
 20
87.9699306974303568
 30
0.0
 11
3768.957159905115077
 21
87.9699306974303568
 31
0.0
  0
LINE
  5
624D
  8
0
 10
3769.8343171715150675
 20
88.0889988436303355
 30
0.0
 11
3768.909120321015962
 21
88.0889988436303355
 31
0.0
  0
LINE
  5
624E
  8
0
 10
3769.8664309221148869
 20
88.2110460877303524
 30
0.0
 11
3768.8770065704161425
 21
88.2110460877303524
 31
0.0
  0
LINE
  5
624F
  8
0
 10
3768.7677415619150452
 20
88.5618287691303578
 30
0.0
 11
3769.9756959306150748
 21
88.5618287691303578
 31
0.0
  0
LINE
  5
6250
  8
0
 10
3770.5237769926147848
 20
89.2556640546303441
 30
0.0
 11
3768.2196604999157898
 21
89.2556640546303441
 31
0.0
  0
LINE
  5
6251
  8
0
 10
3770.5738787185150613
 20
89.3768639453303564
 30
0.0
 11
3768.1695587736080597
 21
89.3768639453303564
 31
0.0
  0
LINE
  5
6252
  8
0
 10
3767.8707816579158134
 20
89.6971935306303578
 30
0.0
 11
3770.872655834615216
 21
89.6971935306303578
 31
0.0
  0
ARC
  5
6253
  8
0
 10
3769.371718746316219
 20
86.1019122295303561
 30
0.0
 40
0.2952755906
 50
269.999999990307515
 51
0.0
  0
ARC
  5
6254
  8
0
 10
3769.7851045730158148
 20
87.1684956967303464
 30
0.0
 40
0.0590551181
 50
124.9751457857060046
 51
180.0
  0
ARC
  5
6255
  8
0
 10
3769.7196525743152051
 20
87.0340775838303671
 30
0.0
 40
0.0521653543
 50
270.0
 51
82.9562617161925004
  0
ARC
  5
6256
  8
0
 10
3769.4784048341161906
 20
87.6069129656303573
 30
0.0
 40
0.4759910775
 50
304.9751457858027948
 51
49.6989600116096071
  0
ARC
  5
6257
  8
0
 10
3769.8244746518162174
 20
88.0149694724303657
 30
0.0
 40
0.0590551181
 50
180.0
 51
229.6989600114065979
  0
ARC
  5
6258
  8
0
 10
3769.9330549098172014
 20
88.5122484947917769
 30
0.0
 40
0.0496352045638235
 50
92.6958049866629779
 51
177.3022632558368059
  0
ARC
  5
6259
  8
0
 10
3769.9230804394610459
 20
88.4798644974029003
 30
0.0
 40
0.0396071165536999
 50
180.4802461483309912
 51
239.9974687187012989
  0
ARC
  5
625A
  8
0
 10
3770.5182091737310657
 20
89.2877069679397977
 30
0.0
 40
0.0325230518323457
 50
279.8573687729352741
 51
356.1090363894247162
  0
ARC
  5
625B
  8
0
 10
3770.5806572594069621
 20
89.3476397879031339
 30
0.0
 40
0.0299999998069873
 50
103.0588281871767009
 51
179.994956964486704
  0
ARC
  5
625C
  8
0
 10
3769.9829306309629828
 20
88.7117229653015045
 30
0.0
 40
0.0291024820926864
 50
194.0331373380496984
 51
262.6162594521771894
  0
ARC
  5
625D
  8
0
 10
3769.9754556307411804
 20
88.6540591024072455
 30
0.0
 40
0.0290438567252995
 50
48.5098091642032898
 51
82.6115419349971063
  0
ARC
  5
625E
  8
0
 10
3769.9736064556959718
 20
88.5972850751279282
 30
0.0
 40
0.0355178200405351
 50
273.3725959570974169
 51
308.5036577562576099
  0
ARC
  5
625F
  8
0
 10
3769.7971060398981535
 20
88.0573123373406332
 30
0.0
 40
0.0317599706200056
 50
93.8978004015389587
 51
176.1021994044284895
  0
ARC
  5
6260
  8
0
 10
3769.8325150331611439
 20
88.1203285410850867
 30
0.0
 40
0.0313814857082096
 50
273.2921245401482224
 51
356.7078754598475143
  0
ARC
  5
6261
  8
0
 10
3769.8324060845679924
 20
88.1796074416761542
 30
0.0
 40
0.0314966779048631
 50
3.478605618941125
 51
86.5213945751032156
  0
ARC
  5
6262
  8
0
 10
3769.8654672835191377
 20
88.2343817332350966
 30
0.0
 40
0.0233555336155702
 50
272.3646688030586915
 51
297.5968608219114913
  0
LINE
  5
6263
  8
0
 10
3768.3512574165151818
 20
85.717244293830376
 30
0.0
 11
3768.3512574165151818
 21
86.4865801652303361
 31
0.0
  0
LINE
  5
6264
  8
0
 10
3768.1978733045161789
 20
85.6964430034303604
 30
0.0
 11
3768.1978733045161789
 21
86.507381455630366
 31
0.0
  0
LINE
  5
6265
  8
0
 10
3768.0394739997150282
 20
85.7367136226303614
 30
0.0
 11
3768.0394739996941098
 21
86.4671108364846646
 31
0.0
  0
LINE
  5
6266
  8
0
 10
3767.3664041004931278
 20
85.4003815051807749
 30
0.0
 11
3767.3664041005158651
 21
86.8034429539303574
 31
0.0
  0
LINE
  5
6267
  8
0
 10
3767.2124483045149645
 20
85.3714430034303433
 30
0.0
 11
3767.2124483045149645
 21
86.8323814556303546
 31
0.0
  0
LINE
  5
6268
  8
0
 10
3766.9870486675158645
 20
85.4334082925303591
 30
0.0
 11
3766.9870486675158645
 21
86.7704161665303673
 31
0.0
  0
LINE
  5
6269
  8
0
 10
3767.1669448339162045
 20
85.4019122295303532
 30
0.0
 11
3767.0185447305148045
 21
85.4019122295303532
 31
0.0
  0
LINE
  5
626A
  8
0
 10
3768.1523698339160546
 20
85.7269122295303561
 30
0.0
 11
3768.0689466435151189
 21
85.7269122295303561
 31
0.0
  0
LINE
  5
626B
  8
0
 10
3769.371718746316219
 20
85.8066366390303585
 30
0.0
 11
3768.4917187463152004
 21
85.8066366390303585
 31
0.0
  0
LINE
  5
626C
  8
0
 10
3769.0764431557158787
 20
86.3971878201303696
 30
0.0
 11
3768.4917187463152004
 21
86.3971878201303696
 31
0.0
  0
LINE
  5
626D
  8
0
 10
3768.1523698339160546
 20
86.4769122295303561
 30
0.0
 11
3768.0689466435151189
 21
86.4769122295303561
 31
0.0
  0
LINE
  5
626E
  8
0
 10
3767.0185447305148045
 20
86.8019122295303589
 30
0.0
 11
3767.1669448339162045
 21
86.8019122295303589
 31
0.0
  0
ARC
  5
626F
  8
0
 10
3767.2864187463160306
 20
85.4019122295303532
 30
0.0
 40
0.08
 50
202.3872932429972025
 51
358.9036325338000779
  0
ARC
  5
6270
  8
0
 10
3767.2864187463160306
 20
86.8019122295303589
 30
0.0
 40
0.08
 50
1.0963674661999669
 51
157.6127067570027123
  0
ARC
  5
6271
  8
0
 10
3768.2718437463158807
 20
86.4769122295303561
 30
0.0
 40
0.08
 50
6.9411146514993449
 51
157.6127067570027123
  0
ARC
  5
6272
  8
0
 10
3768.2718437463158807
 20
85.7269122295303561
 30
0.0
 40
0.08
 50
202.3872932429972025
 51
353.0588853485007235
  0
ARC
  5
6273
  8
0
 10
3767.1669448339162045
 20
86.8511248279303487
 30
0.0
 40
0.0492125984
 50
270.0
 51
337.6127067566014262
  0
ARC
  5
6274
  8
0
 10
3767.1669448339162045
 20
85.3526996311303492
 30
0.0
 40
0.0492125984
 50
22.3872932433985596
 51
90.0
  0
ARC
  5
6275
  8
0
 10
3768.0689466435151189
 20
85.7761248279303601
 30
0.0
 40
0.0492125984
 50
233.2099794418903969
 51
270.0
  0
ARC
  5
6276
  8
0
 10
3768.0689466435151189
 20
86.4276996311303662
 30
0.0
 40
0.0492125984
 50
90.0
 51
126.7900205581095037
  0
ARC
  5
6277
  8
0
 10
3768.1523698339160546
 20
86.5261248279303743
 30
0.0
 40
0.0492125984
 50
270.0
 51
337.6127067566014262
  0
ARC
  5
6278
  8
0
 10
3768.1523698339160546
 20
85.6776996311303662
 30
0.0
 40
0.0492125984
 50
22.3872932433985596
 51
90.0
  0
ARC
  5
6279
  8
0
 10
3768.4001093298152227
 20
86.4925274682303638
 30
0.0
 40
0.0492125984
 50
186.9411146515001008
 51
214.3558695193929111
  0
ARC
  5
627A
  8
0
 10
3768.4002903912760303
 20
85.7112525352813321
 30
0.0
 40
0.0493977102670478
 50
145.7022216689115055
 51
173.0330794815616002
  0
ARC
  5
627B
  8
0
 10
3767.0185447305148045
 20
86.7704161665303673
 30
0.0
 40
0.031496063
 50
90.0
 51
180.0
  0
ARC
  5
627C
  8
0
 10
3767.0185447305148045
 20
85.4334082925303591
 30
0.0
 40
0.031496063
 50
180.0
 51
270.0
  0
ARC
  5
627D
  8
0
 10
3768.4859731284441295
 20
85.6546735485335944
 30
0.0
 40
0.1520716705966328
 50
87.8347181562759687
 51
146.2827067699683141
  0
ARC
  5
627E
  8
0
 10
3768.485967253644958
 20
86.5491161177518364
 30
0.0
 40
0.1520371246968819
 50
213.7017704316861
 51
272.1679895988104931
  0
ARC
  5
627F
  8
0
 10
3767.8179041269117988
 20
86.8653457130677396
 30
0.0
 40
0.4557238477684615
 50
187.8068445069694121
 51
299.0906825540748173
  0
ARC
  5
6280
  8
0
 10
3767.8177244707358113
 20
85.3388382750381709
 30
0.0
 40
0.4554971413432726
 50
60.8675820352691801
 51
172.2348909029498998
  0
ARC
  5
6281
  8
0
 10
3770.5405413677158322
 20
89.7048179873344083
 30
0.0
 40
0.3322019739007413
 50
311.8715830840536114
 51
358.684873702928428
  0
ARC
  5
6282
  8
0
 10
3770.4866836433029675
 20
89.8412375733714157
 30
0.0
 40
0.4724889920946724
 50
280.6345559918768231
 51
305.6811212910038762
  0
ARC
  5
6283
  8
0
 10
3770.6370505135610074
 20
88.0203256813248913
 30
0.0
 40
1.240520772542103
 50
95.2390476859660851
 51
108.3828605690306972
  0
ARC
  5
6284
  8
0
 10
3770.3508910289760934
 20
88.7817859020901068
 30
0.0
 40
0.4288253661130249
 50
104.1811933408077948
 51
158.1914317457641914
  0
ARC
  5
6285
  8
0
 10
3770.3457515201939714
 20
88.8260986462961455
 30
0.0
 40
0.409474955198296
 50
163.6893929563485983
 51
197.2509070691259012
  0
ARC
  5
6286
  8
0
 10
3769.9513125408680025
 20
88.622230679273116
 30
0.0
 40
0.0689454993667193
 50
310.0963354120381155
 51
51.0047063912586509
  0
ARC
  5
6287
  8
0
 10
3769.9120926833788872
 20
88.4148872075087269
 30
0.0
 40
0.0221356123416728
 50
1.6830446675807329
 51
58.3169555492384291
  0
ARC
  5
6288
  8
0
 10
3769.9098581027301407
 20
88.2611951046642389
 30
0.0
 40
0.0244377904357208
 50
304.5538392816886812
 51
355.4461357681402092
  0
ARC
  5
6289
  8
0
 10
3769.3673437074758112
 20
87.3712065458366141
 30
0.0
 40
1.062526335221557
 50
77.5589860888291014
 51
89.7640792911540615
  0
ARC
  5
628A
  8
0
 10
3769.5994875558108106
 20
88.4220209540350766
 30
0.0
 40
0.0136285028974202
 50
256.2507763674523744
 51
283.7492254013844786
  0
ARC
  5
628B
  8
0
 10
3769.7614931433217862
 20
87.9159170655067754
 30
0.0
 40
0.5178065196304741
 50
72.1447383342549955
 51
107.8552616230975048
  0
ARC
  5
628C
  8
0
 10
3769.9141806831930808
 20
88.3896666127772619
 30
0.0
 40
0.0200596237389445
 50
2.6567196460364428
 51
72.359548816547985
  0
ARC
  5
628D
  8
0
 10
3769.3674432829898251
 20
89.3026892702075799
 30
0.0
 40
1.0616295777231961
 50
270.2307458914659719
 51
282.4461879498294934
  0
ARC
  5
628E
  8
0
 10
3769.5994875551150471
 20
88.2524743014710964
 30
0.0
 40
0.0139170919042522
 50
76.5413117933729836
 51
103.458688206680705
  0
ARC
  5
628F
  8
0
 10
3769.7628239354098696
 20
88.7703909237850439
 30
0.0
 40
0.5291805487973698
 50
252.3898910092923984
 51
287.6125509189005243
  0
ARC
  5
6290
  8
0
 10
3769.9119858233129889
 20
88.2853989455639834
 30
0.0
 40
0.0222654553359423
 50
299.4788081968354732
 51
356.9023500034035123
  0
ARC
  5
6291
  8
0
 10
3769.5866993871140949
 20
88.3870035395647449
 30
0.0
 40
0.0270410389969008
 50
7.635379677633356
 51
53.6509754150680394
  0
ARC
  5
6292
  8
0
 10
3769.5866978157810081
 20
88.287789567114686
 30
0.0
 40
0.0270427201243315
 50
306.3505309777257253
 51
352.363107386086881
  0
LINE
  5
6293
  8
0
 10
3768.1927802328159487
 20
89.3476424284303476
 30
0.0
 11
3768.1927802328159487
 21
89.2855000206303657
 31
0.0
  0
LINE
  5
6294
  8
0
 10
3768.8092187462148104
 20
88.2592548352303652
 30
0.0
 11
3768.8092187462148104
 21
88.4155373403303599
 31
0.0
  0
LINE
  5
6295
  8
0
 10
3768.8599627783160031
 20
88.5145846746303562
 30
0.0
 11
3768.8599627783160031
 21
88.4795325193303341
 31
0.0
  0
LINE
  5
6296
  8
0
 10
3768.8795927620158182
 20
88.1815185287303365
 30
0.0
 11
3768.8795927620158182
 21
88.1185264027303532
 31
0.0
  0
LINE
  5
6297
  8
0
 10
3768.9780179588151441
 20
88.059471284630348
 30
0.0
 11
3768.9780179588151441
 21
88.0149694724303657
 31
0.0
  0
LINE
  5
6298
  8
0
 10
3769.0173880376150919
 20
87.1684956967303464
 30
0.0
 11
3769.0173880376150919
 21
87.0858492374303523
 31
0.0
  0
LINE
  5
6299
  8
0
 10
3769.0764431557158787
 20
86.1019122295303561
 30
0.0
 11
3769.0764431557158787
 21
86.9819122295303657
 31
0.0
  0
LINE
  5
629A
  8
0
 10
3769.1299368208151463
 20
88.2841957354303446
 30
0.0
 11
3769.1299368208151463
 21
88.3905964400303361
 31
0.0
  0
LINE
  5
629B
  8
0
 10
3768.8401621267071278
 20
88.4455646032354252
 30
0.0
 11
3768.8197187462151305
 21
88.4337238737303437
 31
0.0
  0
LINE
  5
629C
  8
0
 10
3768.8671508169150002
 20
88.2136833829303555
 30
0.0
 11
3768.8197187541532003
 21
88.2410682971477343
 31
0.0
  0
ARC
  5
629D
  8
0
 10
3769.3717187462161746
 20
86.1019122295303561
 30
0.0
 40
0.2952755906
 50
180.0
 51
270.000000009692485
  0
ARC
  5
629E
  8
0
 10
3768.9583329195152146
 20
87.1684956967303464
 30
0.0
 40
0.0590551181
 50
0.0
 51
55.0248542142939314
  0
ARC
  5
629F
  8
0
 10
3769.0237849182149148
 20
87.0340775838303671
 30
0.0
 40
0.0521653543
 50
97.0437382838075138
 51
270.0
  0
ARC
  5
62A0
  8
0
 10
3769.2650326584148388
 20
87.6069129656303573
 30
0.0
 40
0.4759910775
 50
130.3010399883903858
 51
235.0248542141972052
  0
ARC
  5
62A1
  8
0
 10
3768.9189628407161763
 20
88.0149694724303657
 30
0.0
 40
0.0590551181
 50
310.3010399885932884
 51
0.0
  0
ARC
  5
62A2
  8
0
 10
3768.810382582713828
 20
88.5122484947917769
 30
0.0
 40
0.0496352045638235
 50
2.6977367441631679
 51
87.3041950133370221
  0
ARC
  5
62A3
  8
0
 10
3768.820357053069074
 20
88.4798644974029003
 30
0.0
 40
0.0396071165536999
 50
300.0025312812986726
 51
359.5197538516690088
  0
ARC
  5
62A4
  8
0
 10
3768.2252283187999637
 20
89.2877069679397977
 30
0.0
 40
0.0325230518323457
 50
183.8909636105751986
 51
260.1426312270647259
  0
ARC
  5
62A5
  8
0
 10
3768.1627802331249768
 20
89.3476397879031339
 30
0.0
 40
0.0299999998069873
 50
0.0050430355132232
 51
76.9411718128232849
  0
ARC
  5
62A6
  8
0
 10
3768.7605068615680466
 20
88.7117229653015045
 30
0.0
 40
0.0291024820926864
 50
277.383740547822697
 51
345.9668626619503016
  0
ARC
  5
62A7
  8
0
 10
3768.7679818617898491
 20
88.6540591024072455
 30
0.0
 40
0.0290438567252995
 50
97.3884580650029079
 51
131.4901908357967102
  0
ARC
  5
62A8
  8
0
 10
3768.7698310368350576
 20
88.5972850751279282
 30
0.0
 40
0.0355178200405351
 50
231.4963422437423048
 51
266.6274040429025831
  0
ARC
  5
62A9
  8
0
 10
3768.9463314526328759
 20
88.0573123373406332
 30
0.0
 40
0.0317599706200056
 50
3.8978005955714501
 51
86.1021995984610555
  0
ARC
  5
62AA
  8
0
 10
3768.9109224593698855
 20
88.1203285410850867
 30
0.0
 40
0.0313814857082096
 50
183.2921245401525141
 51
266.7078754598517207
  0
ARC
  5
62AB
  8
0
 10
3768.9110314079630371
 20
88.1796074416761542
 30
0.0
 40
0.0314966779048631
 50
93.4786054248967844
 51
176.5213943810589114
  0
ARC
  5
62AC
  8
0
 10
3768.8779702090118917
 20
88.2343817332350966
 30
0.0
 40
0.0233555336155702
 50
242.4031391780885087
 51
267.6353311969413085
  0
ARC
  5
62AD
  8
0
 10
3768.202896124813833
 20
89.7048179873344083
 30
0.0
 40
0.3322019739007413
 50
181.3151262970716004
 51
228.1284169159463886
  0
ARC
  5
62AE
  8
0
 10
3768.2567538492280619
 20
89.8412375733714157
 30
0.0
 40
0.4724889920946724
 50
234.3188787089956122
 51
259.3654440081231769
  0
ARC
  5
62AF
  8
0
 10
3768.106386978970022
 20
88.0203256813248913
 30
0.0
 40
1.240520772542103
 50
71.617139430969246
 51
84.7609523140339292
  0
ARC
  5
62B0
  8
0
 10
3768.3925464635540266
 20
88.7817859020901068
 30
0.0
 40
0.4288253661130249
 50
21.8085682542357802
 51
75.8188066591921341
  0
ARC
  5
62B1
  8
0
 10
3768.397685972337058
 20
88.8260986462961455
 30
0.0
 40
0.409474955198296
 50
342.7490929308739851
 51
16.3106070436513804
  0
ARC
  5
62B2
  8
0
 10
3768.7921249516639364
 20
88.622230679273116
 30
0.0
 40
0.0689454993667193
 50
128.9952936087412922
 51
229.903664587961913
  0
ARC
  5
62B3
  8
0
 10
3768.831344809150778
 20
88.4148872075087269
 30
0.0
 40
0.0221356123416728
 50
121.6830444507615994
 51
178.3169553324192123
  0
ARC
  5
62B4
  8
0
 10
3768.8335793898008887
 20
88.2611951046642389
 30
0.0
 40
0.0244377904357208
 50
184.5538642318597056
 51
235.4461607183112903
  0
ARC
  5
62B5
  8
0
 10
3769.3760937850552182
 20
87.3712065458366141
 30
0.0
 40
1.062526335221557
 50
90.2359207088459385
 51
102.4410139111708986
  0
ARC
  5
62B6
  8
0
 10
3769.1439499367202188
 20
88.4220209540350766
 30
0.0
 40
0.0136285028974202
 50
256.2507745986155214
 51
283.7492236325476256
  0
ARC
  5
62B7
  8
0
 10
3768.9819443492087885
 20
87.9159170655067754
 30
0.0
 40
0.5178065196304741
 50
72.1447383769025237
 51
107.8552616657450045
  0
ARC
  5
62B8
  8
0
 10
3768.8292568093388581
 20
88.3896666127772619
 30
0.0
 40
0.0200596237389445
 50
107.6404511834520008
 51
177.3432803539635074
  0
ARC
  5
62B9
  8
0
 10
3769.3759942095412043
 20
89.3026892702075799
 30
0.0
 40
1.0616295777231961
 50
257.5538120501703929
 51
269.7692541085340281
  0
ARC
  5
62BA
  8
0
 10
3769.1439499374150728
 20
88.2524743014710964
 30
0.0
 40
0.0139170919042522
 50
76.5413117933190819
 51
103.4586882066270022
  0
ARC
  5
62BB
  8
0
 10
3768.9806135571211598
 20
88.7703909237850439
 30
0.0
 40
0.5291805487973698
 50
252.3874490810995042
 51
287.6101089907074879
  0
ARC
  5
62BC
  8
0
 10
3768.8314516692180405
 20
88.2853989455639834
 30
0.0
 40
0.0222654553359423
 50
183.0976499965956066
 51
240.5211918031644984
  0
ARC
  5
62BD
  8
0
 10
3769.1567381054160251
 20
88.3870035395647449
 30
0.0
 40
0.0270410389969008
 50
126.3490245849318967
 51
172.3646203223673865
  0
ARC
  5
62BE
  8
0
 10
3769.1567396767509308
 20
88.287789567114686
 30
0.0
 40
0.0270427201243315
 50
187.6368926139130053
 51
233.6494690222743031
  0
LINE
  5
62BF
  8
0
 10
3769.9791905495148967
 20
88.6828618105303548
 30
0.0
 11
3768.7642469430152232
 21
88.6828618105303548
 31
0.0
  0
ENDSEC
  0
EOF
