  0
SECTION
  2
HEADER
  9
$ACADVER
  1
AC1009
  9
$INSBASE
 10
579.8460883448472032
 20
-15.0777183887008501
 30
0.0
  9
$EXTMIN
 10
548.3404208315771484
 20
-29.8394002361756989
 30
-0.0000000349181948
  9
$EXTMAX
 10
611.3525075108443616
 20
-0.3155266522956026
 30
0.0000000814935746
  9
$LIMMIN
 10
0.0
 20
0.0
  9
$LIMMAX
 10
22.0
 20
17.0
  9
$ORTHOMODE
 70
     0
  9
$REGENMODE
 70
     1
  9
$FILLMODE
 70
     1
  9
$QTEXTMODE
 70
     0
  9
$MIRRTEXT
 70
     0
  9
$DRAGMODE
 70
     2
  9
$LTSCALE
 40
1.2099999999999991
  9
$OSMODE
 70
  4095
  9
$ATTMODE
 70
     1
  9
$TEXTSIZE
 40
0.2
  9
$TRACEWID
 40
0.05
  9
$TEXTSTYLE
  7
STANDARD
  9
$CLAYER
  8
0
  9
$CELTYPE
  6
BYLAYER
  9
$CECOLOR
 62
   256
  9
$DIMSCALE
 40
1.0
  9
$DIMASZ
 40
0.1875
  9
$DIMEXO
 40
0.0625
  9
$DIMDLI
 40
0.38
  9
$DIMRND
 40
0.0
  9
$DIMDLE
 40
0.0
  9
$DIMEXE
 40
0.125
  9
$DIMTP
 40
1.5
  9
$DIMTM
 40
1.5
  9
$DIMTXT
 40
1.5
  9
$DIMCEN
 40
0.09
  9
$DIMTSZ
 40
0.0
  9
$DIMTOL
 70
     0
  9
$DIMLIM
 70
     0
  9
$DIMTIH
 70
     1
  9
$DIMTOH
 70
     1
  9
$DIMSE1
 70
     0
  9
$DIMSE2
 70
     0
  9
$DIMTAD
 70
     0
  9
$DIMZIN
 70
     4
  9
$DIMBLK
  1

  9
$DIMASO
 70
     1
  9
$DIMSHO
 70
     1
  9
$DIMPOST
  1

  9
$DIMAPOST
  1

  9
$DIMALT
 70
     0
  9
$DIMALTD
 70
     2
  9
$DIMALTF
 40
25.3999999999999986
  9
$DIMLFAC
 40
1.0
  9
$DIMTOFL
 70
     0
  9
$DIMTVP
 40
0.0
  9
$DIMTIX
 70
     0
  9
$DIMSOXD
 70
     0
  9
$DIMSAH
 70
     0
  9
$DIMBLK1
  1

  9
$DIMBLK2
  1

  9
$DIMSTYLE
  2
STANDARD
  9
$DIMCLRD
 70
     0
  9
$DIMCLRE
 70
     0
  9
$DIMCLRT
 70
     0
  9
$DIMTFAC
 40
1.0
  9
$DIMGAP
 40
0.09
  9
$LUNITS
 70
     2
  9
$LUPREC
 70
     4
  9
$SKETCHINC
 40
0.1
  9
$FILLETRAD
 40
0.0
  9
$AUNITS
 70
     0
  9
$AUPREC
 70
     0
  9
$MENU
  1
.
  9
$ELEVATION
 40
0.0
  9
$PELEVATION
 40
0.0
  9
$THICKNESS
 40
0.0
  9
$LIMCHECK
 70
     0
  9
$BLIPMODE
 70
     0
  9
$CHAMFERA
 40
0.0
  9
$CHAMFERB
 40
0.0
  9
$SKPOLY
 70
     0
  9
$TDCREATE
 40
2457827.4934837957844138
  9
$TDUPDATE
 40
2459627.8059837957844138
  9
$TDINDWG
 40
0.4104417824
  9
$TDUSRTIMER
 40
0.4104417824
  9
$USRTIMER
 70
     1
  9
$ANGBASE
 50
0.0
  9
$ANGDIR
 70
     0
  9
$PDMODE
 70
     0
  9
$PDSIZE
 40
0.3125
  9
$PLINEWID
 40
0.0
  9
$COORDS
 70
     1
  9
$SPLFRAME
 70
     0
  9
$SPLINETYPE
 70
     6
  9
$SPLINESEGS
 70
     8
  9
$ATTDIA
 70
     1
  9
$ATTREQ
 70
     1
  9
$HANDLING
 70
     1
  9
$HANDSEED
  5
8D07
  9
$SURFTAB1
 70
     6
  9
$SURFTAB2
 70
     6
  9
$SURFTYPE
 70
     6
  9
$SURFU
 70
     6
  9
$SURFV
 70
     6
  9
$UCSNAME
  2

  9
$UCSORG
 10
0.0
 20
0.0
 30
0.0
  9
$UCSXDIR
 10
1.0
 20
0.0
 30
0.0
  9
$UCSYDIR
 10
0.0
 20
1.0
 30
0.0
  9
$PUCSNAME
  2

  9
$PUCSORG
 10
0.0
 20
0.0
 30
0.0
  9
$PUCSXDIR
 10
1.0
 20
0.0
 30
0.0
  9
$PUCSYDIR
 10
0.0
 20
1.0
 30
0.0
  9
$USERI1
 70
     0
  9
$USERI2
 70
     0
  9
$USERI3
 70
     0
  9
$USERI4
 70
     0
  9
$USERI5
 70
     0
  9
$USERR1
 40
0.0
  9
$USERR2
 40
0.0
  9
$USERR3
 40
0.0
  9
$USERR4
 40
0.0
  9
$USERR5
 40
0.0
  9
$WORLDVIEW
 70
     1
  9
$SHADEDGE
 70
     3
  9
$SHADEDIF
 70
    70
  9
$TILEMODE
 70
     1
  9
$MAXACTVP
 70
    48
  9
$PLIMCHECK
 70
     0
  9
$PEXTMIN
 10
1.0000000000000000E+20
 20
1.0000000000000000E+20
 30
1.0000000000000000E+20
  9
$PEXTMAX
 10
-1.0000000000000000E+20
 20
-1.0000000000000000E+20
 30
-1.0000000000000000E+20
  9
$PLIMMIN
 10
0.0
 20
0.0
  9
$PLIMMAX
 10
12.0
 20
9.0
  9
$UNITMODE
 70
     0
  9
$VISRETAIN
 70
     1
  9
$PLINEGEN
 70
     0
  9
$PSLTSCALE
 70
     1
  0
ENDSEC
  0
SECTION
  2
TABLES
  0
TABLE
  2
VPORT
 70
     1
  0
VPORT
  2
*ACTIVE
 70
     0
 10
0.0
 20
0.0
 11
1.0
 21
1.0
 12
368.8675365589061244
 22
-22.2799126297962111
 13
0.0
 23
0.0
 14
1.0
 24
1.0
 15
0.0
 25
0.0
 16
-0.0000000000000284
 26
0.0
 36
157.2215818301446859
 17
210.9789276123046875
 27
7.2024491855605604
 37
0.0
 40
31.5221020656116018
 41
2.005224660397074
 42
50.0
 43
0.0
 44
0.0
 50
0.0
 51
0.0
 71
     0
 72
   100
 73
     1
 74
     1
 75
     0
 76
     0
 77
     0
 78
     0
  0
ENDTAB
  0
TABLE
  2
LTYPE
 70
     2
  0
LTYPE
  2
CONTINUOUS
 70
     0
  3
Solid line
 72
    65
 73
     0
 40
0.0
  0
LTYPE
  2
PHANTOM2
 70
     0
  3
___ _ _ ___ _ _ ___ _ _ ___ _ _
 72
    65
 73
     6
 40
1.25
 49
0.625
 49
-0.125
 49
0.125
 49
-0.125
 49
0.125
 49
-0.125
  0
ENDTAB
  0
TABLE
  2
LAYER
 70
     2
  0
LAYER
  2
0
 70
     0
 62
     7
  6
CONTINUOUS
  0
LAYER
  2
DEFPOINTS
 70
     0
 62
     7
  6
CONTINUOUS
  0
ENDTAB
  0
TABLE
  2
STYLE
 70
     1
  0
STYLE
  2
STANDARD
 70
     0
 40
0.0
 41
0.8
 50
0.0
 71
     0
 42
0.2
  3
txt
  4

  0
ENDTAB
  0
TABLE
  2
VIEW
 70
     0
  0
ENDTAB
  0
TABLE
  2
UCS
 70
     0
  0
ENDTAB
  0
TABLE
  2
APPID
 70
     9
  0
APPID
  2
ACAD
 70
     0
  0
APPID
  2
ACAD_MLEADERVER
 70
     0
  0
APPID
  2
ACAD_EXEMPT_FROM_CAD_STANDARDS
 70
     0
  0
APPID
  2
ACAD_NAV_VCDISPLAY
 70
     0
  0
APPID
  2
ACADANNOMONITORALERTICONDI
 70
     0
  0
APPID
  2
ACAD_DSTYLE_DIMJAG
 70
     0
  0
APPID
  2
ACAD_DSTYLE_DIMTALN
 70
     0
  0
APPID
  2
ACDBATTR
 70
     0
  0
APPID
  2
DCO15
 70
     0
  0
ENDTAB
  0
TABLE
  2
DIMSTYLE
 70
     1
  0
DIMSTYLE
  2
STANDARD
 70
     0
  3

  4

  5

  6

  7

 40
1.0
 41
0.1875
 42
0.0625
 43
0.38
 44
0.125
 45
0.0
 46
0.0
 47
1.5
 48
1.5
140
1.5
141
0.09
142
0.0
143
25.3999999999999986
144
1.0
145
0.0
146
1.0
147
0.09
 71
     0
 72
     0
 73
     1
 74
     1
 75
     0
 76
     0
 77
     0
 78
     4
170
     0
171
     2
172
     0
173
     0
174
     0
175
     0
176
     0
177
     0
178
     0
  0
ENDTAB
  0
ENDSEC
  0
SECTION
  2
BLOCKS
  0
BLOCK
  8
0
  2
$MODEL_SPACE
 70
     0
 10
0.0
 20
0.0
 30
0.0
  3
$MODEL_SPACE
  1

  0
ENDBLK
  5
21
  8
0
  0
BLOCK
 67
     1
  8
0
  2
$PAPER_SPACE
 70
     0
 10
0.0
 20
0.0
 30
0.0
  3
$PAPER_SPACE
  1

  0
ENDBLK
  5
1D
 67
     1
  8
0
  0
ENDSEC
  0
SECTION
  2
ENTITIES
  0
ATTDEF
  5
4EF9
  8
DEFPOINTS
 10
579.846100787460955
 20
-15.0743712455890204
 30
0.0
 40
0.001
  1
K-25166T
  3

  2
MODELNUMBER
 70
     0
1001
ACDBATTR
1070
     0
1070
     1
  0
ATTDEF
  5
4EFA
  8
DEFPOINTS
 10
579.846100787460955
 20
-15.0760379122556891
 30
0.0
 40
0.001
  1

  3

  2
TRADENAME
 70
     0
1001
ACDBATTR
1070
     0
1070
     1
  0
ATTDEF
  5
4EFB
  8
DEFPOINTS
 10
579.846100787460955
 20
-15.0777045789223703
 30
0.0
 40
0.001
  1
BATH
  3

  2
PRODUCT
 70
     0
1001
ACDBATTR
1070
     0
1070
     1
  0
LINE
  5
8B52
  8
0
 10
563.1283738694802423
 20
-29.8365417350157713
 30
0.0
 11
596.5638028202142777
 21
-29.8365417350157713
 31
0.0
  0
LINE
  5
8B53
  8
0
 10
563.1161798558892997
 20
-28.8210341867506585
 30
0.0
 11
596.5759968338057888
 21
-28.8210341867506585
 31
0.0
  0
LINE
  5
8B54
  8
0
 10
568.9576127520280124
 20
-26.1851000255831785
 30
0.0
 11
590.7345639376666213
 21
-26.1851000255831785
 31
0.0
  0
ARC
  5
8B56
  8
0
 10
572.1716050470604387
 20
-15.0777183887008608
 30
0.0
 40
12.5249233324777105
 50
149.2080466050402947
 51
210.7919533949591084
  0
ARC
  5
8B57
  8
0
 10
570.6778501384026185
 20
-15.65822633593441
 30
0.0
 40
10.9477977189296691
 50
212.1842735565450084
 51
231.1372556240931999
  0
ARC
  5
8B58
  8
0
 10
569.5367888524978071
 20
-17.0742421321147795
 30
0.0
 40
9.1292484088412529
 50
231.1372556240931999
 51
266.3626088925420845
  0
CIRCLE
  5
8B59
  8
0
 10
579.8460883448472032
 20
-15.0777183887008501
 30
0.0
 40
0.984251968499997
  0
CIRCLE
  5
8B5A
  8
0
 10
579.8460883448472032
 20
-15.0777183887008501
 30
0.0
 40
1.365022554100001
  0
LINE
  5
8B5B
  8
0
 10
563.1283738694802423
 20
-0.3188950423859538
 30
0.0
 11
596.5638028202142777
 21
-0.3188950423859538
 31
0.0
  0
LINE
  5
8B5C
  8
0
 10
563.1185670324837247
 20
-1.3344025906510451
 30
0.0
 11
596.5736096572106817
 21
-1.3344025906510451
 31
0.0
  0
LINE
  5
8B5D
  8
0
 10
568.9576127520280124
 20
-3.970336751818528
 30
0.0
 11
590.7345639376666213
 21
-3.970336751818528
 31
0.0
  0
ARC
  5
8B5E
  8
0
 10
569.5367888524978071
 20
-13.0811946452869208
 30
0.0
 40
9.1292484088412529
 50
93.6373911074578871
 51
128.8627443759069138
  0
ARC
  5
8B5F
  8
0
 10
570.6778501384026185
 20
-14.4972104414672902
 30
0.0
 40
10.9477977189296691
 50
128.8627443759069138
 51
147.8157264434545937
  0
ARC
  5
8B60
  8
0
 10
563.1369575833283534
 20
-15.0777200895567205
 30
0.0
 40
13.7433298035114895
 50
90.0766700119876731
 51
269.9133778668866057
  0
ARC
  5
8B61
  8
0
 10
563.135809532656026
 20
-15.0777183887008395
 30
0.0
 40
14.7588252194006504
 50
90.0288662633759031
 51
269.9711337366240969
  0
LINE
  5
8B62
  8
0
 10
577.9917190214473521
 20
-1.8834857797508631
 30
0.0
 11
581.7004576682472816
 21
-1.8834857797508631
 31
0.0
  0
ARC
  5
8B63
  8
0
 10
577.9985294633363537
 20
-2.7118088650632961
 30
0.0
 40
0.8283510824404176
 50
90.4710731734208338
 51
93.0112465899897387
  0
ARC
  5
8B64
  8
0
 10
577.9837353780146714
 20
-2.4196263016693029
 30
0.0
 40
0.5357950986022154
 50
93.0727635838232743
 51
100.4497825507011015
  0
ARC
  5
8B65
  8
0
 10
577.9047732590961459
 20
-1.9914909930481379
 30
0.0
 40
0.1004390848476601
 50
100.4497825507011015
 51
112.5300143673510007
  0
ARC
  5
8B66
  8
0
 10
577.8719719508934531
 20
-1.914389453192519
 30
0.0
 40
0.0166707351777403
 50
109.9339703775950028
 51
250.0660296223564956
  0
ARC
  5
8B67
  8
0
 10
577.9530779274692804
 20
-1.5812088353737641
 30
0.0
 40
0.3594864962806139
 50
256.0292379960379208
 51
263.0997915196136887
  0
ARC
  5
8B68
  8
0
 10
577.9928343140900324
 20
-1.2342586448478761
 30
0.0
 40
0.7087035030743585
 50
263.2788109373922794
 51
269.7681558007550962
  0
LINE
  5
8B69
  8
0
 10
577.9899665924326655
 20
-1.942956345875877
 30
0.0
 11
581.7022100972617409
 21
-1.942956345875877
 31
0.0
  0
ARC
  5
8B6A
  8
0
 10
589.0143265512919015
 20
-15.65822633593441
 30
0.0
 40
10.9477977189296691
 50
308.8627443759062885
 51
327.815726443454821
  0
ARC
  5
8B6B
  8
0
 10
590.1553878371965993
 20
-17.0742421321147795
 30
0.0
 40
9.1292484088412529
 50
273.6373911074579155
 51
308.8627443759062885
  0
ARC
  5
8B6C
  8
0
 10
590.1553878371965993
 20
-13.0811946452869208
 30
0.0
 40
9.1292484088412529
 50
51.1372556240929583
 51
86.3626088925421129
  0
ARC
  5
8B6D
  8
0
 10
589.0143265512919015
 20
-14.4972104414672902
 30
0.0
 40
10.9477977189296691
 50
32.1842735565453779
 51
51.1372556240929583
  0
ARC
  5
8B6E
  8
0
 10
596.5563671570386077
 20
-15.0777183887008501
 30
0.0
 40
14.7588252194006593
 50
270.0288662633759031
 51
89.9711337366240826
  0
ARC
  5
8B6F
  8
0
 10
581.6936472263581663
 20
-2.7118088650632961
 30
0.0
 40
0.8283510824404176
 50
86.9887534100102471
 51
89.5289268265791662
  0
ARC
  5
8B70
  8
0
 10
581.7084413116798487
 20
-2.4196263016693029
 30
0.0
 40
0.5357950986022154
 50
79.5502174492988843
 51
86.9272364161767541
  0
ARC
  5
8B71
  8
0
 10
581.7874034305984878
 20
-1.9914909930481379
 30
0.0
 40
0.1004390848476601
 50
67.4699856326489709
 51
79.5502174492988843
  0
ARC
  5
8B72
  8
0
 10
581.8202047388009532
 20
-1.914389453192519
 30
0.0
 40
0.0166707351777403
 50
289.9339703776433907
 51
70.0660296224050256
  0
ARC
  5
8B73
  8
0
 10
581.7390987622253533
 20
-1.5812088353737641
 30
0.0
 40
0.3594864962806139
 50
276.9002084803863113
 51
283.9707620039620792
  0
ARC
  5
8B74
  8
0
 10
581.6993423756046013
 20
-1.2342586448478761
 30
0.0
 40
0.7087035030743585
 50
270.2318441992384237
 51
276.721189062607607
  0
ARC
  5
8B75
  8
0
 10
596.555219106366053
 20
-15.0777200895567205
 30
0.0
 40
13.7433298035114895
 50
270.086622133113508
 51
89.9233299880122843
  0
ARC
  5
8B76
  8
0
 10
587.5205716426339677
 20
-15.0777183887008608
 30
0.0
 40
12.5249233324777105
 50
329.2080466050406926
 51
30.7919533949596591
  0
ENDSEC
  0
EOF
