  0
SECTION
  2
HEADER
  9
$ACADVER
  1
AC1009
  9
$INSBASE
 10
4586.4041889910167811
 20
220.3369591510929126
 30
0.0
  9
$EXTMIN
 10
4575.0144252114159826
 20
200.1853843479428861
 30
0.0
  9
$EXTMAX
 10
4597.79395277061667
 20
240.4885339542429108
 30
0.0
  9
$LIMMIN
 10
0.0
 20
0.0
  9
$LIMMAX
 10
11.6929133858000007
 20
8.2677165353999982
  9
$ORTHOMODE
 70
     0
  9
$REGENMODE
 70
     1
  9
$FILLMODE
 70
     1
  9
$QTEXTMODE
 70
     0
  9
$MIRRTEXT
 70
     0
  9
$DRAGMODE
 70
     2
  9
$LTSCALE
 40
0.6431102362
  9
$OSMODE
 70
  4095
  9
$ATTMODE
 70
     1
  9
$TEXTSIZE
 40
0.2
  9
$TRACEWID
 40
0.05
  9
$TEXTSTYLE
  7
STANDARD
  9
$CLAYER
  8
0
  9
$CELTYPE
  6
BYLAYER
  9
$CECOLOR
 62
   256
  9
$DIMSCALE
 40
1.0
  9
$DIMASZ
 40
0.1875
  9
$DIMEXO
 40
0.0625
  9
$DIMDLI
 40
0.4443307087
  9
$DIMRND
 40
0.0
  9
$DIMDLE
 40
0.0
  9
$DIMEXE
 40
0.125
  9
$DIMTP
 40
0.01
  9
$DIMTM
 40
0.01
  9
$DIMTXT
 40
2.0
  9
$DIMCEN
 40
0.1052362205
  9
$DIMTSZ
 40
0.0
  9
$DIMTOL
 70
     1
  9
$DIMLIM
 70
     0
  9
$DIMTIH
 70
     1
  9
$DIMTOH
 70
     1
  9
$DIMSE1
 70
     0
  9
$DIMSE2
 70
     0
  9
$DIMTAD
 70
     0
  9
$DIMZIN
 70
     0
  9
$DIMBLK
  1

  9
$DIMASO
 70
     1
  9
$DIMSHO
 70
     1
  9
$DIMPOST
  1
\X
  9
$DIMAPOST
  1

  9
$DIMALT
 70
     1
  9
$DIMALTD
 70
     2
  9
$DIMALTF
 40
25.3999999999999986
  9
$DIMLFAC
 40
1.0
  9
$DIMTOFL
 70
     0
  9
$DIMTVP
 40
0.0
  9
$DIMTIX
 70
     0
  9
$DIMSOXD
 70
     0
  9
$DIMSAH
 70
     0
  9
$DIMBLK1
  1

  9
$DIMBLK2
  1

  9
$DIMSTYLE
  2
STANDARD
  9
$DIMCLRD
 70
     0
  9
$DIMCLRE
 70
     0
  9
$DIMCLRT
 70
     0
  9
$DIMTFAC
 40
1.0
  9
$DIMGAP
 40
0.09
  9
$LUNITS
 70
     2
  9
$LUPREC
 70
     4
  9
$SKETCHINC
 40
0.1
  9
$FILLETRAD
 40
0.0
  9
$AUNITS
 70
     0
  9
$AUPREC
 70
     0
  9
$MENU
  1
.
  9
$ELEVATION
 40
0.0
  9
$PELEVATION
 40
0.0
  9
$THICKNESS
 40
0.0
  9
$LIMCHECK
 70
     0
  9
$BLIPMODE
 70
     0
  9
$CHAMFERA
 40
0.0
  9
$CHAMFERB
 40
0.0
  9
$SKPOLY
 70
     0
  9
$TDCREATE
 40
2458060.468368056230247
  9
$TDUPDATE
 40
2459758.6988657410256565
  9
$TDINDWG
 40
0.5203079861
  9
$TDUSRTIMER
 40
0.5203079861
  9
$USRTIMER
 70
     1
  9
$ANGBASE
 50
0.0
  9
$ANGDIR
 70
     0
  9
$PDMODE
 70
     0
  9
$PDSIZE
 40
0.3125
  9
$PLINEWID
 40
0.0
  9
$COORDS
 70
     1
  9
$SPLFRAME
 70
     0
  9
$SPLINETYPE
 70
     6
  9
$SPLINESEGS
 70
     8
  9
$ATTDIA
 70
     1
  9
$ATTREQ
 70
     1
  9
$HANDLING
 70
     1
  9
$HANDSEED
  5
1126B
  9
$SURFTAB1
 70
     6
  9
$SURFTAB2
 70
     6
  9
$SURFTYPE
 70
     6
  9
$SURFU
 70
     6
  9
$SURFV
 70
     6
  9
$UCSNAME
  2

  9
$UCSORG
 10
0.0
 20
0.0
 30
0.0
  9
$UCSXDIR
 10
1.0
 20
0.0
 30
0.0
  9
$UCSYDIR
 10
0.0
 20
1.0
 30
0.0
  9
$PUCSNAME
  2

  9
$PUCSORG
 10
0.0
 20
0.0
 30
0.0
  9
$PUCSXDIR
 10
1.0
 20
0.0
 30
0.0
  9
$PUCSYDIR
 10
0.0
 20
1.0
 30
0.0
  9
$USERI1
 70
     0
  9
$USERI2
 70
     0
  9
$USERI3
 70
     0
  9
$USERI4
 70
     0
  9
$USERI5
 70
     0
  9
$USERR1
 40
0.0
  9
$USERR2
 40
0.0
  9
$USERR3
 40
0.0
  9
$USERR4
 40
0.0
  9
$USERR5
 40
0.0
  9
$WORLDVIEW
 70
     1
  9
$SHADEDGE
 70
     3
  9
$SHADEDIF
 70
    70
  9
$TILEMODE
 70
     1
  9
$MAXACTVP
 70
    64
  9
$PLIMCHECK
 70
     0
  9
$PEXTMIN
 10
1.0000000000000000E+20
 20
1.0000000000000000E+20
 30
1.0000000000000000E+20
  9
$PEXTMAX
 10
-1.0000000000000000E+20
 20
-1.0000000000000000E+20
 30
-1.0000000000000000E+20
  9
$PLIMMIN
 10
0.0
 20
0.0
  9
$PLIMMAX
 10
12.0
 20
9.0
  9
$UNITMODE
 70
     0
  9
$VISRETAIN
 70
     1
  9
$PLINEGEN
 70
     0
  9
$PSLTSCALE
 70
     1
  0
ENDSEC
  0
SECTION
  2
TABLES
  0
TABLE
  2
VPORT
 70
     1
  0
VPORT
  2
*ACTIVE
 70
     0
 10
0.0
 20
0.0
 11
1.0
 21
1.0
 12
815.7455244587179095
 22
95.4171438971351904
 13
0.0
 23
0.0
 14
1.0
 24
1.0
 15
0.0
 25
0.0
 16
0.0
 26
0.0
 36
17.1152628219792007
 17
3803.5440673828129547
 27
125.9952621967499056
 37
0.0
 40
148.3314506181023091
 41
2.0416666666666661
 42
50.0
 43
0.0
 44
0.0
 50
0.0
 51
0.0
 71
     0
 72
   100
 73
     1
 74
     1
 75
     0
 76
     0
 77
     0
 78
     0
  0
ENDTAB
  0
TABLE
  2
LTYPE
 70
     2
  0
LTYPE
  2
CONTINUOUS
 70
     0
  3
Solid line
 72
    65
 73
     0
 40
0.0
  0
LTYPE
  2
PHANTOM2
 70
     0
  3
___ _ _ ___ _ _ ___ _ _ ___ _ _
 72
    65
 73
     6
 40
1.25
 49
0.625
 49
-0.125
 49
0.125
 49
-0.125
 49
0.125
 49
-0.125
  0
ENDTAB
  0
TABLE
  2
LAYER
 70
     2
  0
LAYER
  2
0
 70
     0
 62
   255
  6
CONTINUOUS
  0
LAYER
  2
DEFPOINTS
 70
     0
 62
     7
  6
CONTINUOUS
  0
ENDTAB
  0
TABLE
  2
STYLE
 70
     1
  0
STYLE
  2
STANDARD
 70
     0
 40
0.0
 41
0.8
 50
0.0
 71
     0
 42
0.2
  3
txt
  4

  0
ENDTAB
  0
TABLE
  2
VIEW
 70
     0
  0
ENDTAB
  0
TABLE
  2
UCS
 70
     0
  0
ENDTAB
  0
TABLE
  2
APPID
 70
     9
  0
APPID
  2
ACAD
 70
     0
  0
APPID
  2
ACAD_MLEADERVER
 70
     0
  0
APPID
  2
ACAD_EXEMPT_FROM_CAD_STANDARDS
 70
     0
  0
APPID
  2
ACAD_NAV_VCDISPLAY
 70
     0
  0
APPID
  2
ACAECLAYERSTANDARD
 70
     0
  0
APPID
  2
ACCMTRANSPARENCY
 70
     0
  0
APPID
  2
ACAD_DSTYLE_DIMJAG
 70
     0
  0
APPID
  2
ACAD_DSTYLE_DIMTALN
 70
     0
  0
APPID
  2
ACDBATTR
 70
     0
  0
ENDTAB
  0
TABLE
  2
DIMSTYLE
 70
     1
  0
DIMSTYLE
  2
STANDARD
 70
     0
  3

  4

  5

  6

  7

 40
1.0
 41
0.1875
 42
0.0625
 43
0.38
 44
0.125
 45
0.0
 46
0.0
 47
0.01
 48
0.01
140
0.15625
141
0.09
142
0.0
143
25.3999999999999986
144
1.0
145
0.0
146
1.0
147
0.09
 71
     1
 72
     0
 73
     1
 74
     1
 75
     0
 76
     0
 77
     0
 78
     4
170
     0
171
     2
172
     0
173
     0
174
     0
175
     0
176
     0
177
     0
178
     0
  0
ENDTAB
  0
ENDSEC
  0
SECTION
  2
BLOCKS
  0
BLOCK
  8
0
  2
$MODEL_SPACE
 70
     0
 10
0.0
 20
0.0
 30
0.0
  3
$MODEL_SPACE
  1

  0
ENDBLK
  5
21
  8
0
  0
BLOCK
 67
     1
  8
0
  2
$PAPER_SPACE
 70
     0
 10
0.0
 20
0.0
 30
0.0
  3
$PAPER_SPACE
  1

  0
ENDBLK
  5
1D
 67
     1
  8
0
  0
ENDSEC
  0
SECTION
  2
ENTITIES
  0
ATTDEF
  5
3930
  8
DEFPOINTS
 10
4586.3957693741867843
 20
220.3404458972833027
 30
0.0
 40
0.001
  1
K-25237T-L
  3

  2
MODELNUMBER
 70
     0
1001
ACDBATTR
1070
     0
1070
     1
  0
ATTDEF
  5
3931
  8
DEFPOINTS
 10
4586.3957693741867843
 20
220.3387792306166091
 30
0.0
 40
0.001
  1

  3

  2
TRADENAME
 70
     0
1001
ACDBATTR
1070
     0
1070
     1
  0
ATTDEF
  5
3932
  8
DEFPOINTS
 10
4586.3957693741867843
 20
220.3371125639500008
 30
0.0
 40
0.001
  1
MIRROR CABINET
  3

  2
PRODUCT
 70
     0
1001
ACDBATTR
1070
     0
1070
     1
  0
LINE
  5
11100
  8
0
 10
4575.0656063138158061
 20
210.1734717495430118
 30
0.0
 11
4575.0656063138158061
 21
239.7012339542428947
 31
0.0
  0
LINE
  5
11101
  8
0
 10
4597.7427716682168466
 20
239.7012339542428947
 30
0.0
 11
4597.7427716682168466
 21
210.1734717495430118
 31
0.0
  0
LINE
  5
11102
  8
0
 10
4575.8531252114171366
 20
200.1853843479428861
 30
0.0
 11
4596.9553527706157183
 21
200.1853843479428861
 31
0.0
  0
ARC
  5
11103
  8
0
 10
4575.8531252114171366
 20
201.0240843479429032
 30
0.0
 40
0.8387
 50
180.0
 51
270.0
  0
LINE
  5
11104
  8
0
 10
4575.8529063138166748
 20
240.4885339542429108
 30
0.0
 11
4596.9554716682159778
 21
240.4885339542429108
 31
0.0
  0
LINE
  5
11105
  8
0
 10
4597.6246614319170476
 20
206.6348719062430064
 30
0.0
 11
4589.7506456839173552
 21
206.6348719062430064
 31
0.0
  0
LINE
  5
11106
  8
0
 10
4575.8529063138166748
 20
209.3861717495429104
 30
0.0
 11
4596.9554716682159778
 21
209.3861717495429104
 31
0.0
  0
ARC
  5
11107
  8
0
 10
4575.8529063138166748
 20
210.1734717495430118
 30
0.0
 40
0.7873000000000001
 50
180.0
 51
270.0
  0
ARC
  5
11108
  8
0
 10
4575.8529063138166748
 20
239.7012339542428947
 30
0.0
 40
0.7873000000000001
 50
90.0
 51
180.0
  0
ARC
  5
11109
  8
0
 10
4596.9554716682159778
 20
239.7012339542428947
 30
0.0
 40
0.7873000000000001
 50
0.0
 51
90.0
  0
ARC
  5
1110A
  8
0
 10
4596.9554716682159778
 20
210.1734717495430118
 30
0.0
 40
0.7873000000000001
 50
270.0
 51
0.0
  0
LINE
  5
1110B
  8
0
 10
4597.7427716682168466
 20
239.5042819857430061
 30
0.0
 11
4575.0656063138158061
 21
239.5042819857430061
 31
0.0
  0
LINE
  5
1110C
  8
0
 10
4597.7427716682168466
 20
210.3704237180429004
 30
0.0
 11
4575.0656063138158061
 21
210.3704237180429004
 31
0.0
  0
LINE
  5
1110D
  8
0
 10
4577.841196865017082
 20
238.3231796235428988
 30
0.0
 11
4594.9671811170173896
 21
238.3231796235428988
 31
0.0
  0
LINE
  5
1110E
  8
0
 10
4594.9671811170173896
 20
238.3231796235428988
 30
0.0
 11
4594.9671811170173896
 21
236.9452268676429014
 31
0.0
  0
LINE
  5
1110F
  8
0
 10
4594.9671811170173896
 20
236.9452268676429014
 30
0.0
 11
4577.841196865017082
 21
236.9452268676429014
 31
0.0
  0
LINE
  5
11110
  8
0
 10
4577.841196865017082
 20
236.9452268676429014
 30
0.0
 11
4577.841196865017082
 21
238.3231796235428988
 31
0.0
  0
ARC
  5
11111
  8
0
 10
4596.9553527706157183
 20
201.0239843479430135
 30
0.0
 40
0.8385999999999999
 50
270.0
 51
0.0
  0
LINE
  5
11112
  8
0
 10
4589.7506456839173552
 20
206.6363700546430096
 30
0.0
 11
4589.750727824551177
 21
209.3861717495429104
 31
0.0
  0
LINE
  5
11113
  8
0
 10
4597.6246614319170476
 20
206.6348719042429991
 30
0.0
 11
4597.6246614319170476
 21
209.7587838063867025
 31
0.0
  0
LINE
  5
11114
  8
0
 10
4597.1853139073173224
 20
207.0222513608428869
 30
0.0
 11
4590.1899932075757533
 21
207.0222513608428869
 31
0.0
  0
LINE
  5
11115
  8
0
 10
4597.1853139073173224
 20
207.1203020201429013
 30
0.0
 11
4590.1899932069982242
 21
207.1203020201054983
 31
0.0
  0
ARC
  5
11116
  8
0
 10
4590.1510547794132435
 20
205.4870298412828049
 30
0.0
 40
1.6337362735078671
 50
88.6342845714717669
 51
104.1865625506300006
  0
ARC
  5
11117
  8
0
 10
4590.1510547786629104
 20
205.3889791891662924
 30
0.0
 40
1.633736266359882
 50
88.6342845162713928
 51
104.1865625869102985
  0
ARC
  5
11118
  8
0
 10
4597.2242523364211593
 20
205.4870298412828049
 30
0.0
 40
1.6337362735078671
 50
75.8129678687070907
 51
91.3657154285282189
  0
ARC
  5
11119
  8
0
 10
4597.2242523371696734
 20
205.3889791891662924
 30
0.0
 40
1.633736266359882
 50
75.8134374130896589
 51
91.3657154837286072
  0
LINE
  5
1111A
  8
0
 10
4575.0144252114159826
 20
209.6853843479428861
 30
0.0
 11
4575.0144252114159826
 21
201.0240843479429032
 31
0.0
  0
ARC
  5
1111B
  8
0
 10
4575.4593071002918805
 20
209.6853843484134075
 30
0.0
 40
0.444881888774642
 50
144.0669441292365036
 51
180.0000000605911055
  0
LINE
  5
1111C
  8
0
 10
4597.79395277061667
 20
201.0239670250429924
 30
0.0
 11
4597.79395277061667
 21
209.6853843479428861
 31
0.0
  0
ARC
  5
1111D
  8
0
 10
4597.3490708808167255
 20
209.6853843479428861
 30
0.0
 40
0.4448818897999108
 50
0.0
 51
35.9269387953029309
  0
LINE
  5
1111F
  8
0
 10
4575.3293858414172064
 20
201.0239449778428877
 30
0.0
 11
4575.3293858414172064
 21
209.5854516776252865
 31
0.0
  0
LINE
  5
11120
  8
0
 10
4596.9553921406168229
 20
200.5003449778429001
 30
0.0
 11
4575.8529858414167393
 21
200.5003449778429001
 31
0.0
  0
LINE
  5
11121
  8
0
 10
4597.4789921406172652
 20
201.0239449778428877
 30
0.0
 11
4597.4789921406172652
 21
206.6348719062430064
 31
0.0
  0
ARC
  5
11122
  8
0
 10
4596.9553921406168229
 20
201.0239449778428877
 30
0.0
 40
0.5236
 50
270.0
 51
0.0
  0
ARC
  5
11123
  8
0
 10
4575.8529858414167393
 20
201.0239449778428877
 30
0.0
 40
0.5236
 50
180.0
 51
270.0
  0
ENDSEC
  0
EOF
