  0
SECTION
  2
HEADER
  9
$ACADVER
  1
AC1009
  9
$INSBASE
 10
4537.8701313111478157
 20
238.4953154892768055
 30
0.0
  9
$EXTMIN
 10
4526.4803675316479712
 20
232.4141147018767981
 30
0.0
  9
$EXTMAX
 10
4549.2598950907477047
 20
238.500176914277489
 30
0.0
  9
$LIMMIN
 10
0.0
 20
0.0
  9
$LIMMAX
 10
11.6929133858000007
 20
8.2677165353999982
  9
$ORTHOMODE
 70
     0
  9
$REGENMODE
 70
     1
  9
$FILLMODE
 70
     1
  9
$QTEXTMODE
 70
     0
  9
$MIRRTEXT
 70
     0
  9
$DRAGMODE
 70
     2
  9
$LTSCALE
 40
0.6431102362
  9
$OSMODE
 70
  4095
  9
$ATTMODE
 70
     1
  9
$TEXTSIZE
 40
0.2
  9
$TRACEWID
 40
0.05
  9
$TEXTSTYLE
  7
STANDARD
  9
$CLAYER
  8
0
  9
$CELTYPE
  6
BYLAYER
  9
$CECOLOR
 62
   256
  9
$DIMSCALE
 40
1.0
  9
$DIMASZ
 40
0.1875
  9
$DIMEXO
 40
0.0625
  9
$DIMDLI
 40
0.4443307087
  9
$DIMRND
 40
0.0
  9
$DIMDLE
 40
0.0
  9
$DIMEXE
 40
0.125
  9
$DIMTP
 40
0.01
  9
$DIMTM
 40
0.01
  9
$DIMTXT
 40
2.0
  9
$DIMCEN
 40
0.1052362205
  9
$DIMTSZ
 40
0.0
  9
$DIMTOL
 70
     1
  9
$DIMLIM
 70
     0
  9
$DIMTIH
 70
     1
  9
$DIMTOH
 70
     1
  9
$DIMSE1
 70
     0
  9
$DIMSE2
 70
     0
  9
$DIMTAD
 70
     0
  9
$DIMZIN
 70
     0
  9
$DIMBLK
  1

  9
$DIMASO
 70
     1
  9
$DIMSHO
 70
     1
  9
$DIMPOST
  1
\X
  9
$DIMAPOST
  1

  9
$DIMALT
 70
     1
  9
$DIMALTD
 70
     2
  9
$DIMALTF
 40
25.3999999999999986
  9
$DIMLFAC
 40
1.0
  9
$DIMTOFL
 70
     0
  9
$DIMTVP
 40
0.0
  9
$DIMTIX
 70
     0
  9
$DIMSOXD
 70
     0
  9
$DIMSAH
 70
     0
  9
$DIMBLK1
  1

  9
$DIMBLK2
  1

  9
$DIMSTYLE
  2
STANDARD
  9
$DIMCLRD
 70
     0
  9
$DIMCLRE
 70
     0
  9
$DIMCLRT
 70
     0
  9
$DIMTFAC
 40
1.0
  9
$DIMGAP
 40
0.09
  9
$LUNITS
 70
     2
  9
$LUPREC
 70
     4
  9
$SKETCHINC
 40
0.1
  9
$FILLETRAD
 40
0.0
  9
$AUNITS
 70
     0
  9
$AUPREC
 70
     0
  9
$MENU
  1
.
  9
$ELEVATION
 40
0.0
  9
$PELEVATION
 40
0.0
  9
$THICKNESS
 40
0.0
  9
$LIMCHECK
 70
     0
  9
$BLIPMODE
 70
     0
  9
$CHAMFERA
 40
0.0
  9
$CHAMFERB
 40
0.0
  9
$SKPOLY
 70
     0
  9
$TDCREATE
 40
2458060.468368056230247
  9
$TDUPDATE
 40
2459761.4654398150742054
  9
$TDINDWG
 40
0.5315001157
  9
$TDUSRTIMER
 40
0.5315001157
  9
$USRTIMER
 70
     1
  9
$ANGBASE
 50
0.0
  9
$ANGDIR
 70
     0
  9
$PDMODE
 70
     0
  9
$PDSIZE
 40
0.3125
  9
$PLINEWID
 40
0.0
  9
$COORDS
 70
     1
  9
$SPLFRAME
 70
     0
  9
$SPLINETYPE
 70
     6
  9
$SPLINESEGS
 70
     8
  9
$ATTDIA
 70
     1
  9
$ATTREQ
 70
     1
  9
$HANDLING
 70
     1
  9
$HANDSEED
  5
11C69
  9
$SURFTAB1
 70
     6
  9
$SURFTAB2
 70
     6
  9
$SURFTYPE
 70
     6
  9
$SURFU
 70
     6
  9
$SURFV
 70
     6
  9
$UCSNAME
  2

  9
$UCSORG
 10
0.0
 20
0.0
 30
0.0
  9
$UCSXDIR
 10
1.0
 20
0.0
 30
0.0
  9
$UCSYDIR
 10
0.0
 20
1.0
 30
0.0
  9
$PUCSNAME
  2

  9
$PUCSORG
 10
0.0
 20
0.0
 30
0.0
  9
$PUCSXDIR
 10
1.0
 20
0.0
 30
0.0
  9
$PUCSYDIR
 10
0.0
 20
1.0
 30
0.0
  9
$USERI1
 70
     0
  9
$USERI2
 70
     0
  9
$USERI3
 70
     0
  9
$USERI4
 70
     0
  9
$USERI5
 70
     0
  9
$USERR1
 40
0.0
  9
$USERR2
 40
0.0
  9
$USERR3
 40
0.0
  9
$USERR4
 40
0.0
  9
$USERR5
 40
0.0
  9
$WORLDVIEW
 70
     1
  9
$SHADEDGE
 70
     3
  9
$SHADEDIF
 70
    70
  9
$TILEMODE
 70
     1
  9
$MAXACTVP
 70
    64
  9
$PLIMCHECK
 70
     0
  9
$PEXTMIN
 10
1.0000000000000000E+20
 20
1.0000000000000000E+20
 30
1.0000000000000000E+20
  9
$PEXTMAX
 10
-1.0000000000000000E+20
 20
-1.0000000000000000E+20
 30
-1.0000000000000000E+20
  9
$PLIMMIN
 10
0.0
 20
0.0
  9
$PLIMMAX
 10
12.0
 20
9.0
  9
$UNITMODE
 70
     0
  9
$VISRETAIN
 70
     1
  9
$PLINEGEN
 70
     0
  9
$PSLTSCALE
 70
     1
  0
ENDSEC
  0
SECTION
  2
TABLES
  0
TABLE
  2
VPORT
 70
     1
  0
VPORT
  2
*ACTIVE
 70
     0
 10
0.0
 20
0.0
 11
1.0
 21
1.0
 12
734.3322419964315486
 22
112.498003393364101
 13
0.0
 23
0.0
 14
1.0
 24
1.0
 15
0.0
 25
0.0
 16
0.0
 26
0.0
 36
17.1152628219792007
 17
3803.5440673828129547
 27
125.9952621967499056
 37
0.0
 40
0.0350188651814301
 41
2.0416666666666661
 42
50.0
 43
0.0
 44
0.0
 50
0.0
 51
0.0
 71
     0
 72
   100
 73
     1
 74
     1
 75
     0
 76
     0
 77
     0
 78
     0
  0
ENDTAB
  0
TABLE
  2
LTYPE
 70
     2
  0
LTYPE
  2
CONTINUOUS
 70
     0
  3
Solid line
 72
    65
 73
     0
 40
0.0
  0
LTYPE
  2
PHANTOM2
 70
     0
  3
___ _ _ ___ _ _ ___ _ _ ___ _ _
 72
    65
 73
     6
 40
1.25
 49
0.625
 49
-0.125
 49
0.125
 49
-0.125
 49
0.125
 49
-0.125
  0
ENDTAB
  0
TABLE
  2
LAYER
 70
     2
  0
LAYER
  2
0
 70
     0
 62
   255
  6
CONTINUOUS
  0
LAYER
  2
DEFPOINTS
 70
     0
 62
     7
  6
CONTINUOUS
  0
ENDTAB
  0
TABLE
  2
STYLE
 70
     1
  0
STYLE
  2
STANDARD
 70
     0
 40
0.0
 41
0.8
 50
0.0
 71
     0
 42
0.2
  3
txt
  4

  0
ENDTAB
  0
TABLE
  2
VIEW
 70
     0
  0
ENDTAB
  0
TABLE
  2
UCS
 70
     0
  0
ENDTAB
  0
TABLE
  2
APPID
 70
     9
  0
APPID
  2
ACAD
 70
     0
  0
APPID
  2
ACAD_MLEADERVER
 70
     0
  0
APPID
  2
ACAD_EXEMPT_FROM_CAD_STANDARDS
 70
     0
  0
APPID
  2
ACAD_NAV_VCDISPLAY
 70
     0
  0
APPID
  2
ACAECLAYERSTANDARD
 70
     0
  0
APPID
  2
ACCMTRANSPARENCY
 70
     0
  0
APPID
  2
ACAD_DSTYLE_DIMJAG
 70
     0
  0
APPID
  2
ACAD_DSTYLE_DIMTALN
 70
     0
  0
APPID
  2
ACDBATTR
 70
     0
  0
ENDTAB
  0
TABLE
  2
DIMSTYLE
 70
     1
  0
DIMSTYLE
  2
STANDARD
 70
     0
  3

  4

  5

  6

  7

 40
1.0
 41
0.1875
 42
0.0625
 43
0.38
 44
0.125
 45
0.0
 46
0.0
 47
0.01
 48
0.01
140
0.15625
141
0.09
142
0.0
143
25.3999999999999986
144
1.0
145
0.0
146
1.0
147
0.09
 71
     1
 72
     0
 73
     1
 74
     1
 75
     0
 76
     0
 77
     0
 78
     4
170
     0
171
     2
172
     0
173
     0
174
     0
175
     0
176
     0
177
     0
178
     0
  0
ENDTAB
  0
ENDSEC
  0
SECTION
  2
BLOCKS
  0
BLOCK
  8
0
  2
$MODEL_SPACE
 70
     0
 10
0.0
 20
0.0
 30
0.0
  3
$MODEL_SPACE
  1

  0
ENDBLK
  5
21
  8
0
  0
BLOCK
 67
     1
  8
0
  2
$PAPER_SPACE
 70
     0
 10
0.0
 20
0.0
 30
0.0
  3
$PAPER_SPACE
  1

  0
ENDBLK
  5
1D
 67
     1
  8
0
  0
ENDSEC
  0
SECTION
  2
ENTITIES
  0
ATTDEF
  5
3930
  8
DEFPOINTS
 10
4537.8612685005000458
 20
238.499176914277399
 30
0.0
 40
0.001
  1
K-25237T-R
  3

  2
MODELNUMBER
 70
     0
1001
ACDBATTR
1070
     0
1070
     1
  0
ATTDEF
  5
3931
  8
DEFPOINTS
 10
4537.8612685005000458
 20
238.4975102476107907
 30
0.0
 40
0.001
  1

  3

  2
TRADENAME
 70
     0
1001
ACDBATTR
1070
     0
1070
     1
  0
ATTDEF
  5
3932
  8
DEFPOINTS
 10
4537.8612685005000458
 20
238.4958435809440971
 30
0.0
 40
0.001
  1
MIRROR CABINET
  3

  2
PRODUCT
 70
     0
1001
ACDBATTR
1070
     0
1070
     1
  0
LINE
  5
1198D
  8
0
 10
4549.2598950907477047
 20
238.2039769065767985
 30
0.0
 11
4549.2598950907477047
 21
238.4244493474768092
 31
0.0
  0
LINE
  5
1198E
  8
0
 10
4549.177217925349396
 20
232.4141147018767981
 30
0.0
 11
4526.5630446969480545
 21
232.4141147018767981
 31
0.0
  0
LINE
  5
1198F
  8
0
 10
4548.8937053269482931
 20
238.4598824183769068
 30
0.0
 11
4548.9410454843482512
 21
238.4598824183769068
 31
0.0
  0
ARC
  5
11990
  8
0
 10
4548.9410454843482512
 20
238.4441824183768972
 30
0.0
 40
0.0157
 50
0.0
 51
90.0
  0
LINE
  5
11991
  8
0
 10
4543.7756431221478124
 20
238.4598824183754004
 30
0.0
 11
4543.7756431221478124
 21
238.4953154892768055
 31
0.0
  0
LINE
  5
11992
  8
0
 10
4549.2598950907477047
 20
238.4244493474768092
 30
0.0
 11
4548.9567454843481755
 21
238.4244493474768092
 31
0.0
  0
LINE
  5
11993
  8
0
 10
4548.8780053269483687
 20
238.4244493474768092
 30
0.0
 11
4548.5000525710483998
 21
238.4244493474768092
 31
0.0
  0
LINE
  5
11994
  8
0
 10
4548.5000525710483998
 20
233.3417721821768112
 30
0.0
 11
4548.5000525710483998
 21
238.4598824183767931
 31
0.0
  0
ARC
  5
11995
  8
0
 10
4548.5157525710483242
 20
238.2748910797768076
 30
0.0
 40
0.0157
 50
90.0
 51
180.0
  0
LINE
  5
11996
  8
0
 10
4549.2087139883478812
 20
238.3811422608767998
 30
0.0
 11
4549.1693439095470239
 21
238.4205123396768045
 31
0.0
  0
LINE
  5
11997
  8
0
 10
4549.1693439095470239
 20
238.4205123396768045
 30
0.0
 11
4549.12997383084803
 21
238.4205123396768045
 31
0.0
  0
LINE
  5
11998
  8
0
 10
4549.12997383084803
 20
238.4205123396768045
 30
0.0
 11
4549.0906037521481267
 21
238.3811422608767998
 31
0.0
  0
LINE
  5
11999
  8
0
 10
4549.0906037521481267
 20
238.3811422608767998
 30
0.0
 11
4549.0906037521481267
 21
233.6961028907768991
 31
0.0
  0
LINE
  5
1199A
  8
0
 10
4549.0906037521481267
 20
233.6961028907768991
 30
0.0
 11
4549.12997383084803
 21
233.6567328120767968
 31
0.0
  0
LINE
  5
1199B
  8
0
 10
4549.1693439095470239
 20
233.6567328120767968
 30
0.0
 11
4549.2087139883478812
 21
233.6961028907768991
 31
0.0
  0
LINE
  5
1199C
  8
0
 10
4549.2087139883478812
 20
233.6961028907768991
 30
0.0
 11
4549.2087139883478812
 21
238.3811422608767998
 31
0.0
  0
LINE
  5
1199D
  8
0
 10
4549.0866187127476223
 20
233.6567328120767968
 30
0.0
 11
4549.1930139883479569
 21
233.6567328120767968
 31
0.0
  0
ARC
  5
1199E
  8
0
 10
4549.1930139883479569
 20
233.6410328120769009
 30
0.0
 40
0.0157
 50
0.0
 51
90.0
  0
LINE
  5
1199F
  8
0
 10
4549.2087139883478812
 20
233.6410328120769009
 30
0.0
 11
4549.2087139883478812
 21
233.3574721821767923
 31
0.0
  0
LINE
  5
119A0
  8
0
 10
4549.1930139883479569
 20
233.3417721821768112
 30
0.0
 11
4548.5157525710483242
 21
233.3417721821768112
 31
0.0
  0
ARC
  5
119A1
  8
0
 10
4548.5157525710483242
 20
233.3574721821767923
 30
0.0
 40
0.0157
 50
180.0
 51
270.0
  0
ARC
  5
119A2
  8
0
 10
4549.1930139883479569
 20
233.3574721821767923
 30
0.0
 40
0.0157
 50
270.0
 51
0.0
  0
LINE
  5
119A3
  8
0
 10
4549.070918712747698
 20
233.6410328120769009
 30
0.0
 11
4549.070918712747698
 21
233.5818816309767953
 31
0.0
  0
ARC
  5
119A4
  8
0
 10
4549.0866187127476223
 20
233.6410328120769009
 30
0.0
 40
0.0157
 50
90.0
 51
180.0
  0
LINE
  5
119A5
  8
0
 10
4549.0945887914476771
 20
233.5661816309768142
 30
0.0
 11
4549.0866187127476223
 21
233.5661816309768142
 31
0.0
  0
ARC
  5
119A6
  8
0
 10
4549.0866187127476223
 20
233.5818816309767953
 30
0.0
 40
0.0157
 50
180.0
 51
270.0
  0
LINE
  5
119A7
  8
0
 10
4549.1102887914494204
 20
233.5504816309768046
 30
0.0
 11
4549.1102887914494204
 21
233.4558973789768004
 31
0.0
  0
ARC
  5
119A8
  8
0
 10
4549.0945887914476771
 20
233.5504816309768046
 30
0.0
 40
0.0157
 50
0.0
 51
90.0
  0
LINE
  5
119A9
  8
0
 10
4549.0945887914476771
 20
233.4401973789767908
 30
0.0
 11
4548.6141777678476501
 21
233.4401973789767908
 31
0.0
  0
ARC
  5
119AA
  8
0
 10
4549.0945887914476771
 20
233.4558973789768004
 30
0.0
 40
0.0157
 50
270.0
 51
0.0
  0
LINE
  5
119AB
  8
0
 10
4548.5984777678486353
 20
233.9859730350767961
 30
0.0
 11
4548.5984777678486353
 21
233.4558973789768004
 31
0.0
  0
ARC
  5
119AC
  8
0
 10
4548.6141777678476501
 20
233.4558973789768004
 30
0.0
 40
0.0157
 50
180.0
 51
270.0
  0
LINE
  5
119AD
  8
0
 10
4548.6102887914730672
 20
234.001221001010606
 30
0.0
 11
4548.6102887914476014
 21
234.1212997411768129
 31
0.0
  0
LINE
  5
119AE
  8
0
 10
4548.6102887914476014
 20
234.1370477726767945
 30
0.0
 11
4548.6102887914730672
 21
234.2571265128430866
 31
0.0
  0
LINE
  5
119AF
  8
0
 10
4548.5984777678486353
 20
234.2723744787768112
 30
0.0
 11
4548.5984777678486353
 21
234.6016147018767981
 31
0.0
  0
LINE
  5
119B0
  8
0
 10
4548.6102887914476014
 20
234.6016147018767981
 30
0.0
 11
4548.6102887914476014
 21
234.7905910797767888
 31
0.0
  0
LINE
  5
119B1
  8
0
 10
4548.6102887914476014
 20
234.8063391112767988
 30
0.0
 11
4548.6102887914476014
 21
234.9953154892768907
 31
0.0
  0
LINE
  5
119B2
  8
0
 10
4548.5984777678486353
 20
234.9953154892768907
 30
0.0
 11
4548.5984777678486353
 21
235.7576265783768008
 31
0.0
  0
ARC
  5
119B3
  8
0
 10
4548.6142257993478779
 20
233.9859730350767961
 30
0.0
 40
0.0157480315000017
 50
104.4775121858765061
 51
180.0
  0
LINE
  5
119B4
  8
0
 10
4548.6102887914476014
 20
234.1370477726767945
 30
0.0
 11
4548.6024147757480023
 21
234.1291737569767974
 31
0.0
  0
LINE
  5
119B5
  8
0
 10
4548.6024147757480023
 20
234.1291737569767974
 30
0.0
 11
4548.6102887914476014
 21
234.1212997411768129
 31
0.0
  0
ARC
  5
119B6
  8
0
 10
4548.6142257993478779
 20
234.2723744787768112
 30
0.0
 40
0.0157480314999888
 50
179.999999999947903
 51
255.5224878140712974
  0
LINE
  5
119B7
  8
0
 10
4548.6102887914476014
 20
234.6016147018767981
 30
0.0
 11
4548.5984777678486353
 21
234.6016147018767981
 31
0.0
  0
LINE
  5
119B8
  8
0
 10
4548.6102887914476014
 20
234.8063391112767988
 30
0.0
 11
4548.6024147757480023
 21
234.7984650955768018
 31
0.0
  0
LINE
  5
119B9
  8
0
 10
4548.6024147757480023
 20
234.7984650955768018
 30
0.0
 11
4548.6102887914476014
 21
234.7905910797767888
 31
0.0
  0
LINE
  5
119BA
  8
0
 10
4548.6102887914476014
 20
234.9953154892768907
 30
0.0
 11
4548.5984777678486353
 21
234.9953154892768907
 31
0.0
  0
ARC
  5
119BB
  8
0
 10
4548.6142257993478779
 20
235.7576265783768008
 30
0.0
 40
0.0157480315000135
 50
104.4775121859311042
 51
179.9999999999739089
  0
LINE
  5
119BC
  8
0
 10
4548.6102887914730672
 20
235.7728745443106106
 30
0.0
 11
4548.6102887914476014
 21
235.8929532844769028
 31
0.0
  0
LINE
  5
119BD
  8
0
 10
4548.6102887914476014
 20
235.8929532844769028
 30
0.0
 11
4548.6024147756979801
 21
235.9008273002268083
 31
0.0
  0
LINE
  5
119BE
  8
0
 10
4548.6024147756979801
 20
235.9008273002268083
 30
0.0
 11
4548.6102887914476014
 21
235.9087013159767992
 31
0.0
  0
LINE
  5
119BF
  8
0
 10
4548.6102887914476014
 20
235.9087013159767992
 30
0.0
 11
4548.6102887914476014
 21
236.0287800561767995
 31
0.0
  0
ARC
  5
119C0
  8
0
 10
4548.6142257993478779
 20
236.0440280220767875
 30
0.0
 40
0.0157480315000104
 50
180.0000000000260059
 51
255.5224878140716953
  0
LINE
  5
119C1
  8
0
 10
4548.5984777678486353
 20
236.0440280220767875
 30
0.0
 11
4548.5984777678468163
 21
237.2930596492768132
 31
0.0
  0
ARC
  5
119C2
  8
0
 10
4548.6142257993124076
 20
237.2930596492768132
 30
0.0
 40
0.015748031464554
 50
104.4775121778570934
 51
180.000000000032486
  0
LINE
  5
119C3
  8
0
 10
4548.6102887914476014
 20
237.3083076151768012
 30
0.0
 11
4548.6102887914476014
 21
237.4283863553768015
 31
0.0
  0
LINE
  5
119C4
  8
0
 10
4548.6102887914476014
 20
237.4283863553768015
 30
0.0
 11
4548.6024147756979801
 21
237.4362603711267923
 31
0.0
  0
LINE
  5
119C5
  8
0
 10
4548.6024147756979801
 20
237.4362603711267923
 30
0.0
 11
4548.6102887914476014
 21
237.4441343868768115
 31
0.0
  0
LINE
  5
119C6
  8
0
 10
4548.6102887914476014
 20
237.4441343868768115
 30
0.0
 11
4548.6102887914730672
 21
237.5642131270431037
 31
0.0
  0
ARC
  5
119C7
  8
0
 10
4548.6142257993478779
 20
237.5794610929767998
 30
0.0
 40
0.0157480315000083
 50
180.000000000052097
 51
255.5224878140708995
  0
LINE
  5
119C8
  8
0
 10
4548.5984777678486353
 20
237.5794610929767998
 30
0.0
 11
4548.5984777678486353
 21
237.8398036781767928
 31
0.0
  0
LINE
  5
119C9
  8
0
 10
4548.5984777678486353
 20
237.8398036781767928
 30
0.0
 11
4548.6102887914476014
 21
237.8398036781767928
 31
0.0
  0
LINE
  5
119CA
  8
0
 10
4548.6102887914476014
 20
237.8398036781767928
 30
0.0
 11
4548.6102887914476014
 21
237.9598824183767931
 31
0.0
  0
LINE
  5
119CB
  8
0
 10
4548.6102887914476014
 20
237.9598824183767931
 30
0.0
 11
4548.6024147756979801
 21
237.96775643402691
 31
0.0
  0
LINE
  5
119CC
  8
0
 10
4548.6024147756979801
 20
237.96775643402691
 30
0.0
 11
4548.6102887914476014
 21
237.9756304498768031
 31
0.0
  0
LINE
  5
119CD
  8
0
 10
4548.6102887914476014
 20
237.9756304498768031
 30
0.0
 11
4548.6102887914476014
 21
238.0957091899767875
 31
0.0
  0
LINE
  5
119CE
  8
0
 10
4548.6102887914476014
 20
238.0957091899767875
 30
0.0
 11
4548.5984777678486353
 21
238.0957091899767875
 31
0.0
  0
LINE
  5
119CF
  8
0
 10
4548.5984777678486353
 20
238.0957091899767875
 30
0.0
 11
4548.5984777678486353
 21
238.1567808435767972
 31
0.0
  0
ARC
  5
119D0
  8
0
 10
4548.6141777678476501
 20
238.1567808435767972
 30
0.0
 40
0.0157
 50
90.0
 51
180.0
  0
LINE
  5
119D1
  8
0
 10
4548.9410454843482512
 20
238.1724808435768068
 30
0.0
 11
4548.6141777678476501
 21
238.1724808435768068
 31
0.0
  0
ARC
  5
119D2
  8
0
 10
4548.9410454843482512
 20
238.188180843576788
 30
0.0
 40
0.0157
 50
270.0
 51
0.0
  0
LINE
  5
119D3
  8
0
 10
4548.9567454843481755
 20
238.188180843576788
 30
0.0
 11
4548.9567454843481755
 21
238.4441824183768972
 31
0.0
  0
LINE
  5
119D4
  8
0
 10
4548.8780053269483687
 20
238.4441824183768972
 30
0.0
 11
4548.8780053269483687
 21
238.286606040376796
 31
0.0
  0
ARC
  5
119D5
  8
0
 10
4548.8937053269482931
 20
238.4441824183768972
 30
0.0
 40
0.0157
 50
90.0
 51
180.0
  0
LINE
  5
119D6
  8
0
 10
4548.8623053269484444
 20
238.2709060403767864
 30
0.0
 11
4548.566981704848331
 21
238.2709060403767864
 31
0.0
  0
ARC
  5
119D7
  8
0
 10
4548.8623053269484444
 20
238.286606040376796
 30
0.0
 40
0.0157
 50
270.0
 51
0.0
  0
LINE
  5
119D8
  8
0
 10
4548.795328161548241
 20
238.4087013159767992
 30
0.0
 11
4548.5000525710483998
 21
238.4087013159767992
 31
0.0
  0
LINE
  5
119D9
  8
0
 10
4548.795328161548241
 20
238.2905910797767888
 30
0.0
 11
4548.5000525710483998
 21
238.2905910797767888
 31
0.0
  0
ARC
  5
119DA
  8
0
 10
4548.5512817048484067
 20
238.2748910797768076
 30
0.0
 40
0.0157
 50
0.0
 51
90.0
  0
LINE
  5
119DB
  8
0
 10
4548.795328161548241
 20
238.4087013159767992
 30
0.0
 11
4548.8346982402481444
 21
238.3693312372768105
 31
0.0
  0
LINE
  5
119DC
  8
0
 10
4548.8346982402481444
 20
238.3693312372768105
 30
0.0
 11
4548.8346982402481444
 21
238.3299611585767934
 31
0.0
  0
LINE
  5
119DD
  8
0
 10
4548.8346982402481444
 20
238.3299611585767934
 30
0.0
 11
4548.795328161548241
 21
238.2905910797767888
 31
0.0
  0
LINE
  5
119DE
  8
0
 10
4548.566981704848331
 20
238.2709060403767864
 30
0.0
 11
4548.566981704848331
 21
238.2748910797768076
 31
0.0
  0
LINE
  5
119DF
  8
0
 10
4549.2598950907477047
 20
238.2039769065767985
 30
0.0
 11
4549.2087139883478812
 21
238.2039769065767985
 31
0.0
  0
LINE
  5
119E0
  8
0
 10
4549.0906037521481267
 20
238.2039769065767985
 30
0.0
 11
4548.9567454843481755
 21
238.2039769065767985
 31
0.0
  0
LINE
  5
119E1
  8
0
 10
4548.6858810736475789
 20
237.9108193439768115
 30
0.0
 11
4548.6102887914476014
 21
237.9094998757767883
 31
0.0
  0
LINE
  5
119E2
  8
0
 10
4548.6858810736475789
 20
238.0246935242768132
 30
0.0
 11
4548.6102748568482639
 21
238.0260132356767997
 31
0.0
  0
LINE
  5
119E3
  8
0
 10
4548.6858810736475789
 20
238.0246935242768132
 30
0.0
 11
4548.7000525710491274
 21
238.0102737965767972
 31
0.0
  0
LINE
  5
119E4
  8
0
 10
4548.7000525710491274
 20
238.0102737965767972
 30
0.0
 11
4548.7000525710491274
 21
237.9252390716767991
 31
0.0
  0
LINE
  5
119E5
  8
0
 10
4548.7000525710491274
 20
237.9252390716767991
 30
0.0
 11
4548.6858810736475789
 21
237.9108193439768115
 31
0.0
  0
LINE
  5
119E6
  8
0
 10
4548.688061679110433
 20
237.9708529402768136
 30
0.0
 11
4548.688061679110433
 21
238.0224747229677007
 31
0.0
  0
LINE
  5
119E7
  8
0
 10
4548.6880616791486318
 20
237.9646599278796941
 30
0.0
 11
4548.6880616791486318
 21
237.9130381453246059
 31
0.0
  0
LINE
  5
119E8
  8
0
 10
4548.6880616791486318
 20
237.9646599278796941
 30
0.0
 11
4548.6055112819449278
 21
237.9646599278796941
 31
0.0
  0
LINE
  5
119E9
  8
0
 10
4548.6880616791486318
 20
237.9708529403170871
 30
0.0
 11
4548.6055112819485657
 21
237.9708529403170871
 31
0.0
  0
LINE
  5
119EA
  8
0
 10
4548.6880616791486318
 20
237.9708529403170871
 30
0.0
 11
4548.6864491684627865
 21
237.9691706476826027
 31
0.0
  0
LINE
  5
119EB
  8
0
 10
4548.6880616791486318
 20
237.9646599278796941
 30
0.0
 11
4548.6864491684646055
 21
237.9663422205134111
 31
0.0
  0
ARC
  5
119EC
  8
0
 10
4548.6879245826294209
 20
237.9677564341035065
 30
0.0
 40
0.00204373360245
 50
136.213309353742801
 51
223.7866912960604964
  0
LINE
  5
119ED
  8
0
 10
4548.9921785552478468
 20
237.2394099773767948
 30
0.0
 11
4549.0512336733481789
 21
237.2394099773767948
 31
0.0
  0
LINE
  5
119EE
  8
0
 10
4549.0512336733481789
 20
237.2394099773767948
 30
0.0
 11
4549.0512336733481789
 21
233.4598824183767931
 31
0.0
  0
LINE
  5
119EF
  8
0
 10
4548.9921785552478468
 20
233.4598824183767931
 30
0.0
 11
4549.0512336733481789
 21
233.4598824183767931
 31
0.0
  0
LINE
  5
119F0
  8
0
 10
4548.9921785552478468
 20
233.4598824183767931
 30
0.0
 11
4548.9921785552478468
 21
237.2394099773767948
 31
0.0
  0
LINE
  5
119F1
  8
0
 10
4548.9921785552478468
 20
234.0504335994768894
 30
0.0
 11
4548.6102887914476014
 21
234.0504335994768894
 31
0.0
  0
LINE
  5
119F2
  8
0
 10
4548.9921785552478468
 20
236.6488587962768122
 30
0.0
 11
4548.5984777678486353
 21
236.6488587962768122
 31
0.0
  0
LINE
  5
119F3
  8
0
 10
4548.7480840670486941
 20
236.0667752555768004
 30
0.0
 11
4548.7480840670486941
 21
235.7348793448711035
 31
0.0
  0
ARC
  5
119F4
  8
0
 10
4548.4075519751986576
 20
236.7536735805375088
 30
0.0
 40
1.0741991436442071
 50
282.5793008739642005
 51
288.4822108333930828
  0
ARC
  5
119F5
  8
0
 10
4548.660869589869435
 20
235.6184694635520032
 30
0.0
 40
0.0889251838128015
 50
102.5793008739642005
 51
120.0879812312188051
  0
ARC
  5
119F6
  8
0
 10
4548.6480466254170096
 20
235.6406009365130103
 30
0.0
 40
0.0633472536238435
 50
120.0879812312179951
 51
134.336013883159012
  0
ARC
  5
119F7
  8
0
 10
4548.6168709754283555
 20
235.6725076647568073
 30
0.0
 40
0.0187382807661463
 50
134.3360138831532993
 51
168.9872164449085972
  0
ARC
  5
119F8
  8
0
 10
4548.4075519751986576
 20
235.0479810199103952
 30
0.0
 40
1.0741991436442071
 50
71.5177891666068746
 51
77.4206991260357995
  0
ARC
  5
119F9
  8
0
 10
4548.660869589869435
 20
236.1831851368959008
 30
0.0
 40
0.0889251838128015
 50
239.9120187687811949
 51
257.4206991260357995
  0
ARC
  5
119FA
  8
0
 10
4548.6480466254170096
 20
236.1610536639348936
 30
0.0
 40
0.0633472536238435
 50
225.663986116840988
 51
239.9120187687819907
  0
ARC
  5
119FB
  8
0
 10
4548.6168709754283555
 20
236.1291469356910113
 30
0.0
 40
0.0187382807661463
 50
191.0127835550914028
 51
225.6639861168467007
  0
LINE
  5
119FC
  8
0
 10
4548.5984777678486353
 20
235.6649987618768023
 30
0.0
 11
4548.8793208071483605
 21
235.6578873480767982
 31
0.0
  0
LINE
  5
119FD
  8
0
 10
4548.8793208071483605
 20
235.6578873480767982
 30
0.0
 11
4548.8562854743831849
 21
234.7481789478304961
 31
0.0
  0
ARC
  5
119FE
  8
0
 10
4548.516394423748352
 20
234.7567855556767995
 30
0.0
 40
0.3400000000000054
 50
283.9759928146153243
 51
358.5494853406100901
  0
ARC
  5
119FF
  8
0
 10
4548.516394423748352
 20
234.7567855556767995
 30
0.0
 40
0.2300000000000045
 50
290.9138004478120934
 51
65.9040609206081172
  0
LINE
  5
11A00
  8
0
 10
4548.6415025153482929
 20
234.9496284443767991
 30
0.0
 11
4548.6415025153482929
 21
234.5637882359642958
 31
0.0
  0
LINE
  5
11A01
  8
0
 10
4548.6415025153482929
 20
234.4406400742664118
 30
0.0
 11
4548.6415025153482929
 21
234.0504335994768894
 31
0.0
  0
LINE
  5
11A02
  8
0
 10
4548.5000525710483998
 20
233.3417721821768112
 30
0.0
 11
4526.5472486339476745
 21
233.3417721821768112
 31
0.0
  0
ARC
  5
11A03
  8
0
 10
4526.5472486339476745
 20
233.3574721821767923
 30
0.0
 40
0.0157
 50
180.0
 51
270.0
  0
LINE
  5
11A04
  8
0
 10
4548.4057367998493646
 20
233.3417721821768112
 30
0.0
 11
4548.4052394698492208
 21
233.3221316888767944
 31
0.0
  0
LINE
  5
11A05
  8
0
 10
4548.4052394698492208
 20
233.3221316888767944
 30
0.0
 11
4548.2871670808472118
 21
233.3251214785377954
 31
0.0
  0
LINE
  5
11A06
  8
0
 10
4548.2871670808472118
 20
233.3251214785377954
 30
0.0
 11
4548.2850341071480216
 21
233.2408863553768015
 31
0.0
  0
LINE
  5
11A07
  8
0
 10
4548.2063489320480585
 20
233.3417721821768112
 30
0.0
 11
4548.2201472468486827
 21
233.2408863553768015
 31
0.0
  0
ARC
  5
11A08
  8
0
 10
4547.6634383977479956
 20
233.3117524970768102
 30
0.0
 40
0.1082677165000289
 50
0.0000000181473799
 51
16.0958185503973716
  0
LINE
  5
11A09
  8
0
 10
4547.7717061142484454
 20
233.3117524971110868
 30
0.0
 11
4547.978399027647356
 21
233.2408863553768015
 31
0.0
  0
LINE
  5
11A0A
  8
0
 10
4548.3320998150484229
 20
233.2408863553768015
 30
0.0
 11
4547.2113124135476028
 21
233.2408863553768015
 31
0.0
  0
ARC
  5
11A0B
  8
0
 10
4548.3320998150484229
 20
233.2008863553768947
 30
0.0
 40
0.04
 50
0.0000000000032569
 51
90.0
  0
LINE
  5
11A0C
  8
0
 10
4548.3720998150483865
 20
233.1542721821768112
 30
0.0
 11
4548.3720998150483865
 21
233.2008863553768947
 31
0.0
  0
LINE
  5
11A0D
  8
0
 10
4548.9911448739476327
 20
233.1542721821768112
 30
0.0
 11
4548.9911448739476327
 21
233.1778942293767898
 31
0.0
  0
LINE
  5
11A0E
  8
0
 10
4548.9911448739476327
 20
233.1778942293767898
 30
0.0
 11
4548.9037683023479985
 21
233.1778942293767898
 31
0.0
  0
LINE
  5
11A0F
  8
0
 10
4548.9017499362480521
 20
233.1778942293767898
 30
0.0
 11
4548.3720998150483865
 21
233.1778942293767898
 31
0.0
  0
LINE
  5
11A10
  8
0
 10
4548.9037683023479985
 20
233.1778942293767898
 30
0.0
 11
4548.9037683023479985
 21
233.1542721821768112
 31
0.0
  0
LINE
  5
11A11
  8
0
 10
4548.9017499362480521
 20
233.1778942293767898
 30
0.0
 11
4548.9017499362480521
 21
233.1542721821768112
 31
0.0
  0
LINE
  5
11A12
  8
0
 10
4548.9375675426472299
 20
233.1778942293767898
 30
0.0
 11
4548.9375675426472299
 21
233.1542721821768112
 31
0.0
  0
ARC
  5
11A13
  8
0
 10
4547.6634383977479956
 20
233.3117524970768102
 30
0.0
 40
0.0767716534999908
 50
341.3685823176404028
 51
23.0205556752994802
  0
ARC
  5
11A14
  8
0
 10
4547.6634383977479956
 20
233.3117524970768102
 30
0.0
 40
0.0767716535000216
 50
292.6198649331292927
 51
341.3685823176434724
  0
ARC
  5
11A15
  8
0
 10
4547.6634383977479956
 20
233.3117524970768102
 30
0.0
 40
0.0767716535000131
 50
182.0978884859441109
 51
247.3801350668707073
  0
ARC
  5
11A16
  8
0
 10
4547.6634383977479956
 20
233.3117524970768102
 30
0.0
 40
0.0767716534999754
 50
156.980400189287991
 51
182.0978884859441109
  0
ARC
  5
11A17
  8
0
 10
4547.6515100280394108
 20
233.234793879522897
 30
0.0
 40
0.0995951558827823
 50
31.7343128810551214
 51
55.3574768669614912
  0
ARC
  5
11A18
  8
0
 10
4547.6523512919256973
 20
233.2360114267112863
 30
0.0
 40
0.0981152416676773
 50
55.3574768669614912
 51
131.9984928201652963
  0
ARC
  5
11A19
  8
0
 10
4547.6631766324599084
 20
233.3119739380738054
 30
0.0
 40
0.0593406576546064
 50
286.2497499909616181
 51
353.2909810457014146
  0
ARC
  5
11A1A
  8
0
 10
4547.663310233955599
 20
233.3115155646623009
 30
0.0
 40
0.0588632107527558
 50
179.7693760862570969
 51
286.2497499909616181
  0
ARC
  5
11A1B
  8
0
 10
4547.6713156694941063
 20
233.3114833414364
 30
0.0
 40
0.0668687111422367
 50
170.9533900772314041
 51
179.7693760862539136
  0
LINE
  5
11A1C
  8
0
 10
4547.7146328673470634
 20
233.3117524970768102
 30
0.0
 11
4547.6043832796476636
 21
233.3117524970768102
 31
0.0
  0
ARC
  5
11A1D
  8
0
 10
4547.6634383977479956
 20
233.3117524970768102
 30
0.0
 40
0.1082677165000553
 50
163.8961859924947078
 51
179.9999999999934914
  0
LINE
  5
11A1E
  8
0
 10
4547.5551706812475459
 20
233.3117524970768102
 30
0.0
 11
4547.3484777678477258
 21
233.2408863553768015
 31
0.0
  0
LINE
  5
11A1F
  8
0
 10
4547.304823253948598
 20
233.2408863553768015
 30
0.0
 11
4547.1607871966480161
 21
233.3417721821768112
 31
0.0
  0
LINE
  5
11A20
  8
0
 10
4547.1713124135476392
 20
233.1542721821768112
 30
0.0
 11
4547.1713124135476392
 21
233.2008863553768947
 31
0.0
  0
ARC
  5
11A21
  8
0
 10
4547.2113124135476028
 20
233.2008863553768947
 30
0.0
 40
0.04
 50
90.0
 51
180.0
  0
LINE
  5
11A22
  8
0
 10
4549.2087139883478812
 20
233.1542721821768112
 30
0.0
 11
4526.5315486339486597
 21
233.1542721821768112
 31
0.0
  0
LINE
  5
11A23
  8
0
 10
4549.2087139883478812
 20
233.1542721821768112
 30
0.0
 11
4549.2087139883478812
 21
232.4163238586768045
 31
0.0
  0
LINE
  5
11A24
  8
0
 10
4549.2087139883478812
 20
232.4163238586768045
 30
0.0
 11
4526.5315486339486597
 21
232.4163238586768045
 31
0.0
  0
LINE
  5
11A25
  8
0
 10
4549.1794270821483224
 20
232.4163238586768045
 30
0.0
 11
4549.177217925349396
 21
232.4141147018767981
 31
0.0
  0
ARC
  5
11A26
  8
0
 10
4548.5520998871079428
 20
229.2399144629854106
 30
0.0
 40
3.3007534887320529
 50
81.8079053030746479
 51
88.2837778369285218
  0
ARC
  5
11A27
  8
0
 10
4548.9521634570319293
 20
232.0188792815588101
 30
0.0
 40
0.4931394976626466
 50
58.6516975061750188
 51
81.8079053030746479
  0
ARC
  5
11A28
  8
0
 10
4549.1179920474669416
 20
235.5874885325384867
 30
0.0
 40
3.0888600191210411
 50
256.9650203919305795
 51
259.2656476202059253
  0
ARC
  5
11A29
  8
0
 10
4548.7031037443593959
 20
233.3989474290031012
 30
0.0
 40
0.8613402176559714
 50
259.2656476202059253
 51
266.5289756298694215
  0
LINE
  5
11A2A
  8
0
 10
4548.4213124135476392
 20
232.578220564176803
 30
0.0
 11
4548.4213124135476392
 21
232.6413492933768055
 31
0.0
  0
ARC
  5
11A2B
  8
0
 10
4548.944802845250706
 20
230.4447845316431938
 30
0.0
 40
2.2580830331443091
 50
99.4193729089591329
 51
103.4048104866928952
  0
ARC
  5
11A2C
  8
0
 10
4548.6797335469573227
 20
232.0425853535286933
 30
0.0
 40
0.6384444316914403
 50
91.7867151984562639
 51
99.4193729089591329
  0
ARC
  5
11A2D
  8
0
 10
4548.6400268387069445
 20
261.0729906828076992
 30
0.0
 40
28.39227820317031
 50
270.0399578148279147
 51
271.0926015273789744
  0
ARC
  5
11A2E
  8
0
 10
4549.1608768856149254
 20
232.7241045992157069
 30
0.0
 40
0.0434000278098915
 50
298.252147871116108
 51
355.6110333401060188
  0
ARC
  5
11A2F
  8
0
 10
4548.8455468543597817
 20
232.780113338354596
 30
0.0
 40
0.3634776619307694
 50
350.6056440496641926
 51
357.6314637587408924
  0
LINE
  5
11A30
  8
0
 10
4549.181420405489007
 20
232.6858746867767991
 30
0.0
 11
4526.5315486339486597
 21
232.6858746867767991
 31
0.0
  0
LINE
  5
11A31
  8
0
 10
4548.6509549733573294
 20
232.539187301854497
 30
0.0
 11
4527.0893076489392115
 21
232.539187301854497
 31
0.0
  0
ARC
  5
11A32
  8
0
 10
4527.2267778406303478
 20
228.7203685854985906
 30
0.0
 40
3.8212922476557258
 50
92.0616485749796567
 51
97.015672378822714
  0
ARC
  5
11A33
  8
0
 10
4526.8620667207569568
 20
231.7706101216745935
 30
0.0
 40
0.7494170895891934
 50
97.8244733213844739
 51
116.1341873227636938
  0
LINE
  5
11A34
  8
0
 10
4527.3189502087479923
 20
232.641349293476793
 30
0.0
 11
4527.3189502087479923
 21
232.578220564176803
 31
0.0
  0
ARC
  5
11A35
  8
0
 10
4526.9455417142407896
 20
234.0800379538138998
 30
0.0
 40
1.5475430125156791
 50
275.3304339389817983
 51
283.9627599468240078
  0
ARC
  5
11A36
  8
0
 10
4526.7764391827313375
 20
230.3646165427834944
 30
0.0
 40
2.3404764965882499
 50
76.5972190740510115
 51
82.6524729797358333
  0
LINE
  5
11A37
  8
0
 10
4548.4213124135476392
 20
232.6413492933768055
 30
0.0
 11
4527.3189502084278502
 21
232.641349293476793
 31
0.0
  0
LINE
  5
11A38
  8
0
 10
4527.3189502087479923
 20
232.578220564176803
 30
0.0
 11
4548.4213124135476392
 21
232.5782205641791904
 31
0.0
  0
LINE
  5
11A39
  8
0
 10
4526.5630446969480545
 20
232.4141147018767981
 30
0.0
 11
4526.5608355401482186
 21
232.4163238586768045
 31
0.0
  0
LINE
  5
11A3A
  8
0
 10
4526.5315486339486597
 20
232.4163238586768045
 30
0.0
 11
4526.5315486339486597
 21
233.1542721821768112
 31
0.0
  0
LINE
  5
11A3B
  8
0
 10
4544.9567454843481755
 20
238.4461028907768991
 30
0.0
 11
4543.460682492248452
 21
238.4461028907768991
 31
0.0
  0
LINE
  5
11A3C
  8
0
 10
4543.460682492248452
 20
238.4461028907768991
 30
0.0
 11
4543.460682492248452
 21
237.9180005724768137
 31
0.0
  0
LINE
  5
11A3D
  8
0
 10
4544.9567454843481755
 20
238.4461028907768991
 30
0.0
 11
4544.9567454843481755
 21
237.9180005724768137
 31
0.0
  0
LINE
  5
11A3E
  8
0
 10
4548.5000525710483998
 20
237.9180005724768137
 30
0.0
 11
4538.6575328859480578
 21
237.9180005724768137
 31
0.0
  0
LINE
  5
11A3F
  8
0
 10
4544.9567454843481755
 20
238.2689375364768125
 30
0.0
 11
4543.460682492248452
 21
238.2689375364768125
 31
0.0
  0
LINE
  5
11A40
  8
0
 10
4544.4019083843477347
 20
238.2689375364768125
 30
0.0
 11
4544.4019083843477347
 21
238.3398036781767928
 31
0.0
  0
LINE
  5
11A41
  8
0
 10
4544.4019083843477347
 20
238.3398036781767928
 30
0.0
 11
4544.0155195923480278
 21
238.3398036781767928
 31
0.0
  0
LINE
  5
11A42
  8
0
 10
4544.0155195923480278
 20
238.3398036781767928
 30
0.0
 11
4544.0155195923480278
 21
238.2689375364768125
 31
0.0
  0
LINE
  5
11A43
  8
0
 10
4544.9567454843481755
 20
238.2141685438768093
 30
0.0
 11
4543.460682492248452
 21
238.2141685438768093
 31
0.0
  0
LINE
  5
11A44
  8
0
 10
4544.9567454843481755
 20
237.9457926592768047
 30
0.0
 11
4543.460682492248452
 21
237.9457926592768047
 31
0.0
  0
LINE
  5
11A45
  8
0
 10
4544.9567454843481755
 20
237.9342918671767961
 30
0.0
 11
4543.460682492248452
 21
237.9342918671767961
 31
0.0
  0
LINE
  5
11A46
  8
0
 10
4548.5000525710483998
 20
238.2630320246767894
 30
0.0
 11
4544.9567454843481755
 21
238.2630320246767894
 31
0.0
  0
LINE
  5
11A47
  8
0
 10
4538.6575328859480578
 20
237.862045206576795
 30
0.0
 11
4548.5000525710483998
 21
237.862045206576795
 31
0.0
  0
LINE
  5
11A48
  8
0
 10
4538.6575328859480578
 20
237.8344202591767953
 30
0.0
 11
4548.5000525710483998
 21
237.8344202591767953
 31
0.0
  0
LINE
  5
11A49
  8
0
 10
4538.6575328859480578
 20
237.8344202591767953
 30
0.0
 11
4538.6575328859480578
 21
237.9180005724768137
 31
0.0
  0
LINE
  5
11A4A
  8
0
 10
4548.5000525710483998
 20
238.0734676616768013
 30
0.0
 11
4544.9567454843481755
 21
238.0734676616768013
 31
0.0
  0
LINE
  5
11A4B
  8
0
 10
4548.5000525710483998
 20
238.101092609076801
 30
0.0
 11
4544.9567454843481755
 21
238.101092609076801
 31
0.0
  0
LINE
  5
11A4C
  8
0
 10
4543.460682492248452
 20
238.101092609076801
 30
0.0
 11
4538.6575328859480578
 21
238.101092609076801
 31
0.0
  0
LINE
  5
11A4D
  8
0
 10
4543.460682492248452
 20
238.0734676616768013
 30
0.0
 11
4538.6575328859480578
 21
238.0734676616768013
 31
0.0
  0
LINE
  5
11A4E
  8
0
 10
4538.6575328859480578
 20
238.0175122958767986
 30
0.0
 11
4538.6575328859480578
 21
238.101092609076801
 31
0.0
  0
LINE
  5
11A4F
  8
0
 10
4538.6575328859480578
 20
238.017512295676795
 30
0.0
 11
4543.460682492248452
 21
238.017512295676795
 31
0.0
  0
LINE
  5
11A50
  8
0
 10
4548.5000525710483998
 20
236.0341634752768982
 30
0.0
 11
4542.7913911536479645
 21
236.0341634752768982
 31
0.0
  0
LINE
  5
11A51
  8
0
 10
4542.7913911536479645
 20
236.0341634752768982
 30
0.0
 11
4542.7913911536479645
 21
235.9512339965768035
 31
0.0
  0
LINE
  5
11A52
  8
0
 10
4542.7913911536479645
 20
235.9512339965768035
 30
0.0
 11
4548.5000525710483998
 21
235.9512339965768035
 31
0.0
  0
LINE
  5
11A53
  8
0
 10
4548.5000525710483998
 20
235.8504206039768007
 30
0.0
 11
4542.7913911536479645
 21
235.8504206037767972
 31
0.0
  0
LINE
  5
11A54
  8
0
 10
4542.7913911536479645
 20
235.8504206037767972
 30
0.0
 11
4542.7913911536479645
 21
235.7674911252767913
 31
0.0
  0
LINE
  5
11A55
  8
0
 10
4548.5000525710483998
 20
235.7674911252767913
 30
0.0
 11
4542.7913911536479645
 21
235.7674911252767913
 31
0.0
  0
LINE
  5
11A56
  8
0
 10
4527.2402100512481411
 20
238.4598824183767931
 30
0.0
 11
4548.5000525710483998
 21
238.4598824183705119
 31
0.0
  0
LINE
  5
11A57
  8
0
 10
4531.9646195001487285
 20
238.4598824183754004
 30
0.0
 11
4531.9646195001487285
 21
238.4953154892768055
 31
0.0
  0
LINE
  5
11A58
  8
0
 10
4531.9646195001487285
 20
238.4953154892768055
 30
0.0
 11
4543.7756431221478124
 21
238.4953154892768055
 31
0.0
  0
LINE
  5
11A59
  8
0
 10
4527.2402100512481411
 20
233.3417721821768112
 30
0.0
 11
4527.2402100512481411
 21
238.4598824183767931
 31
0.0
  0
LINE
  5
11A5A
  8
0
 10
4530.7835171379483654
 20
238.4461028907768991
 30
0.0
 11
4532.2795801300471794
 21
238.4461028907768991
 31
0.0
  0
LINE
  5
11A5B
  8
0
 10
4532.2795801300471794
 20
238.4461028907768991
 30
0.0
 11
4532.2795801300471794
 21
237.9180005724768137
 31
0.0
  0
LINE
  5
11A5C
  8
0
 10
4530.7835171379483654
 20
238.4461028907768991
 30
0.0
 11
4530.7835171379483654
 21
237.9180005724768137
 31
0.0
  0
LINE
  5
11A5D
  8
0
 10
4527.2402100512481411
 20
237.9180005724768137
 30
0.0
 11
4537.0827297363475736
 21
237.9180005724768137
 31
0.0
  0
LINE
  5
11A5E
  8
0
 10
4530.7835171379483654
 20
238.2689375364768125
 30
0.0
 11
4532.2795801300471794
 21
238.2689375364768125
 31
0.0
  0
LINE
  5
11A5F
  8
0
 10
4531.3383542379478968
 20
238.2689375364768125
 30
0.0
 11
4531.3383542379478968
 21
238.3398036781767928
 31
0.0
  0
LINE
  5
11A60
  8
0
 10
4531.3383542379478968
 20
238.3398036781767928
 30
0.0
 11
4531.7247430299494226
 21
238.3398036781767928
 31
0.0
  0
LINE
  5
11A61
  8
0
 10
4531.7247430299494226
 20
238.3398036781767928
 30
0.0
 11
4531.7247430299494226
 21
238.2689375364768125
 31
0.0
  0
LINE
  5
11A62
  8
0
 10
4530.7835171379483654
 20
238.2141685438768093
 30
0.0
 11
4532.2795801300471794
 21
238.2141685438768093
 31
0.0
  0
LINE
  5
11A63
  8
0
 10
4530.7835171379483654
 20
237.9457926592768047
 30
0.0
 11
4532.2795801300471794
 21
237.9457926592768047
 31
0.0
  0
LINE
  5
11A64
  8
0
 10
4530.7835171379483654
 20
237.9342918671767961
 30
0.0
 11
4532.2795801300471794
 21
237.9342918671767961
 31
0.0
  0
LINE
  5
11A65
  8
0
 10
4527.2402100512481411
 20
238.2630320246767894
 30
0.0
 11
4530.7835171379483654
 21
238.2630320246767894
 31
0.0
  0
LINE
  5
11A66
  8
0
 10
4537.0827297363475736
 20
237.862045206576795
 30
0.0
 11
4527.2402100512481411
 21
237.862045206576795
 31
0.0
  0
LINE
  5
11A67
  8
0
 10
4537.0827297363475736
 20
237.8344202591767953
 30
0.0
 11
4527.2402100512481411
 21
237.8344202591767953
 31
0.0
  0
LINE
  5
11A68
  8
0
 10
4537.0827297363475736
 20
237.8344202591767953
 30
0.0
 11
4537.0827297363475736
 21
237.9180005724768137
 31
0.0
  0
LINE
  5
11A69
  8
0
 10
4527.2402100512481411
 20
238.0734676616768013
 30
0.0
 11
4530.7835171379483654
 21
238.0734676616768013
 31
0.0
  0
LINE
  5
11A6A
  8
0
 10
4527.2402100512481411
 20
238.101092609076801
 30
0.0
 11
4530.7835171379483654
 21
238.101092609076801
 31
0.0
  0
LINE
  5
11A6B
  8
0
 10
4532.2795801300471794
 20
238.101092609076801
 30
0.0
 11
4537.0827297363475736
 21
238.101092609076801
 31
0.0
  0
LINE
  5
11A6C
  8
0
 10
4532.2795801300471794
 20
238.0734676616768013
 30
0.0
 11
4537.0827297363475736
 21
238.0734676616768013
 31
0.0
  0
LINE
  5
11A6D
  8
0
 10
4537.0827297363475736
 20
238.0175122958767986
 30
0.0
 11
4537.0827297363475736
 21
238.101092609076801
 31
0.0
  0
LINE
  5
11A6E
  8
0
 10
4537.0827297363475736
 20
238.017512295676795
 30
0.0
 11
4532.2795801300471794
 21
238.017512295676795
 31
0.0
  0
LINE
  5
11A6F
  8
0
 10
4537.0827297363475736
 20
238.019986745776805
 30
0.0
 11
4538.6575328859480578
 21
238.019986745776805
 31
0.0
  0
LINE
  5
11A70
  8
0
 10
4537.0827297363475736
 20
237.9155261224767912
 30
0.0
 11
4538.6575328859480578
 21
237.9155261224767912
 31
0.0
  0
LINE
  5
11A71
  8
0
 10
4532.2795801300471794
 20
238.2630320246767894
 30
0.0
 11
4543.460682492248452
 21
238.2630320246767894
 31
0.0
  0
LINE
  5
11A72
  8
0
 10
4527.2402100512481411
 20
236.0341634752768982
 30
0.0
 11
4532.9488714686476669
 21
236.0341634752768982
 31
0.0
  0
LINE
  5
11A73
  8
0
 10
4532.9488714686476669
 20
236.0341634752768982
 30
0.0
 11
4532.9488714686476669
 21
235.9512339965768035
 31
0.0
  0
LINE
  5
11A74
  8
0
 10
4532.9488714686476669
 20
235.9512339965768035
 30
0.0
 11
4527.2402100512481411
 21
235.9512339965768035
 31
0.0
  0
LINE
  5
11A75
  8
0
 10
4527.2402100512481411
 20
235.8504206039768007
 30
0.0
 11
4532.9488714686476669
 21
235.8504206037767972
 31
0.0
  0
LINE
  5
11A76
  8
0
 10
4532.9488714686476669
 20
235.8504206037767972
 30
0.0
 11
4532.9488714686476669
 21
235.7674911252767913
 31
0.0
  0
LINE
  5
11A77
  8
0
 10
4527.2402100512481411
 20
235.7674911252767913
 30
0.0
 11
4532.9488714686476669
 21
235.7674911252767913
 31
0.0
  0
LINE
  5
11A78
  8
0
 10
4532.9488714686476669
 20
235.953057611876801
 30
0.0
 11
4542.7913911536479645
 21
235.953057611876801
 31
0.0
  0
LINE
  5
11A79
  8
0
 10
4532.9488714686476669
 20
235.8485969885767872
 30
0.0
 11
4542.7913911536479645
 21
235.8485969885767872
 31
0.0
  0
LINE
  5
11A7A
  8
0
 10
4527.2402100512481411
 20
234.2625099319768083
 30
0.0
 11
4548.5000525710483998
 21
234.2625099319768083
 31
0.0
  0
LINE
  5
11A7B
  8
0
 10
4527.2402100512481411
 20
234.2357527640768069
 30
0.0
 11
4548.5000525710483998
 21
234.2357527640768069
 31
0.0
  0
LINE
  5
11A7C
  8
0
 10
4527.2402100512481411
 20
233.9958375819767866
 30
0.0
 11
4548.5000525710483998
 21
233.9958375819767866
 31
0.0
  0
LINE
  5
11A7D
  8
0
 10
4527.2402100512481411
 20
234.0225947497768004
 30
0.0
 11
4548.5000525710483998
 21
234.0225947497768004
 31
0.0
  0
LINE
  5
11A7E
  8
0
 10
4527.2402100512481411
 20
233.6567328120767968
 30
0.0
 11
4548.5000525710483998
 21
233.6567328120767968
 31
0.0
  0
ARC
  5
11A7F
  8
0
 10
4543.7760108924321685
 20
233.3730943443995898
 30
0.0
 40
0.0811070821450116
 50
272.5481153978947191
 51
337.286099908977917
  0
LINE
  5
11A80
  8
0
 10
4543.7796167790484105
 20
233.2920674577767954
 30
0.0
 11
4542.7913911536479645
 21
233.2920674577767954
 31
0.0
  0
LINE
  5
11A81
  8
0
 10
4542.7913911536479645
 20
233.3417721821768112
 30
0.0
 11
4542.7913911536479645
 21
233.1936422608767998
 31
0.0
  0
LINE
  5
11A82
  8
0
 10
4542.8307612324479123
 20
233.1936422608767998
 30
0.0
 11
4531.8071391851481167
 21
233.1936422608767998
 31
0.0
  0
LINE
  5
11A83
  8
0
 10
4531.8071391851481167
 20
233.1936422608767998
 30
0.0
 11
4531.8071391851481167
 21
233.1739572214767975
 31
0.0
  0
LINE
  5
11A84
  8
0
 10
4531.8071391851481167
 20
233.1739572214767975
 30
0.0
 11
4542.8307612324479123
 21
233.1739572214767975
 31
0.0
  0
LINE
  5
11A85
  8
0
 10
4542.8307612324479123
 20
233.1739572214767975
 30
0.0
 11
4542.8307612324479123
 21
233.1936422608767998
 31
0.0
  0
LINE
  5
11A86
  8
0
 10
4531.0373088275482587
 20
233.3417721821768112
 30
0.0
 11
4531.0371085413753462
 21
233.3037229944802959
 31
0.0
  0
ARC
  5
11A87
  8
0
 10
4531.0222914365731413
 20
233.3038009898696998
 30
0.0
 40
0.0148173100800215
 50
269.3015950382300048
 51
359.698404956979175
  0
LINE
  5
11A88
  8
0
 10
4531.0221108259465836
 20
233.2889847805768113
 30
0.0
 11
4527.7110335552479228
 21
233.2889847805768113
 31
0.0
  0
ARC
  5
11A89
  8
0
 10
4527.711033555299764
 20
233.2289847803818077
 30
0.0
 40
0.0600000001949823
 50
90.0000000500258039
 51
150.165280802387997
  0
ARC
  5
11A8A
  8
0
 10
4527.5376316541978667
 20
233.328432573149712
 30
0.0
 40
0.1398951793167514
 50
174.5282868417739053
 51
330.165280802390896
  0
ARC
  5
11A8B
  8
0
 10
4527.6025407599481696
 20
233.1988699665768081
 30
0.0
 40
0.0049999999999807
 50
116.6331187434396952
 51
179.9960144044841002
  0
LINE
  5
11A8C
  8
0
 10
4527.5975407599607934
 20
233.1988703143856014
 30
0.0
 11
4527.5975387657281317
 21
233.1702018065383015
 31
0.0
  0
ARC
  5
11A8D
  8
0
 10
4527.6873479612231677
 20
233.1701955592521074
 30
0.0
 40
0.0898091957118709
 50
179.9960144044841002
 51
190.2164510540476101
  0
ARC
  5
11A8E
  8
0
 10
4527.4724024391807689
 20
233.1986811090476976
 30
0.0
 40
0.0053298042097052
 50
1.0042944494236239
 51
63.2011431731746782
  0
LINE
  5
11A8F
  8
0
 10
4527.47773142328424
 20
233.1987708330246107
 30
0.0
 11
4527.4777111684588817
 21
233.1727132473857864
 31
0.0
  0
ARC
  5
11A90
  8
0
 10
4527.3877111956480803
 20
233.1727832052768008
 30
0.0
 40
0.0900000000000108
 50
348.1288979263002261
 51
359.9554634188809814
  0
ARC
  5
11A91
  8
0
 10
4526.479851917065389
 20
233.16752706559231
 30
0.0
 40
0.6561613771326807
 50
358.8422532854968949
 51
14.3822588368989699
  0
ARC
  5
11A92
  8
0
 10
4527.1009360319985717
 20
233.3267893871224885
 30
0.0
 40
0.0149828022538625
 50
14.3822588368989699
 51
90.0561686303421851
  0
ARC
  5
11A93
  8
0
 10
4527.0942199461087512
 20
233.3320996591945118
 30
0.0
 40
0.0117671761205383
 50
352.2391577441866275
 51
55.2846864902852673
  0
LINE
  5
11A94
  8
0
 10
4527.1058793426482225
 20
233.3305109647768063
 30
0.0
 11
4527.1058793426482225
 21
233.1542721821768112
 31
0.0
  0
ARC
  5
11A95
  8
0
 10
4527.2919067682323657
 20
233.16752706559231
 30
0.0
 40
0.6561613771326807
 50
165.6177411631009875
 51
181.1577467145029914
  0
ARC
  5
11A96
  8
0
 10
4526.670822653297364
 20
233.3267893871224885
 30
0.0
 40
0.0149828022538625
 50
89.9438313696578291
 51
165.6177411631009875
  0
ARC
  5
11A97
  8
0
 10
4526.677538739188094
 20
233.3320996591945118
 30
0.0
 40
0.0117671761205383
 50
124.7153135097147043
 51
187.7608422558132872
  0
LINE
  5
11A98
  8
0
 10
4526.6658793426477132
 20
233.3305109647768063
 30
0.0
 11
4526.6658793426477132
 21
233.1542721821768112
 31
0.0
  0
LINE
  5
11A99
  8
0
 10
4526.5315486339486597
 20
233.6410328120769009
 30
0.0
 11
4526.5315486339486597
 21
233.3574721821767923
 31
0.0
  0
ARC
  5
11A9A
  8
0
 10
4526.5472486339476745
 20
233.6410328120769009
 30
0.0
 40
0.0157
 50
90.0
 51
180.0
  0
LINE
  5
11A9B
  8
0
 10
4526.6536439095480091
 20
233.6567328120767968
 30
0.0
 11
4526.5472486339476745
 21
233.6567328120767968
 31
0.0
  0
LINE
  5
11A9C
  8
0
 10
4526.6693439095479334
 20
233.6410328120769009
 30
0.0
 11
4526.6693439095479334
 21
233.5740076151768108
 31
0.0
  0
ARC
  5
11A9D
  8
0
 10
4526.6536439095480091
 20
233.6410328120769009
 30
0.0
 40
0.0157
 50
0.0
 51
90.0
  0
LINE
  5
11A9E
  8
0
 10
4526.6536439095480091
 20
233.5583076151768012
 30
0.0
 11
4526.6456738308479544
 21
233.5583076151768012
 31
0.0
  0
ARC
  5
11A9F
  8
0
 10
4526.6536439095480091
 20
233.5740076151768108
 30
0.0
 40
0.0157
 50
270.0
 51
0.0
  0
LINE
  5
11AA0
  8
0
 10
4526.62997383084803
 20
233.5426076151767916
 30
0.0
 11
4526.62997383084803
 21
233.4558973789768004
 31
0.0
  0
ARC
  5
11AA1
  8
0
 10
4526.6456738308479544
 20
233.5426076151767916
 30
0.0
 40
0.0157
 50
90.0
 51
180.0
  0
LINE
  5
11AA2
  8
0
 10
4526.6456738308479544
 20
233.4401973789767908
 30
0.0
 11
4527.1417848544479057
 21
233.4401973789767908
 31
0.0
  0
ARC
  5
11AA3
  8
0
 10
4526.6456738308479544
 20
233.4558973789768004
 30
0.0
 40
0.0157
 50
180.0
 51
270.0
  0
LINE
  5
11AA4
  8
0
 10
4527.1417848544479057
 20
233.4401973789767908
 30
0.0
 11
4527.1417848544479057
 21
233.9854729695767901
 31
0.0
  0
ARC
  5
11AA5
  8
0
 10
4527.1260368229477535
 20
233.9854729695767901
 30
0.0
 40
0.0157480315000029
 50
0.0000000000260551
 51
90.0
  0
LINE
  5
11AA6
  8
0
 10
4527.1260368229477535
 20
234.0012210010768001
 30
0.0
 11
4527.1220998150483865
 21
234.0012210010768001
 31
0.0
  0
LINE
  5
11AA7
  8
0
 10
4527.1220998150483865
 20
234.0012210010768001
 30
0.0
 11
4527.1220998150483865
 21
234.1173627333768081
 31
0.0
  0
LINE
  5
11AA8
  8
0
 10
4527.1220998150483865
 20
234.1173627333768081
 30
0.0
 11
4527.1339108386491716
 21
234.1291737570768134
 31
0.0
  0
LINE
  5
11AA9
  8
0
 10
4527.1339108386491716
 20
234.1291737570768134
 30
0.0
 11
4527.1220998150483865
 21
234.1409847805767868
 31
0.0
  0
LINE
  5
11AAA
  8
0
 10
4527.1220998150483865
 20
234.1409847805767868
 30
0.0
 11
4527.1220998150483865
 21
234.2571265128767948
 31
0.0
  0
ARC
  5
11AAB
  8
0
 10
4527.1254480050793063
 20
234.273118440724204
 30
0.0
 40
0.0163386698588149
 50
258.1749339446902809
 51
359.1446824924607881
  0
LINE
  5
11AAC
  8
0
 10
4527.1417848544479057
 20
234.2728745443768048
 30
0.0
 11
4527.1417848544479057
 21
234.5858666703767881
 31
0.0
  0
ARC
  5
11AAD
  8
0
 10
4527.1260368229477535
 20
234.5858666703767881
 30
0.0
 40
0.01574803150001
 50
0.0000000000521102
 51
89.9999999999478888
  0
LINE
  5
11AAE
  8
0
 10
4527.1260368229477535
 20
234.6016147018767981
 30
0.0
 11
4527.1220998150483865
 21
234.6016147018767981
 31
0.0
  0
LINE
  5
11AAF
  8
0
 10
4527.1220998150483865
 20
234.6016147018767981
 30
0.0
 11
4527.1220998150483865
 21
234.7866540718767965
 31
0.0
  0
LINE
  5
11AB0
  8
0
 10
4527.1220998150483865
 20
234.7866540718767965
 30
0.0
 11
4527.1339108387483066
 21
234.7984650955768018
 31
0.0
  0
LINE
  5
11AB1
  8
0
 10
4527.1339108387483066
 20
234.7984650955768018
 30
0.0
 11
4527.1220998150483865
 21
234.8102761191767911
 31
0.0
  0
LINE
  5
11AB2
  8
0
 10
4527.1220998150483865
 20
234.8102761191767911
 30
0.0
 11
4527.1220998150483865
 21
234.9953154892768907
 31
0.0
  0
ARC
  5
11AB3
  8
0
 10
4527.1254480050793063
 20
235.0113074171241863
 30
0.0
 40
0.0163386698588068
 50
258.1749339446910199
 51
359.1446824925096735
  0
LINE
  5
11AB4
  8
0
 10
4527.1417848544424487
 20
235.0110635203224945
 30
0.0
 11
4527.1417848544479057
 21
235.7571265128767948
 31
0.0
  0
ARC
  5
11AB5
  8
0
 10
4527.1260368229477535
 20
235.7571265128767948
 30
0.0
 40
0.0157480315000029
 50
359.9999999994822133
 51
90.0
  0
LINE
  5
11AB6
  8
0
 10
4527.1260368229477535
 20
235.7728745443768048
 30
0.0
 11
4527.1220998150483865
 21
235.7728745443768048
 31
0.0
  0
LINE
  5
11AB7
  8
0
 10
4527.1220998150483865
 20
235.7728745443768048
 30
0.0
 11
4527.1220998150483865
 21
235.8890162766768981
 31
0.0
  0
LINE
  5
11AB8
  8
0
 10
4527.1220998150483865
 20
235.8890162766768981
 30
0.0
 11
4527.1339108386491716
 21
235.9008273003767897
 31
0.0
  0
LINE
  5
11AB9
  8
0
 10
4527.1339108386491716
 20
235.9008273003767897
 30
0.0
 11
4527.1220998150483865
 21
235.9126383238767914
 31
0.0
  0
LINE
  5
11ABA
  8
0
 10
4527.1220998150483865
 20
235.9126383238767914
 30
0.0
 11
4527.1220998150483865
 21
236.0287800561767995
 31
0.0
  0
LINE
  5
11ABB
  8
0
 10
4527.1220998150483865
 20
236.0287800561767995
 30
0.0
 11
4527.1260368229477535
 21
236.0287800561767995
 31
0.0
  0
ARC
  5
11ABC
  8
0
 10
4527.1260368229477535
 20
236.0445280876768095
 30
0.0
 40
0.0157480314999745
 50
269.999999999895806
 51
0.0000000001042204
  0
LINE
  5
11ABD
  8
0
 10
4527.1417848544479057
 20
236.0445280876768095
 30
0.0
 11
4527.1417848544451772
 21
237.2925595836767911
 31
0.0
  0
ARC
  5
11ABE
  8
0
 10
4527.1260368229459345
 20
237.2925595836767911
 30
0.0
 40
0.0157480315000314
 50
0.0000000001042204
 51
89.9999999917144748
  0
LINE
  5
11ABF
  8
0
 10
4527.1260368229477535
 20
237.3083076151768012
 30
0.0
 11
4527.1220998150483865
 21
237.308307615177398
 31
0.0
  0
LINE
  5
11AC0
  8
0
 10
4527.1220998150483865
 20
237.308307615177398
 30
0.0
 11
4527.1220998150483865
 21
237.4244493474768092
 31
0.0
  0
LINE
  5
11AC1
  8
0
 10
4527.1220998150483865
 20
237.4244493474768092
 30
0.0
 11
4527.1339108386982844
 21
237.4362603712268083
 31
0.0
  0
LINE
  5
11AC2
  8
0
 10
4527.1339108386982844
 20
237.4362603712268083
 30
0.0
 11
4527.1220998150483865
 21
237.4480713947768038
 31
0.0
  0
LINE
  5
11AC3
  8
0
 10
4527.1220998150483865
 20
237.4480713947768038
 30
0.0
 11
4527.1220998150483865
 21
237.5642131270768118
 31
0.0
  0
LINE
  5
11AC4
  8
0
 10
4527.1220998150483865
 20
237.5642131270768118
 30
0.0
 11
4527.1260368229477535
 21
237.5642131270768118
 31
0.0
  0
ARC
  5
11AC5
  8
0
 10
4527.1260368229477535
 20
237.5799611585767934
 30
0.0
 40
0.0157480315000029
 50
270.0
 51
0.0
  0
LINE
  5
11AC6
  8
0
 10
4527.1417848544479057
 20
237.5799611585767934
 30
0.0
 11
4527.1417848544479057
 21
237.8398036781767928
 31
0.0
  0
LINE
  5
11AC7
  8
0
 10
4527.1417848544479057
 20
237.8398036781767928
 30
0.0
 11
4527.1220998150483865
 21
237.8398036781767928
 31
0.0
  0
LINE
  5
11AC8
  8
0
 10
4527.1220998150483865
 20
237.8398036781767928
 30
0.0
 11
4527.1220998150483865
 21
237.9559454104768008
 31
0.0
  0
LINE
  5
11AC9
  8
0
 10
4527.1220998150483865
 20
237.9559454104768008
 30
0.0
 11
4527.1339108386982844
 21
237.9677564341268123
 31
0.0
  0
LINE
  5
11ACA
  8
0
 10
4527.1339108386982844
 20
237.9677564341268123
 30
0.0
 11
4527.1220998150483865
 21
237.9795674577767954
 31
0.0
  0
LINE
  5
11ACB
  8
0
 10
4527.1220998150483865
 20
237.9795674577767954
 30
0.0
 11
4527.1220998150483865
 21
238.0957091899767875
 31
0.0
  0
LINE
  5
11ACC
  8
0
 10
4527.1220998150483865
 20
238.0957091899767875
 30
0.0
 11
4527.1417848544479057
 21
238.0957091899767875
 31
0.0
  0
LINE
  5
11ACD
  8
0
 10
4527.1417848544479057
 20
238.0957091899767875
 30
0.0
 11
4527.1417848544479057
 21
238.1567328120767968
 31
0.0
  0
ARC
  5
11ACE
  8
0
 10
4527.1260368229477535
 20
238.1567328120767968
 30
0.0
 40
0.0157480315000029
 50
0.0000000000032569
 51
90.0
  0
LINE
  5
11ACF
  8
0
 10
4527.1260368229477535
 20
238.1724808435768068
 30
0.0
 11
4526.7992651694476081
 21
238.1724808435768921
 31
0.0
  0
ARC
  5
11AD0
  8
0
 10
4526.7992651694476081
 20
238.1882288750769021
 30
0.0
 40
0.0157480315000029
 50
180.0000000002833076
 51
270.0
  0
LINE
  5
11AD1
  8
0
 10
4526.7835171379483654
 20
238.1882288750767884
 30
0.0
 11
4526.7835171379465464
 21
238.4441343868768115
 31
0.0
  0
ARC
  5
11AD2
  8
0
 10
4526.7992651694457891
 20
238.4441343868768968
 30
0.0
 40
0.0157480314999248
 50
89.9999999951016463
 51
180.0000000002833076
  0
LINE
  5
11AD3
  8
0
 10
4526.7992651694476081
 20
238.4598824183767931
 30
0.0
 11
4526.8465092639480645
 21
238.4598824183728141
 31
0.0
  0
ARC
  5
11AD4
  8
0
 10
4526.846509263947155
 20
238.4441343868714966
 30
0.0
 40
0.0157480315013459
 50
0.0000000195966951
 51
89.9999999951016463
  0
LINE
  5
11AD5
  8
0
 10
4526.8622572954482166
 20
238.4441343868768115
 30
0.0
 11
4526.8622572955009673
 21
238.2866540718767965
 31
0.0
  0
ARC
  5
11AD6
  8
0
 10
4526.8780053270083954
 20
238.2866540718821966
 30
0.0
 40
0.0157480315053889
 50
180.0000000195965981
 51
269.9999997844200834
  0
LINE
  5
11AD7
  8
0
 10
4526.8780053269483687
 20
238.2709060403767864
 30
0.0
 11
4527.1598313171480186
 21
238.2709060393164862
 31
0.0
  0
ARC
  5
11AD8
  8
0
 10
4527.1598313172071357
 20
238.2866540700088933
 30
0.0
 40
0.0157480306923432
 50
269.9999997844200834
 51
337.9756934034281812
  0
ARC
  5
11AD9
  8
0
 10
4527.1890289472321456
 20
238.2748430508208912
 30
0.0
 40
0.0157480289559255
 50
89.9999937595420505
 51
157.9756934034282096
  0
ARC
  5
11ADA
  8
0
 10
4527.2244615901154248
 20
238.2748426185443122
 30
0.0
 40
0.0157484612384249
 50
0.0015634455701517
 51
89.9984365544200813
  0
LINE
  5
11ADB
  8
0
 10
4527.2402100513481855
 20
238.2905910797767888
 30
0.0
 11
4526.9449344607492094
 21
238.2905910797767888
 31
0.0
  0
LINE
  5
11ADC
  8
0
 10
4526.9449344607492094
 20
238.2905910797767888
 30
0.0
 11
4526.9055643820483965
 21
238.3299611585767934
 31
0.0
  0
LINE
  5
11ADD
  8
0
 10
4526.9055643820483965
 20
238.3299611585767934
 30
0.0
 11
4526.9055643820483965
 21
238.3693312372768105
 31
0.0
  0
LINE
  5
11ADE
  8
0
 10
4526.9055643820483965
 20
238.3693312372768105
 30
0.0
 11
4526.9449344607492094
 21
238.4087013159767992
 31
0.0
  0
LINE
  5
11ADF
  8
0
 10
4526.9449344607492094
 20
238.4087013159767992
 30
0.0
 11
4527.2402100513481855
 21
238.4087013159767992
 31
0.0
  0
LINE
  5
11AE0
  8
0
 10
4527.2402100513481855
 20
238.4244493474768092
 30
0.0
 11
4526.8622572954482166
 21
238.4244493474768092
 31
0.0
  0
LINE
  5
11AE1
  8
0
 10
4526.7835171379483654
 20
238.4244493474768092
 30
0.0
 11
4526.4803675316479712
 21
238.4244493474768092
 31
0.0
  0
ARC
  5
11AE2
  8
0
 10
4527.238569611748062
 20
233.9315626125768119
 30
0.0
 40
0.5893209654000183
 50
213.6613070299084995
 51
236.4891342344830889
  0
ARC
  5
11AE3
  8
0
 10
4527.2360193586491732
 20
233.930106619676792
 30
0.0
 40
0.5863611175000515
 50
180.0029785214005074
 51
201.1087543575964105
  0
LINE
  5
11AE4
  8
0
 10
4526.6102887914476014
 20
233.6567328120767968
 30
0.0
 11
4526.6496588702475492
 21
233.6961028907768991
 31
0.0
  0
LINE
  5
11AE5
  8
0
 10
4526.6496588702475492
 20
233.6961028907768991
 30
0.0
 11
4526.6496588702475492
 21
238.3811422608767998
 31
0.0
  0
LINE
  5
11AE6
  8
0
 10
4526.6496588702475492
 20
238.3811422608767998
 30
0.0
 11
4526.6102887914476014
 21
238.4205123396768045
 31
0.0
  0
LINE
  5
11AE7
  8
0
 10
4526.6102887914476014
 20
238.4205123396768045
 30
0.0
 11
4526.570918712747698
 21
238.4205123396768045
 31
0.0
  0
LINE
  5
11AE8
  8
0
 10
4526.570918712747698
 20
238.4205123396768045
 30
0.0
 11
4526.5315486339486597
 21
238.3811422608767998
 31
0.0
  0
LINE
  5
11AE9
  8
0
 10
4526.5315486339486597
 20
238.3811422608767998
 30
0.0
 11
4526.5315486339486597
 21
233.6961028907768991
 31
0.0
  0
LINE
  5
11AEA
  8
0
 10
4526.5315486339486597
 20
233.6961028907768991
 30
0.0
 11
4526.570918712747698
 21
233.6567328120767968
 31
0.0
  0
ARC
  5
11AEB
  8
0
 10
4526.6496588702475492
 20
238.3811422608767998
 30
0.0
 40
0.0393700786999846
 50
134.999999999806505
 51
179.9999999999901945
  0
ARC
  5
11AEC
  8
0
 10
4526.5315486333911394
 20
238.3811422605047028
 30
0.0
 40
0.0393700793567894
 50
0.0000005414543721
 51
44.9999998094720368
  0
ARC
  5
11AED
  8
0
 10
4526.64965887080416
 20
233.6961028911489109
 30
0.0
 40
0.0393700793568221
 50
180.0000005414673865
 51
224.9999998100051926
  0
ARC
  5
11AEE
  8
0
 10
4526.5315486333911394
 20
233.6961028911489109
 30
0.0
 40
0.039370079356812
 50
315.0000002628860898
 51
359.9999994585455738
  0
LINE
  5
11AEF
  8
0
 10
4526.6102887914476014
 20
233.6961028907768991
 30
0.0
 11
4526.6102887914476014
 21
238.3811422608767998
 31
0.0
  0
LINE
  5
11AF0
  8
0
 10
4526.5709187126485631
 20
238.3811422608767998
 30
0.0
 11
4526.5709187126485631
 21
233.6961028907768991
 31
0.0
  0
LINE
  5
11AF1
  8
0
 10
4530.7835171379483654
 20
238.017512295676795
 30
0.0
 11
4527.2402100513481855
 21
238.017512295676795
 31
0.0
  0
LINE
  5
11AF2
  8
0
 10
4548.5000525710483998
 20
238.017512295676795
 30
0.0
 11
4544.9567454843481755
 21
238.017512295676795
 31
0.0
  0
LINE
  5
11AF3
  8
0
 10
4527.0203088338048474
 20
238.0031895049768025
 30
0.0
 11
4526.6496588702475492
 21
238.0031895049768025
 31
0.0
  0
LINE
  5
11AF4
  8
0
 10
4527.0203088338048474
 20
237.9323233632767938
 30
0.0
 11
4526.6496588702475492
 21
237.9323233632767938
 31
0.0
  0
LINE
  5
11AF5
  8
0
 10
4526.6890289489483621
 20
238.0031895049768025
 30
0.0
 11
4526.6890289489483621
 21
237.9323233632767938
 31
0.0
  0
LINE
  5
11AF6
  8
0
 10
4527.1417848544479057
 20
236.6488587962768122
 30
0.0
 11
4526.7480840670477846
 21
236.6488587962768122
 31
0.0
  0
LINE
  5
11AF7
  8
0
 10
4527.1220998150483865
 20
234.0504335994768894
 30
0.0
 11
4526.7480840670477846
 21
234.0504335994768894
 31
0.0
  0
LINE
  5
11AF8
  8
0
 10
4526.7480840670477846
 20
234.0504335994768894
 30
0.0
 11
4526.7480840670477846
 21
233.4598824183767931
 31
0.0
  0
LINE
  5
11AF9
  8
0
 10
4526.7480840670477846
 20
233.4598824183767931
 30
0.0
 11
4526.6890289489483621
 21
233.4598824183767931
 31
0.0
  0
LINE
  5
11AFA
  8
0
 10
4526.6890289489483621
 20
233.4598824183767931
 30
0.0
 11
4526.6890289489483621
 21
237.2394099773767948
 31
0.0
  0
LINE
  5
11AFB
  8
0
 10
4526.6890289489483621
 20
237.2394099773767948
 30
0.0
 11
4526.7480840670477846
 21
237.2394099773769085
 31
0.0
  0
LINE
  5
11AFC
  8
0
 10
4526.7480840670477846
 20
237.2394099773769085
 30
0.0
 11
4526.7480840670477846
 21
234.0504335994768894
 31
0.0
  0
ARC
  5
11AFD
  8
0
 10
4527.3327106470687795
 20
235.0479810201086082
 30
0.0
 40
1.074199143547812
 50
102.5793008764745053
 51
108.4822108335595061
  0
ARC
  5
11AFE
  8
0
 10
4527.0833558305021143
 20
236.1654264637251117
 30
0.0
 40
0.0707297380884561
 50
282.5793008764741217
 51
325.6990051814399862
  0
LINE
  5
11AFF
  8
0
 10
4526.9921785552487563
 20
236.066775255682586
 30
0.0
 11
4526.9921785552487563
 21
235.7348793448711035
 31
0.0
  0
ARC
  5
11B00
  8
0
 10
4527.3327106470687795
 20
236.7536735803450085
 30
0.0
 40
1.074199143547812
 50
251.5177891664405081
 51
257.4206991235254804
  0
ARC
  5
11B01
  8
0
 10
4527.0833558305021143
 20
235.636228136728505
 30
0.0
 40
0.0707297380884561
 50
34.3009948185599569
 51
77.4206991235258926
  0
LINE
  5
11B02
  8
0
 10
4526.5315486339486597
 20
238.2039769065767985
 30
0.0
 11
4526.4803675316479712
 21
238.2039769065767985
 31
0.0
  0
LINE
  5
11B03
  8
0
 10
4526.4803675316479712
 20
238.2039769065767985
 30
0.0
 11
4526.4803675316479712
 21
238.4244493474768092
 31
0.0
  0
LINE
  5
11B04
  8
0
 10
4527.1220998150483865
 20
238.0475917620767916
 30
0.0
 11
4527.0422644870477598
 21
238.0475917620767916
 31
0.0
  0
LINE
  5
11B05
  8
0
 10
4527.1220998150483865
 20
237.8879211060767886
 30
0.0
 11
4527.0422644870477598
 21
237.8879211060767886
 31
0.0
  0
LINE
  5
11B06
  8
0
 10
4527.0422644870477598
 20
237.8879211060767886
 30
0.0
 11
4527.0422644870477598
 21
238.0475917620767916
 31
0.0
  0
LINE
  5
11B07
  8
0
 10
4527.0422644870477598
 20
237.8879211060767886
 30
0.0
 11
4527.0203088338048474
 21
237.9098767593191042
 31
0.0
  0
LINE
  5
11B08
  8
0
 10
4527.0422644870477598
 20
238.0475917620767063
 30
0.0
 11
4527.0203088338048474
 21
238.0256361088345045
 31
0.0
  0
LINE
  5
11B09
  8
0
 10
4527.0203088338048474
 20
237.9098767593191042
 30
0.0
 11
4527.0203088338048474
 21
238.0256361088345045
 31
0.0
  0
LINE
  5
11B0A
  8
0
 10
4526.6102887914476014
 20
233.6961028907768991
 30
0.0
 11
4526.5709187126485631
 21
233.6961028907768991
 31
0.0
  0
LINE
  5
11B0B
  8
0
 10
4526.6102887915476458
 20
238.3811422608767998
 30
0.0
 11
4526.5709187126485631
 21
238.3811422608767998
 31
0.0
  0
LINE
  5
11B0C
  8
0
 10
4549.1693439096479779
 20
238.3811422608767998
 30
0.0
 11
4549.12997383084803
 21
238.3811422608764019
 31
0.0
  0
LINE
  5
11B0D
  8
0
 10
4549.1693439096479779
 20
238.3811422608766009
 30
0.0
 11
4549.1693439096479779
 21
233.6961028907768991
 31
0.0
  0
LINE
  5
11B0E
  8
0
 10
4549.1693439096479779
 20
233.6961028907768991
 30
0.0
 11
4549.12997383084803
 21
233.6961028907765012
 31
0.0
  0
LINE
  5
11B0F
  8
0
 10
4549.12997383084803
 20
233.6961028907765012
 30
0.0
 11
4549.1299738307998268
 21
238.3811422608764019
 31
0.0
  0
ARC
  5
11B10
  8
0
 10
4549.0906037521481267
 20
238.3811422608767998
 30
0.0
 40
0.0393700786999745
 50
359.9999999994006998
 51
44.9999999995624265
  0
ARC
  5
11B11
  8
0
 10
4549.2087139883478812
 20
238.3811422608767998
 30
0.0
 40
0.0393700786999975
 50
135.0000000000046043
 51
180.0000000002899014
  0
ARC
  5
11B12
  8
0
 10
4549.2087139883478812
 20
233.6961028907768139
 30
0.0
 40
0.0393700786999656
 50
179.999999999980389
 51
224.9999999272573064
  0
ARC
  5
11B13
  8
0
 10
4549.0906037521481267
 20
233.6961028907768991
 30
0.0
 40
0.0393700787000455
 50
315.000000000013813
 51
0.0000000005569278
  0
LINE
  5
11B14
  8
0
 10
4527.8878767645483094
 20
238.459882416276912
 30
0.0
 11
4527.9000282117485767
 21
238.4932682429769102
 31
0.0
  0
LINE
  5
11B15
  8
0
 10
4527.9000282117485767
 20
238.4932682429769102
 30
0.0
 11
4528.3126753555479809
 21
238.4932682429769102
 31
0.0
  0
LINE
  5
11B16
  8
0
 10
4528.3126753555479809
 20
238.4932682429769102
 30
0.0
 11
4528.3248268027482482
 21
238.459882416276912
 31
0.0
  0
LINE
  5
11B17
  8
0
 10
4547.4154358196483372
 20
238.459882416276912
 30
0.0
 11
4547.427587266847695
 21
238.4932682429769102
 31
0.0
  0
LINE
  5
11B18
  8
0
 10
4547.427587266847695
 20
238.4932682429769102
 30
0.0
 11
4547.8402344106480086
 21
238.4932682429769102
 31
0.0
  0
LINE
  5
11B19
  8
0
 10
4547.8402344106480086
 20
238.4932682429769102
 30
0.0
 11
4547.8523858578482759
 21
238.459882416276912
 31
0.0
  0
LINE
  5
11B1A
  8
0
 10
4547.6193389447153095
 20
233.272382416276912
 30
0.0
 11
4547.7073787257677395
 21
233.272382416276912
 31
0.0
  0
ENDSEC
  0
EOF
