  0
SECTION
  2
HEADER
  9
$ACADVER
  1
AC1009
  9
$INSBASE
 10
2998.0664848148221608
 20
110.2743517357532994
 30
0.0
  9
$EXTMIN
 10
2989.0767917243269949
 20
110.2652280986980031
 30
-0.0000000000112498
  9
$EXTMAX
 10
3007.2218220898071195
 20
115.9485476959325041
 30
0.0000000000002956
  9
$LIMMIN
 10
0.0
 20
0.0
  9
$LIMMAX
 10
11.6929133858000007
 20
8.2677165353999982
  9
$ORTHOMODE
 70
     0
  9
$REGENMODE
 70
     1
  9
$FILLMODE
 70
     1
  9
$QTEXTMODE
 70
     0
  9
$MIRRTEXT
 70
     0
  9
$DRAGMODE
 70
     2
  9
$LTSCALE
 40
0.6431102362
  9
$OSMODE
 70
  4095
  9
$ATTMODE
 70
     1
  9
$TEXTSIZE
 40
0.2
  9
$TRACEWID
 40
0.05
  9
$TEXTSTYLE
  7
STANDARD
  9
$CLAYER
  8
0
  9
$CELTYPE
  6
BYLAYER
  9
$CECOLOR
 62
   256
  9
$DIMSCALE
 40
1.0
  9
$DIMASZ
 40
0.1875
  9
$DIMEXO
 40
0.0625
  9
$DIMDLI
 40
0.4443307087
  9
$DIMRND
 40
0.0
  9
$DIMDLE
 40
0.0
  9
$DIMEXE
 40
0.125
  9
$DIMTP
 40
0.01
  9
$DIMTM
 40
0.01
  9
$DIMTXT
 40
2.0
  9
$DIMCEN
 40
0.1052362205
  9
$DIMTSZ
 40
0.0
  9
$DIMTOL
 70
     1
  9
$DIMLIM
 70
     0
  9
$DIMTIH
 70
     1
  9
$DIMTOH
 70
     1
  9
$DIMSE1
 70
     0
  9
$DIMSE2
 70
     0
  9
$DIMTAD
 70
     0
  9
$DIMZIN
 70
     0
  9
$DIMBLK
  1

  9
$DIMASO
 70
     1
  9
$DIMSHO
 70
     1
  9
$DIMPOST
  1
\X
  9
$DIMAPOST
  1

  9
$DIMALT
 70
     1
  9
$DIMALTD
 70
     2
  9
$DIMALTF
 40
25.3999999999999986
  9
$DIMLFAC
 40
1.0
  9
$DIMTOFL
 70
     0
  9
$DIMTVP
 40
0.0
  9
$DIMTIX
 70
     0
  9
$DIMSOXD
 70
     0
  9
$DIMSAH
 70
     0
  9
$DIMBLK1
  1

  9
$DIMBLK2
  1

  9
$DIMSTYLE
  2
STANDARD
  9
$DIMCLRD
 70
     0
  9
$DIMCLRE
 70
     0
  9
$DIMCLRT
 70
     0
  9
$DIMTFAC
 40
1.0
  9
$DIMGAP
 40
0.09
  9
$LUNITS
 70
     2
  9
$LUPREC
 70
     4
  9
$SKETCHINC
 40
0.1
  9
$FILLETRAD
 40
0.0
  9
$AUNITS
 70
     0
  9
$AUPREC
 70
     0
  9
$MENU
  1
.
  9
$ELEVATION
 40
0.0
  9
$PELEVATION
 40
0.0
  9
$THICKNESS
 40
0.0
  9
$LIMCHECK
 70
     0
  9
$BLIPMODE
 70
     0
  9
$CHAMFERA
 40
0.0
  9
$CHAMFERB
 40
0.0
  9
$SKPOLY
 70
     0
  9
$TDCREATE
 40
2458060.468368056230247
  9
$TDUPDATE
 40
2460090.5549189820885658
  9
$TDINDWG
 40
0.2887107639
  9
$TDUSRTIMER
 40
0.2887107639
  9
$USRTIMER
 70
     1
  9
$ANGBASE
 50
0.0
  9
$ANGDIR
 70
     0
  9
$PDMODE
 70
     0
  9
$PDSIZE
 40
0.3125
  9
$PLINEWID
 40
0.0
  9
$COORDS
 70
     1
  9
$SPLFRAME
 70
     0
  9
$SPLINETYPE
 70
     6
  9
$SPLINESEGS
 70
     8
  9
$ATTDIA
 70
     1
  9
$ATTREQ
 70
     1
  9
$HANDLING
 70
     1
  9
$HANDSEED
  5
5C29
  9
$SURFTAB1
 70
     6
  9
$SURFTAB2
 70
     6
  9
$SURFTYPE
 70
     6
  9
$SURFU
 70
     6
  9
$SURFV
 70
     6
  9
$UCSNAME
  2

  9
$UCSORG
 10
0.0
 20
0.0
 30
0.0
  9
$UCSXDIR
 10
1.0
 20
0.0
 30
0.0
  9
$UCSYDIR
 10
0.0
 20
1.0
 30
0.0
  9
$PUCSNAME
  2

  9
$PUCSORG
 10
0.0
 20
0.0
 30
0.0
  9
$PUCSXDIR
 10
1.0
 20
0.0
 30
0.0
  9
$PUCSYDIR
 10
0.0
 20
1.0
 30
0.0
  9
$USERI1
 70
     0
  9
$USERI2
 70
     0
  9
$USERI3
 70
     0
  9
$USERI4
 70
     0
  9
$USERI5
 70
     0
  9
$USERR1
 40
0.0
  9
$USERR2
 40
0.0
  9
$USERR3
 40
0.0
  9
$USERR4
 40
0.0
  9
$USERR5
 40
0.0
  9
$WORLDVIEW
 70
     1
  9
$SHADEDGE
 70
     3
  9
$SHADEDIF
 70
    70
  9
$TILEMODE
 70
     1
  9
$MAXACTVP
 70
    64
  9
$PLIMCHECK
 70
     0
  9
$PEXTMIN
 10
1.0000000000000000E+20
 20
1.0000000000000000E+20
 30
1.0000000000000000E+20
  9
$PEXTMAX
 10
-1.0000000000000000E+20
 20
-1.0000000000000000E+20
 30
-1.0000000000000000E+20
  9
$PLIMMIN
 10
0.0
 20
0.0
  9
$PLIMMAX
 10
12.0
 20
9.0
  9
$UNITMODE
 70
     0
  9
$VISRETAIN
 70
     1
  9
$PLINEGEN
 70
     0
  9
$PSLTSCALE
 70
     1
  0
ENDSEC
  0
SECTION
  2
TABLES
  0
TABLE
  2
VPORT
 70
     1
  0
VPORT
  2
*ACTIVE
 70
     0
 10
0.0
 20
0.0
 11
1.0
 21
1.0
 12
146.3359524148791024
 22
8.4099579656746357
 13
0.0
 23
0.0
 14
1.0
 24
1.0
 15
0.0
 25
0.0
 16
0.0
 26
0.0
 36
106.320558520324596
 17
2851.8133544921879547
 27
104.6969299316405966
 37
0.0
 40
7.2083293069211596
 41
2.5251322751322749
 42
50.0
 43
0.0
 44
0.0
 50
0.0
 51
0.0
 71
     0
 72
   100
 73
     1
 74
     1
 75
     0
 76
     0
 77
     0
 78
     0
  0
ENDTAB
  0
TABLE
  2
LTYPE
 70
     2
  0
LTYPE
  2
CONTINUOUS
 70
     0
  3
Solid line
 72
    65
 73
     0
 40
0.0
  0
LTYPE
  2
PHANTOM2
 70
     0
  3
___ _ _ ___ _ _ ___ _ _ ___ _ _
 72
    65
 73
     6
 40
1.25
 49
0.625
 49
-0.125
 49
0.125
 49
-0.125
 49
0.125
 49
-0.125
  0
ENDTAB
  0
TABLE
  2
LAYER
 70
     2
  0
LAYER
  2
0
 70
     0
 62
   255
  6
CONTINUOUS
  0
LAYER
  2
DEFPOINTS
 70
     0
 62
     7
  6
CONTINUOUS
  0
ENDTAB
  0
TABLE
  2
STYLE
 70
     1
  0
STYLE
  2
STANDARD
 70
     0
 40
0.0
 41
0.8
 50
0.0
 71
     0
 42
0.2
  3
txt
  4

  0
ENDTAB
  0
TABLE
  2
VIEW
 70
     0
  0
ENDTAB
  0
TABLE
  2
UCS
 70
     0
  0
ENDTAB
  0
TABLE
  2
APPID
 70
     9
  0
APPID
  2
ACAD
 70
     0
  0
APPID
  2
ACAD_MLEADERVER
 70
     0
  0
APPID
  2
ACAD_EXEMPT_FROM_CAD_STANDARDS
 70
     0
  0
APPID
  2
ACAD_NAV_VCDISPLAY
 70
     0
  0
APPID
  2
ACAECLAYERSTANDARD
 70
     0
  0
APPID
  2
ACCMTRANSPARENCY
 70
     0
  0
APPID
  2
ACAD_DSTYLE_DIMJAG
 70
     0
  0
APPID
  2
ACAD_DSTYLE_DIMTALN
 70
     0
  0
APPID
  2
ACDBATTR
 70
     0
  0
ENDTAB
  0
TABLE
  2
DIMSTYLE
 70
     1
  0
DIMSTYLE
  2
STANDARD
 70
     0
  3

  4

  5

  6

  7

 40
1.0
 41
0.1875
 42
0.0625
 43
0.38
 44
0.125
 45
0.0
 46
0.0
 47
0.01
 48
0.01
140
0.15625
141
0.09
142
0.0
143
25.3999999999999986
144
1.0
145
0.0
146
1.0
147
0.09
 71
     1
 72
     0
 73
     1
 74
     1
 75
     0
 76
     0
 77
     0
 78
     4
170
     0
171
     2
172
     0
173
     0
174
     0
175
     0
176
     0
177
     0
178
     0
  0
ENDTAB
  0
ENDSEC
  0
SECTION
  2
BLOCKS
  0
BLOCK
  8
0
  2
$MODEL_SPACE
 70
     0
 10
0.0
 20
0.0
 30
0.0
  3
$MODEL_SPACE
  1

  0
ENDBLK
  5
21
  8
0
  0
BLOCK
 67
     1
  8
0
  2
$PAPER_SPACE
 70
     0
 10
0.0
 20
0.0
 30
0.0
  3
$PAPER_SPACE
  1

  0
ENDBLK
  5
1D
 67
     1
  8
0
  0
BLOCK
  8
0
  2
_FILLED
 70
     0
 10
0.0
 20
0.0
 30
0.0
  3
_FILLED
  1

  0
SOLID
  5
589B
  8
0
  6
BYBLOCK
 62
     0
 10
0.0
 20
0.0
 30
0.0
 11
-1.0
 21
0.1666666667
 31
0.0
 12
-1.0
 22
-0.1666666667
 32
0.0
 13
-1.0
 23
-0.1666666667
 33
0.0
  0
ENDBLK
  5
589C
  8
0
  6
BYBLOCK
 62
     0
  0
BLOCK
  8
0
  2
A$C16BDA517
 70
     0
 10
0.0
 20
0.0
 30
0.0
  3
A$C16BDA517
  1

  0
LINE
  5
5B77
  8
0
 10
220.3800362275879081
 20
112.8186497575017029
 30
0.0
 11
236.4337290872446999
 21
112.8186497575017029
 31
0.0
  0
LINE
  5
5B78
  8
0
 10
218.7074902885520942
 20
118.487941096101693
 30
0.0
 11
236.4438289290100101
 21
118.487941096101693
 31
0.0
  0
ARC
  5
5B79
  8
0
 10
232.6562330917352028
 20
120.7134718404053046
 30
0.0
 40
14.2623578757245397
 50
189.5376023216936971
 51
195.1763476750489872
  0
ARC
  5
5B7A
  8
0
 10
261.0452698800535245
 20
128.4140194389663066
 30
0.0
 40
43.6772493949226615
 50
195.1763476750489872
 51
198.8367862509805093
  0
ARC
  5
5B7B
  8
0
 10
234.4720763494713083
 20
119.3487239847590047
 30
0.0
 40
15.60031587137264
 50
198.8367862509805093
 51
204.465858387822891
  0
ARC
  5
5B7C
  8
0
 10
220.3800362275879081
 20
112.9367497575017012
 30
0.0
 40
0.1181
 50
204.4658583878214131
 51
270.0000000000032969
  0
ARC
  5
5B7D
  8
0
 10
218.7074902885520942
 20
118.3698410961016947
 30
0.0
 40
0.1181
 50
89.9999999999967457
 51
189.5376023216969088
  0
ARC
  5
5B7E
  8
0
 10
118.2809809426250069
 20
118.2809813098557044
 30
0.0
 40
118.2809813981579055
 50
359.2515786000137723
 51
0.0430870603352585
  0
ARC
  5
5B7F
  8
0
 10
11174.8915691062902624
 20
114.7141654698349953
 30
0.0
 40
10938.3398844272705901
 50
179.9894095451836904
 51
180.0093107353997084
  0
ARC
  5
5B80
  8
0
 10
236.4438289290100101
 20
118.3698410961016947
 30
0.0
 40
0.1181
 50
0.0430870603385154
 51
90.0
  0
ARC
  5
5B81
  8
0
 10
236.4337290872448136
 20
112.9367497575016017
 30
0.0
 40
0.1181
 50
269.9999999999820943
 51
0.0093101279770459
  0
LINE
  5
5B82
  8
0
 10
227.5756623407829125
 20
112.8186497575017029
 30
0.0
 11
251.9490347419094007
 21
87.9084286932246215
 31
0.0
  0
ENDBLK
  5
5B86
  8
0
  0
ENDSEC
  0
SECTION
  2
ENTITIES
  0
ATTDEF
  5
3930
  8
DEFPOINTS
 10
2998.0607454047330975
 20
110.2724127234284026
 30
0.0
 40
0.001
  1
K-25316IN
  3

  2
MODELNUMBER
 70
     0
1001
ACDBATTR
1070
     0
1070
     1
  0
ATTDEF
  5
3931
  8
DEFPOINTS
 10
2998.0607454047330975
 20
110.2707460567617943
 30
0.0
 40
0.001
  1
SPAN
  3

  2
TRADENAME
 70
     0
1001
ACDBATTR
1070
     0
1070
     1
  0
ATTDEF
  5
3932
  8
DEFPOINTS
 10
2998.0607454047330975
 20
110.2690793900951007
 30
0.0
 40
0.001
  1
BATHROOM SINK
  3

  2
PRODUCT
 70
     0
1001
ACDBATTR
1070
     0
1070
     1
  0
LINE
  5
5B99
  8
0
 10
2990.8708587016280944
 20
110.2743517357532994
 30
0.0
 11
3006.9245515612838062
 21
110.2743517357532994
 31
0.0
  0
LINE
  5
5B9A
  8
0
 10
2989.1983127625921952
 20
115.9436430743533037
 30
0.0
 11
3006.9346514030498838
 21
115.9436430743533037
 31
0.0
  0
ARC
  5
5B9B
  8
0
 10
3003.1470555657751902
 20
118.1691738186569012
 30
0.0
 40
14.2623578757245397
 50
189.5376023216936971
 51
195.1763476750489872
  0
ARC
  5
5B9C
  8
0
 10
3031.5360923540938529
 20
125.8697214172179031
 30
0.0
 40
43.6772493949226615
 50
195.1763476750489872
 51
198.8367862509776955
  0
ARC
  5
5B9D
  8
0
 10
3004.9628988235108409
 20
116.8044259630106012
 30
0.0
 40
15.60031587137264
 50
198.8367862509776955
 51
204.4658583878214131
  0
ARC
  5
5B9E
  8
0
 10
2990.8708587016280944
 20
110.3924517357532977
 30
0.0
 40
0.1181
 50
204.465858387819992
 51
270.0
  0
ARC
  5
5B9F
  8
0
 10
2989.1983127625921952
 20
115.8255430743533054
 30
0.0
 40
0.1181
 50
90.0
 51
189.5376023216969088
  0
ARC
  5
5BA0
  8
0
 10
2888.7718034166650796
 20
115.7366832881074004
 30
0.0
 40
118.2809813981579055
 50
359.2515786000137723
 51
0.0430870603352585
  0
ARC
  5
5BA1
  8
0
 10
13945.3823915803295677
 20
112.169867448086606
 30
0.0
 40
10938.3398844272705901
 50
179.9894095451836904
 51
180.0093107353997084
  0
ARC
  5
5BA2
  8
0
 10
3006.9346514030498838
 20
115.8255430743533054
 30
0.0
 40
0.1181
 50
0.0430870603385154
 51
90.0
  0
ARC
  5
5BA3
  8
0
 10
3006.9245515612851705
 20
110.3924517357532977
 30
0.0
 40
0.1181
 50
269.9999999999739089
 51
0.0093101279770459
  0
ENDSEC
  0
EOF
