  0
SECTION
  2
HEADER
  9
$ACADVER
  1
AC1009
  9
$INSBASE
 10
4284.0859794551979576
 20
270.2357210384275277
 30
0.0
  9
$EXTMIN
 10
4273.3044417549726859
 20
250.9929384375404027
 30
-0.0015258207003583
  9
$EXTMAX
 10
4294.9304713288311177
 20
270.2499700537538274
 30
0.0000000349246037
  9
$LIMMIN
 10
0.0
 20
0.0
  9
$LIMMAX
 10
11.6929133858000007
 20
8.2677165353999982
  9
$ORTHOMODE
 70
     0
  9
$REGENMODE
 70
     1
  9
$FILLMODE
 70
     1
  9
$QTEXTMODE
 70
     0
  9
$MIRRTEXT
 70
     0
  9
$DRAGMODE
 70
     2
  9
$LTSCALE
 40
0.6431102362
  9
$OSMODE
 70
  4095
  9
$ATTMODE
 70
     1
  9
$TEXTSIZE
 40
0.2
  9
$TRACEWID
 40
0.05
  9
$TEXTSTYLE
  7
STANDARD
  9
$CLAYER
  8
0
  9
$CELTYPE
  6
BYLAYER
  9
$CECOLOR
 62
   256
  9
$DIMSCALE
 40
1.0
  9
$DIMASZ
 40
0.1875
  9
$DIMEXO
 40
0.0625
  9
$DIMDLI
 40
0.4443307087
  9
$DIMRND
 40
0.0
  9
$DIMDLE
 40
0.0
  9
$DIMEXE
 40
0.125
  9
$DIMTP
 40
0.01
  9
$DIMTM
 40
0.01
  9
$DIMTXT
 40
2.0
  9
$DIMCEN
 40
0.1052362205
  9
$DIMTSZ
 40
0.0
  9
$DIMTOL
 70
     1
  9
$DIMLIM
 70
     0
  9
$DIMTIH
 70
     1
  9
$DIMTOH
 70
     1
  9
$DIMSE1
 70
     0
  9
$DIMSE2
 70
     0
  9
$DIMTAD
 70
     0
  9
$DIMZIN
 70
     0
  9
$DIMBLK
  1

  9
$DIMASO
 70
     1
  9
$DIMSHO
 70
     1
  9
$DIMPOST
  1
\X
  9
$DIMAPOST
  1

  9
$DIMALT
 70
     1
  9
$DIMALTD
 70
     2
  9
$DIMALTF
 40
25.3999999999999986
  9
$DIMLFAC
 40
1.0
  9
$DIMTOFL
 70
     0
  9
$DIMTVP
 40
0.0
  9
$DIMTIX
 70
     0
  9
$DIMSOXD
 70
     0
  9
$DIMSAH
 70
     0
  9
$DIMBLK1
  1

  9
$DIMBLK2
  1

  9
$DIMSTYLE
  2
STANDARD
  9
$DIMCLRD
 70
     0
  9
$DIMCLRE
 70
     0
  9
$DIMCLRT
 70
     0
  9
$DIMTFAC
 40
1.0
  9
$DIMGAP
 40
0.09
  9
$LUNITS
 70
     2
  9
$LUPREC
 70
     4
  9
$SKETCHINC
 40
0.1
  9
$FILLETRAD
 40
0.0
  9
$AUNITS
 70
     0
  9
$AUPREC
 70
     0
  9
$MENU
  1
.
  9
$ELEVATION
 40
0.0
  9
$PELEVATION
 40
0.0
  9
$THICKNESS
 40
0.0
  9
$LIMCHECK
 70
     0
  9
$BLIPMODE
 70
     0
  9
$CHAMFERA
 40
0.0
  9
$CHAMFERB
 40
0.0
  9
$SKPOLY
 70
     0
  9
$TDCREATE
 40
2458060.468368056230247
  9
$TDUPDATE
 40
2459894.6371180559508502
  9
$TDINDWG
 40
0.5842547454
  9
$TDUSRTIMER
 40
0.5842547454
  9
$USRTIMER
 70
     1
  9
$ANGBASE
 50
0.0
  9
$ANGDIR
 70
     0
  9
$PDMODE
 70
     0
  9
$PDSIZE
 40
0.3125
  9
$PLINEWID
 40
0.0
  9
$COORDS
 70
     1
  9
$SPLFRAME
 70
     0
  9
$SPLINETYPE
 70
     6
  9
$SPLINESEGS
 70
     8
  9
$ATTDIA
 70
     1
  9
$ATTREQ
 70
     1
  9
$HANDLING
 70
     1
  9
$HANDSEED
  5
AF75
  9
$SURFTAB1
 70
     6
  9
$SURFTAB2
 70
     6
  9
$SURFTYPE
 70
     6
  9
$SURFU
 70
     6
  9
$SURFV
 70
     6
  9
$UCSNAME
  2

  9
$UCSORG
 10
0.0
 20
0.0
 30
0.0
  9
$UCSXDIR
 10
1.0
 20
0.0
 30
0.0
  9
$UCSYDIR
 10
0.0
 20
1.0
 30
0.0
  9
$PUCSNAME
  2

  9
$PUCSORG
 10
0.0
 20
0.0
 30
0.0
  9
$PUCSXDIR
 10
1.0
 20
0.0
 30
0.0
  9
$PUCSYDIR
 10
0.0
 20
1.0
 30
0.0
  9
$USERI1
 70
     0
  9
$USERI2
 70
     0
  9
$USERI3
 70
     0
  9
$USERI4
 70
     0
  9
$USERI5
 70
     0
  9
$USERR1
 40
0.0
  9
$USERR2
 40
0.0
  9
$USERR3
 40
0.0
  9
$USERR4
 40
0.0
  9
$USERR5
 40
0.0
  9
$WORLDVIEW
 70
     1
  9
$SHADEDGE
 70
     3
  9
$SHADEDIF
 70
    70
  9
$TILEMODE
 70
     1
  9
$MAXACTVP
 70
    64
  9
$PLIMCHECK
 70
     0
  9
$PEXTMIN
 10
1.0000000000000000E+20
 20
1.0000000000000000E+20
 30
1.0000000000000000E+20
  9
$PEXTMAX
 10
-1.0000000000000000E+20
 20
-1.0000000000000000E+20
 30
-1.0000000000000000E+20
  9
$PLIMMIN
 10
0.0
 20
0.0
  9
$PLIMMAX
 10
12.0
 20
9.0
  9
$UNITMODE
 70
     0
  9
$VISRETAIN
 70
     1
  9
$PLINEGEN
 70
     0
  9
$PSLTSCALE
 70
     1
  0
ENDSEC
  0
SECTION
  2
TABLES
  0
TABLE
  2
VPORT
 70
     1
  0
VPORT
  2
*ACTIVE
 70
     0
 10
0.0
 20
0.0
 11
1.0
 21
1.0
 12
-4.7206782237226426
 22
35.3192768164478821
 13
0.0
 23
0.0
 14
1.0
 24
1.0
 15
0.0
 25
0.0
 16
0.0
 26
0.0
 36
29.845499460437189
 17
4288.838134765625
 27
225.3021774291991903
 37
0.0
 40
19.4188554113076783
 41
2.1416549789621309
 42
50.0
 43
0.0
 44
0.0
 50
0.0
 51
0.0
 71
     0
 72
   100
 73
     1
 74
     1
 75
     0
 76
     0
 77
     0
 78
     0
  0
ENDTAB
  0
TABLE
  2
LTYPE
 70
     2
  0
LTYPE
  2
CONTINUOUS
 70
     0
  3
Solid line
 72
    65
 73
     0
 40
0.0
  0
LTYPE
  2
PHANTOM2
 70
     0
  3
___ _ _ ___ _ _ ___ _ _ ___ _ _
 72
    65
 73
     6
 40
1.25
 49
0.625
 49
-0.125
 49
0.125
 49
-0.125
 49
0.125
 49
-0.125
  0
ENDTAB
  0
TABLE
  2
LAYER
 70
     2
  0
LAYER
  2
0
 70
     0
 62
   255
  6
CONTINUOUS
  0
LAYER
  2
DEFPOINTS
 70
     0
 62
     7
  6
CONTINUOUS
  0
ENDTAB
  0
TABLE
  2
STYLE
 70
     1
  0
STYLE
  2
STANDARD
 70
     0
 40
0.0
 41
0.8
 50
0.0
 71
     0
 42
0.2
  3
txt
  4

  0
ENDTAB
  0
TABLE
  2
VIEW
 70
     0
  0
ENDTAB
  0
TABLE
  2
UCS
 70
     0
  0
ENDTAB
  0
TABLE
  2
APPID
 70
     9
  0
APPID
  2
ACAD
 70
     0
  0
APPID
  2
ACAD_MLEADERVER
 70
     0
  0
APPID
  2
ACAD_EXEMPT_FROM_CAD_STANDARDS
 70
     0
  0
APPID
  2
ACAD_NAV_VCDISPLAY
 70
     0
  0
APPID
  2
ACAECLAYERSTANDARD
 70
     0
  0
APPID
  2
ACCMTRANSPARENCY
 70
     0
  0
APPID
  2
ACAD_DSTYLE_DIMJAG
 70
     0
  0
APPID
  2
ACAD_DSTYLE_DIMTALN
 70
     0
  0
APPID
  2
ACDBATTR
 70
     0
  0
ENDTAB
  0
TABLE
  2
DIMSTYLE
 70
     1
  0
DIMSTYLE
  2
STANDARD
 70
     0
  3

  4

  5

  6

  7

 40
1.0
 41
0.1875
 42
0.0625
 43
0.38
 44
0.125
 45
0.0
 46
0.0
 47
0.01
 48
0.01
140
0.15625
141
0.09
142
0.0
143
25.3999999999999986
144
1.0
145
0.0
146
1.0
147
0.09
 71
     1
 72
     0
 73
     1
 74
     1
 75
     0
 76
     0
 77
     0
 78
     4
170
     0
171
     2
172
     0
173
     0
174
     0
175
     0
176
     0
177
     0
178
     0
  0
ENDTAB
  0
ENDSEC
  0
SECTION
  2
BLOCKS
  0
BLOCK
  8
0
  2
$MODEL_SPACE
 70
     0
 10
0.0
 20
0.0
 30
0.0
  3
$MODEL_SPACE
  1

  0
ENDBLK
  5
21
  8
0
  0
BLOCK
 67
     1
  8
0
  2
$PAPER_SPACE
 70
     0
 10
0.0
 20
0.0
 30
0.0
  3
$PAPER_SPACE
  1

  0
ENDBLK
  5
1D
 67
     1
  8
0
  0
ENDSEC
  0
SECTION
  2
ENTITIES
  0
ATTDEF
  5
A7B6
  8
DEFPOINTS
 10
4284.0861112837819746
 20
270.2395753572577064
 30
0.0
 40
0.001
  1
K-25317IN
  3

  2
MODELNUMBER
 70
     0
1001
ACDBATTR
1070
     0
1070
     1
  0
ATTDEF
  5
A7B7
  8
DEFPOINTS
 10
4284.0861112837819746
 20
270.2379086905909844
 30
0.0
 40
0.001
  1
SPAN
  3

  2
TRADENAME
 70
     0
1001
ACDBATTR
1070
     0
1070
     1
  0
ATTDEF
  5
A7B8
  8
DEFPOINTS
 10
4284.0861112837819746
 20
270.2362420239243761
 30
0.0
 40
0.001
  1
BATHROOM SINK
  3

  2
PRODUCT
 70
     0
1001
ACDBATTR
1070
     0
1070
     1
  0
LINE
  5
ADE6
  8
0
 10
4274.7849717674571366
 20
270.2357210384275277
 30
0.0
 11
4293.3869871429396881
 21
270.2357210384275277
 31
0.0
  0
ARC
  5
ADE7
  8
0
 10
4290.0902511072717971
 20
590.5740271275276427
 30
0.0
 40
339.6293721697526848
 50
268.0233050573573905
 51
268.9870215783327012
  0
ARC
  5
ADE8
  8
0
 10
4278.7084162125402145
 20
260.7950928856673727
 30
0.0
 40
9.654082738455779
 50
259.9317184231073838
 51
268.0233050573573905
  0
ARC
  5
ADE9
  8
0
 10
4277.9656093961739316
 20
255.6879085180399898
 30
0.0
 40
4.4985888187425029
 50
201.5893667959439881
 51
257.8746181478700237
  0
ARC
  5
ADEA
  8
0
 10
4280.2124993195466232
 20
256.1418809064786046
 30
0.0
 40
6.7669955590586621
 50
179.4627172840214939
 51
198.1613948428451124
  0
ARC
  5
ADEB
  8
0
 10
4274.8004654345431845
 20
270.1160977875779849
 30
0.0
 40
0.1206224517392466
 50
97.3798955325638076
 51
179.3362385514215873
  0
LINE
  5
ADEC
  8
0
 10
4274.679851076968589
 20
270.1174951460413922
 30
0.0
 11
4274.6825756763191748
 21
267.2060189623165911
 31
0.0
  0
ARC
  5
ADED
  8
0
 10
4270.4133003644355995
 20
267.1958746917737244
 30
0.0
 40
4.269287363821471
 50
342.0700573969876928
 51
0.1361408570850304
  0
ARC
  5
ADEE
  8
0
 10
4264.2234999580159638
 20
269.1986985853855003
 30
0.0
 40
10.7750488580767403
 50
335.4016681585691231
 51
342.0700573969876928
  0
ARC
  5
ADEF
  8
0
 10
4280.4211253442790621
 20
261.7834171194866144
 30
0.0
 40
7.0392562749397873
 50
155.4016681585690947
 51
178.720624130843305
  0
ARC
  5
ADF0
  8
0
 10
4285.7582871435106426
 20
261.4896381150758771
 30
0.0
 40
12.3828770814376092
 50
177.9129957049547954
 51
180.523750384853912
  0
ARC
  5
ADF1
  8
0
 10
4396.8864461687762741
 20
262.5055076570280903
 30
0.0
 40
123.5156792564514063
 50
180.523750384853912
 51
181.7131157323358082
  0
ARC
  5
ADF2
  8
0
 10
4214.9669082660657295
 20
257.0645811571343984
 30
0.0
 40
58.4852052246755889
 50
359.1581996732414837
 51
1.7131157323358239
  0
CIRCLE
  5
ADF3
  8
0
 10
4284.0859815433477706
 20
267.4798154831274815
 30
0.0
 40
0.6889763779999996
  0
ARC
  5
ADF4
  8
0
 10
4284.0858724076224462
 20
263.7015324815337181
 30
0.0
 40
1.0991915186023811
 50
81.6815861241839798
 51
101.2378014467737017
  0
ARC
  5
ADF5
  8
0
 10
4284.1141881163293874
 20
263.8951938733815155
 30
0.0
 40
0.9034710187767737
 50
69.1334003842672757
 51
81.6815861241839798
  0
ARC
  5
ADF6
  8
0
 10
4284.357839616963247
 20
264.5343718778731841
 30
0.0
 40
0.2194282019974764
 50
52.1574930147287432
 51
69.1334003842672757
  0
ARC
  5
ADF7
  8
0
 10
4284.4356102509791526
 20
264.6344797314380912
 30
0.0
 40
0.0926612746835191
 50
31.3115589489128787
 51
52.1574930147287432
  0
ARC
  5
ADF8
  8
0
 10
4284.4877160039259252
 20
264.6661749254727738
 30
0.0
 40
0.0316727936801432
 50
321.3390509680814944
 51
31.3115589489156605
  0
ARC
  5
ADF9
  8
0
 10
4284.003677065960801
 20
264.0975200215918903
 30
0.0
 40
0.6947865369154559
 50
100.9533983903559999
 51
114.7933961802658018
  0
ARC
  5
ADFA
  8
0
 10
4283.7771912503530984
 20
264.5878286438507985
 30
0.0
 40
0.1546954615096451
 50
114.7933961802658018
 51
132.8804099410864978
  0
ARC
  5
ADFB
  8
0
 10
4283.7276177748526607
 20
264.6412126488509102
 30
0.0
 40
0.0818436841593038
 50
132.8804099410843094
 51
147.3750818404170957
  0
ARC
  5
ADFC
  8
0
 10
4283.688394223018804
 20
264.6663211987425939
 30
0.0
 40
0.0352719513571803
 50
147.3750818404170957
 51
224.3999902326619917
  0
ARC
  5
ADFD
  8
0
 10
4283.7752587465993201
 20
264.7626994277808876
 30
0.0
 40
0.1649647732553428
 50
227.2087600730511099
 51
251.5418978620328119
  0
ARC
  5
ADFE
  8
0
 10
4283.9547576571440004
 20
265.3004716797298101
 30
0.0
 40
0.731902912608086
 50
251.5418978620328119
 51
262.1095805404581824
  0
ARC
  5
ADFF
  8
0
 10
4284.0761524726358402
 20
266.1763927796774283
 30
0.0
 40
1.6161961188252461
 50
262.1095805404581824
 51
267.2587605482768822
  0
ARC
  5
AE00
  8
0
 10
4284.0857892749609164
 20
266.377661860628109
 30
0.0
 40
1.8176957736780359
 50
267.2587605482768822
 51
275.0483909345621214
  0
ARC
  5
AE01
  8
0
 10
4284.1397963329409322
 20
265.7663057691381141
 30
0.0
 40
1.203958832543319
 50
275.0483909345621214
 51
280.7301815987102032
  0
ARC
  5
AE02
  8
0
 10
4284.2584738548312089
 20
265.1400312025285757
 30
0.0
 40
0.5665388869940382
 50
280.7301815987102032
 51
290.7475815321952837
  0
ARC
  5
AE03
  8
0
 10
4284.4029621766976561
 20
264.7586122025360851
 30
0.0
 40
0.15866963256174
 50
290.7475815321952837
 51
305.821096580883875
  0
ARC
  5
AE04
  8
0
 10
4284.4513625119616336
 20
264.6915555382227012
 30
0.0
 40
0.0759702451244167
 50
305.8210965808858077
 51
323.5205350725241829
  0
LINE
  5
AE05
  8
0
 10
4289.4477066373492562
 20
265.7081625916275129
 30
0.0
 11
4278.7242492511486489
 21
265.7081619405274751
 31
0.0
  0
ARC
  5
AE06
  8
0
 10
4278.7242497842780722
 20
256.9276488518307815
 30
0.0
 40
8.7805130886967682
 50
90.0000034788253629
 51
103.4299781526401034
  0
ARC
  5
AE07
  8
0
 10
4277.6449436293178223
 20
261.4476102673689866
 30
0.0
 40
4.1334760785052858
 50
103.4299781526401034
 51
132.4129392961395979
  0
ARC
  5
AE08
  8
0
 10
4277.7779835295459634
 20
261.3724739845973204
 30
0.0
 40
4.2789449034495988
 50
133.0496100230500929
 51
162.4746172576678873
  0
ARC
  5
AE09
  8
0
 10
4284.7373023569316501
 20
259.2134484359128805
 30
0.0
 40
11.5654397970633607
 50
162.6571062522071998
 51
169.2209294400101101
  0
CIRCLE
  5
AE0A
  8
0
 10
4284.0859815433477706
 20
261.3774532784275948
 30
0.0
 40
0.8858267716999996
  0
CIRCLE
  5
AE0B
  8
0
 10
4284.0859815433477706
 20
261.3774532784275948
 30
0.0
 40
1.10110755130217
  0
POINT
  5
AE0C
  8
DEFPOINTS
 10
4284.0859815433477706
 20
267.4798154831274815
 30
0.0
  0
ARC
  5
AE0D
  8
0
 10
4278.0817078031241181
 20
590.5740271275276427
 30
0.0
 40
339.6293721697526848
 50
271.0129784216672988
 51
271.9766949426426095
  0
ARC
  5
AE0E
  8
0
 10
4289.4635426978557007
 20
260.7950928856673727
 30
0.0
 40
9.654082738455779
 50
271.9766949426426095
 51
280.0682815768926162
  0
ARC
  5
AE0F
  8
0
 10
4290.2063495142238025
 20
255.6879085180399898
 30
0.0
 40
4.4985888187425029
 50
282.1253818521299763
 51
338.4106332040560119
  0
ARC
  5
AE10
  8
0
 10
4287.959459590851111
 20
256.1418809064786046
 30
0.0
 40
6.7669955590586621
 50
341.838605157154916
 51
0.5372827159784918
  0
ARC
  5
AE11
  8
0
 10
4293.3714934758545496
 20
270.1160977875779849
 30
0.0
 40
0.1206224517392466
 50
0.6637614485783661
 51
82.6201044674362066
  0
LINE
  5
AE12
  8
0
 10
4293.4921078334282356
 20
270.1174951460413922
 30
0.0
 11
4293.4893832340776498
 21
267.2060189623165911
 31
0.0
  0
ARC
  5
AE13
  8
0
 10
4297.7586585459612252
 20
267.1958746917737244
 30
0.0
 40
4.269287363821471
 50
179.863859142915004
 51
197.9299426030123072
  0
ARC
  5
AE14
  8
0
 10
4303.9484589523808609
 20
269.1986985853855003
 30
0.0
 40
10.7750488580767403
 50
197.9299426030123072
 51
204.5983318414309053
  0
ARC
  5
AE15
  8
0
 10
4287.750833566118672
 20
261.7834171194866144
 30
0.0
 40
7.0392562749397873
 50
1.2793758691567341
 51
24.5983318414308698
  0
ARC
  5
AE16
  8
0
 10
4282.413671766886182
 20
261.4896381150758771
 30
0.0
 40
12.3828770814376092
 50
359.4762496151461164
 51
2.087004295045249
  0
ARC
  5
AE17
  8
0
 10
4171.2855127416205505
 20
262.5055076570280903
 30
0.0
 40
123.5156792564514063
 50
358.2868842676642203
 51
359.4762496151461164
  0
ARC
  5
AE18
  8
0
 10
4353.2050506443310951
 20
257.0645811571343984
 30
0.0
 40
58.4852052246755889
 50
178.2868842676641918
 51
180.8418003267584879
  0
ARC
  5
AE19
  8
0
 10
4289.4477091261187525
 20
256.9276488518307815
 30
0.0
 40
8.7805130886967682
 50
76.5700218473598966
 51
89.9999965211746371
  0
ARC
  5
AE1A
  8
0
 10
4290.5270152810799118
 20
261.4476102673689866
 30
0.0
 40
4.1334760785052858
 50
47.5870607038604234
 51
76.5700218473598966
  0
ARC
  5
AE1B
  8
0
 10
4290.3939753808508613
 20
261.3724739845973204
 30
0.0
 40
4.2789449034495988
 50
17.5253827423321091
 51
46.9503899769498929
  0
ARC
  5
AE1C
  8
0
 10
4283.434656553466084
 20
259.2134484359128805
 30
0.0
 40
11.5654397970633607
 50
10.7790705599898704
 51
17.3428937477927505
  0
ARC
  5
AE1E
  8
0
 10
4277.8932338528647961
 20
261.229294802284528
 30
0.0
 40
3.697742632022424
 50
130.180847831576699
 51
177.7036802165303015
  0
ARC
  5
AE1F
  8
0
 10
4277.9346767036995516
 20
260.4545323216273118
 30
0.0
 40
4.3417295088313024
 50
94.7043805139179256
 51
123.9899836997663982
  0
ARC
  5
AE20
  8
0
 10
4278.5514088861164055
 20
252.9600899518700032
 30
0.0
 40
11.8615051051135296
 50
88.5057188331959992
 51
94.7043805139179256
  0
ARC
  5
AE21
  8
0
 10
4245.183954463432201
 20
1807.8651603949599576
 30
0.0
 40
1543.4150503635669338
 50
271.2502728064749249
 51
271.4443023857385242
  0
ARC
  5
AE22
  8
0
 10
4287.2343963161602005
 20
538.7983381846518114
 30
0.0
 40
286.8465658125218738
 50
268.1810969060425123
 51
269.3711115673722247
  0
ARC
  5
AE23
  8
0
 10
4278.2584734010570173
 20
256.1501168859279005
 30
0.0
 40
4.0558584059482516
 50
183.7560301717815037
 51
268.1810969060425123
  0
LINE
  5
AE24
  8
0
 10
4274.2113268399652952
 20
255.8844251055820962
 30
0.0
 11
4274.1984606161722695
 21
261.377454520448623
 31
0.0
  0
ARC
  5
AE25
  8
0
 10
4290.2787292338316547
 20
261.229294802284528
 30
0.0
 40
3.697742632022424
 50
2.2963197834697029
 51
49.8191521684232796
  0
ARC
  5
AE26
  8
0
 10
4290.2372863829987182
 20
260.4545323216273118
 30
0.0
 40
4.3417295088313024
 50
56.0100163002336231
 51
85.2956194860820887
  0
ARC
  5
AE27
  8
0
 10
4289.6205542005800453
 20
252.9600899518700032
 30
0.0
 40
11.8615051051135296
 50
85.2956194860820887
 51
91.4942811668039866
  0
ARC
  5
AE28
  8
0
 10
4322.9880086232651593
 20
1807.8651603949599576
 30
0.0
 40
1543.4150503635669338
 50
268.5556976142614758
 51
268.7497271935250751
  0
ARC
  5
AE29
  8
0
 10
4280.9375695501230439
 20
538.7981962864220122
 30
0.0
 40
286.8464238975628859
 50
270.6288882837400251
 51
271.8189034386838898
  0
ARC
  5
AE2A
  8
0
 10
4289.9134896856412524
 20
256.1501168859279005
 30
0.0
 40
4.0558584059482516
 50
271.8189030939574877
 51
356.2439698282184963
  0
LINE
  5
AE2B
  8
0
 10
4293.960636246732065
 20
255.8844251055820962
 30
0.0
 11
4293.9735024705260003
 21
261.377454520448623
 31
0.0
  0
ENDSEC
  0
EOF
