  0
SECTION
  2
HEADER
  9
$ACADVER
  1
AC1009
  9
$INSBASE
 10
585.0665742234192521
 20
149.1113218883415925
 30
0.0
  9
$EXTMIN
 10
579.8955348341027047
 20
148.5207550289831033
 30
0.0
  9
$EXTMAX
 10
590.2376136127361406
 20
149.7018887477001101
 30
0.0
  9
$LIMMIN
 10
0.0
 20
0.0
  9
$LIMMAX
 10
11.6929133858000007
 20
8.2677165353999982
  9
$ORTHOMODE
 70
     1
  9
$REGENMODE
 70
     1
  9
$FILLMODE
 70
     1
  9
$QTEXTMODE
 70
     0
  9
$MIRRTEXT
 70
     0
  9
$DRAGMODE
 70
     2
  9
$LTSCALE
 40
0.6431102362
  9
$OSMODE
 70
     7
  9
$ATTMODE
 70
     1
  9
$TEXTSIZE
 40
0.2
  9
$TRACEWID
 40
0.05
  9
$TEXTSTYLE
  7
STANDARD
  9
$CLAYER
  8
0
  9
$CELTYPE
  6
BYLAYER
  9
$CECOLOR
 62
   256
  9
$DIMSCALE
 40
1.0
  9
$DIMASZ
 40
0.1875
  9
$DIMEXO
 40
0.0625
  9
$DIMDLI
 40
0.4443307087
  9
$DIMRND
 40
0.0
  9
$DIMDLE
 40
0.0
  9
$DIMEXE
 40
0.125
  9
$DIMTP
 40
0.01
  9
$DIMTM
 40
0.01
  9
$DIMTXT
 40
2.0
  9
$DIMCEN
 40
0.1052362205
  9
$DIMTSZ
 40
0.0
  9
$DIMTOL
 70
     1
  9
$DIMLIM
 70
     0
  9
$DIMTIH
 70
     1
  9
$DIMTOH
 70
     1
  9
$DIMSE1
 70
     0
  9
$DIMSE2
 70
     0
  9
$DIMTAD
 70
     0
  9
$DIMZIN
 70
     0
  9
$DIMBLK
  1

  9
$DIMASO
 70
     1
  9
$DIMSHO
 70
     1
  9
$DIMPOST
  1
\X
  9
$DIMAPOST
  1

  9
$DIMALT
 70
     1
  9
$DIMALTD
 70
     2
  9
$DIMALTF
 40
25.3999999999999986
  9
$DIMLFAC
 40
1.0
  9
$DIMTOFL
 70
     0
  9
$DIMTVP
 40
0.0
  9
$DIMTIX
 70
     0
  9
$DIMSOXD
 70
     0
  9
$DIMSAH
 70
     0
  9
$DIMBLK1
  1

  9
$DIMBLK2
  1

  9
$DIMSTYLE
  2
STANDARD
  9
$DIMCLRD
 70
     0
  9
$DIMCLRE
 70
     0
  9
$DIMCLRT
 70
     0
  9
$DIMTFAC
 40
1.0
  9
$DIMGAP
 40
0.09
  9
$LUNITS
 70
     2
  9
$LUPREC
 70
     4
  9
$SKETCHINC
 40
0.1
  9
$FILLETRAD
 40
0.0
  9
$AUNITS
 70
     0
  9
$AUPREC
 70
     0
  9
$MENU
  1
.
  9
$ELEVATION
 40
0.0
  9
$PELEVATION
 40
0.0
  9
$THICKNESS
 40
0.0
  9
$LIMCHECK
 70
     0
  9
$BLIPMODE
 70
     0
  9
$CHAMFERA
 40
0.0
  9
$CHAMFERB
 40
0.0
  9
$SKPOLY
 70
     0
  9
$TDCREATE
 40
2458106.4931018520146608
  9
$TDUPDATE
 40
2459658.9771527778357267
  9
$TDINDWG
 40
0.2448943981
  9
$TDUSRTIMER
 40
0.2448943981
  9
$USRTIMER
 70
     1
  9
$ANGBASE
 50
0.0
  9
$ANGDIR
 70
     0
  9
$PDMODE
 70
     0
  9
$PDSIZE
 40
0.3125
  9
$PLINEWID
 40
0.0
  9
$COORDS
 70
     1
  9
$SPLFRAME
 70
     0
  9
$SPLINETYPE
 70
     6
  9
$SPLINESEGS
 70
     8
  9
$ATTDIA
 70
     1
  9
$ATTREQ
 70
     1
  9
$HANDLING
 70
     1
  9
$HANDSEED
  5
27E4
  9
$SURFTAB1
 70
     6
  9
$SURFTAB2
 70
     6
  9
$SURFTYPE
 70
     6
  9
$SURFU
 70
     6
  9
$SURFV
 70
     6
  9
$UCSNAME
  2

  9
$UCSORG
 10
0.0
 20
0.0
 30
0.0
  9
$UCSXDIR
 10
1.0
 20
0.0
 30
0.0
  9
$UCSYDIR
 10
0.0
 20
1.0
 30
0.0
  9
$PUCSNAME
  2

  9
$PUCSORG
 10
0.0
 20
0.0
 30
0.0
  9
$PUCSXDIR
 10
1.0
 20
0.0
 30
0.0
  9
$PUCSYDIR
 10
0.0
 20
1.0
 30
0.0
  9
$USERI1
 70
     0
  9
$USERI2
 70
     0
  9
$USERI3
 70
     0
  9
$USERI4
 70
     0
  9
$USERI5
 70
     0
  9
$USERR1
 40
0.0
  9
$USERR2
 40
0.0
  9
$USERR3
 40
0.0
  9
$USERR4
 40
0.0
  9
$USERR5
 40
0.0
  9
$WORLDVIEW
 70
     1
  9
$SHADEDGE
 70
     3
  9
$SHADEDIF
 70
    70
  9
$TILEMODE
 70
     1
  9
$MAXACTVP
 70
    64
  9
$PLIMCHECK
 70
     0
  9
$PEXTMIN
 10
1.0000000000000000E+20
 20
1.0000000000000000E+20
 30
1.0000000000000000E+20
  9
$PEXTMAX
 10
-1.0000000000000000E+20
 20
-1.0000000000000000E+20
 30
-1.0000000000000000E+20
  9
$PLIMMIN
 10
0.0
 20
0.0
  9
$PLIMMAX
 10
12.0
 20
9.0
  9
$UNITMODE
 70
     0
  9
$VISRETAIN
 70
     1
  9
$PLINEGEN
 70
     0
  9
$PSLTSCALE
 70
     1
  0
ENDSEC
  0
SECTION
  2
TABLES
  0
TABLE
  2
VPORT
 70
     1
  0
VPORT
  2
*ACTIVE
 70
     0
 10
0.0
 20
0.0
 11
1.0
 21
1.0
 12
311.4935238579515726
 22
166.7160153282306112
 13
0.0
 23
0.0
 14
1.0
 24
1.0
 15
0.0
 25
0.0
 16
-0.0000000000000568
 26
0.0
 36
193.9250709296327955
 17
273.5742015565131169
 27
-17.6059607340214797
 37
0.0
 40
4.5524639803341991
 41
2.2831541218637992
 42
50.0
 43
0.0
 44
0.0
 50
0.0
 51
0.0
 71
     0
 72
   100
 73
     1
 74
     1
 75
     0
 76
     0
 77
     0
 78
     0
  0
ENDTAB
  0
TABLE
  2
LTYPE
 70
     2
  0
LTYPE
  2
CONTINUOUS
 70
     0
  3
Solid line
 72
    65
 73
     0
 40
0.0
  0
LTYPE
  2
PHANTOM2
 70
     0
  3
___ _ _ ___ _ _ ___ _ _ ___ _ _
 72
    65
 73
     6
 40
1.25
 49
0.625
 49
-0.125
 49
0.125
 49
-0.125
 49
0.125
 49
-0.125
  0
ENDTAB
  0
TABLE
  2
LAYER
 70
     2
  0
LAYER
  2
0
 70
     0
 62
   255
  6
CONTINUOUS
  0
LAYER
  2
DEFPOINTS
 70
     0
 62
     7
  6
CONTINUOUS
  0
ENDTAB
  0
TABLE
  2
STYLE
 70
     1
  0
STYLE
  2
STANDARD
 70
     0
 40
0.0
 41
0.8
 50
0.0
 71
     0
 42
0.2
  3
txt
  4

  0
ENDTAB
  0
TABLE
  2
VIEW
 70
     0
  0
ENDTAB
  0
TABLE
  2
UCS
 70
     0
  0
ENDTAB
  0
TABLE
  2
APPID
 70
     9
  0
APPID
  2
ACAD
 70
     0
  0
APPID
  2
ACAD_MLEADERVER
 70
     0
  0
APPID
  2
ACAD_EXEMPT_FROM_CAD_STANDARDS
 70
     0
  0
APPID
  2
ACAD_NAV_VCDISPLAY
 70
     0
  0
APPID
  2
ACAD_DSTYLE_DIMJAG
 70
     0
  0
APPID
  2
ACAD_DSTYLE_DIMTALN
 70
     0
  0
APPID
  2
ACAECLAYERSTANDARD
 70
     0
  0
APPID
  2
ACCMTRANSPARENCY
 70
     0
  0
APPID
  2
ACDBATTR
 70
     0
  0
ENDTAB
  0
TABLE
  2
DIMSTYLE
 70
     1
  0
DIMSTYLE
  2
STANDARD
 70
     0
  3

  4

  5

  6

  7

 40
1.0
 41
0.1875
 42
0.0625
 43
0.38
 44
0.125
 45
0.0
 46
0.0
 47
0.01
 48
0.01
140
0.15625
141
0.09
142
0.0
143
25.3999999999999986
144
1.0
145
0.0
146
1.0
147
0.09
 71
     1
 72
     0
 73
     1
 74
     1
 75
     0
 76
     0
 77
     0
 78
     4
170
     0
171
     2
172
     0
173
     0
174
     0
175
     0
176
     0
177
     0
178
     0
  0
ENDTAB
  0
ENDSEC
  0
SECTION
  2
BLOCKS
  0
BLOCK
  8
0
  2
$MODEL_SPACE
 70
     0
 10
0.0
 20
0.0
 30
0.0
  3
$MODEL_SPACE
  1

  0
ENDBLK
  5
21
  8
0
  0
BLOCK
 67
     1
  8
0
  2
$PAPER_SPACE
 70
     0
 10
0.0
 20
0.0
 30
0.0
  3
$PAPER_SPACE
  1

  0
ENDBLK
  5
1D
 67
     1
  8
0
  0
ENDSEC
  0
SECTION
  2
ENTITIES
  0
ATTDEF
  5
FAA
  8
DEFPOINTS
 10
585.0666688854537369
 20
149.1147652574568951
 30
0.0
 40
0.001
  1
K-25347IN
  3

  2
MODELNUMBER
 70
     0
1001
ACDBATTR
1070
     0
1070
     1
  0
ATTDEF
  5
FAB
  8
DEFPOINTS
 10
585.0666688854537369
 20
149.1130985907902016
 30
0.0
 40
0.001
  1

  3

  2
TRADENAME
 70
     0
1001
ACDBATTR
1070
     0
1070
     1
  0
ATTDEF
  5
FAC
  8
DEFPOINTS
 10
585.0666688854537369
 20
149.1114319241235933
 30
0.0
 40
0.001
  1
TOWEL RING
  3

  2
PRODUCT
 70
     0
1001
ACDBATTR
1070
     0
1070
     1
  0
LINE
  5
2689
  8
0
 10
588.6098724464349061
 20
149.465652596991589
 30
0.0
 11
581.5232760004039392
 21
149.465652596991589
 31
0.0
  0
LINE
  5
268A
  8
0
 10
580.1730112887679525
 20
149.4612119438583022
 30
0.0
 11
581.0553570508037637
 21
149.6772879919915908
 31
0.0
  0
ARC
  5
268B
  8
0
 10
581.2606656812179153
 20
148.8328741651704945
 30
0.0
 40
0.8690145825296248
 50
76.3344155322774611
 51
103.6655844677224962
  0
ARC
  5
268C
  8
0
 10
581.2842643120513912
 20
148.92000084916981
 30
0.0
 40
0.7787826016487865
 50
56.5232587619866678
 51
76.5070506556710512
  0
ARC
  5
268D
  8
0
 10
581.3427445860359057
 20
149.0118335982415942
 30
0.0
 40
0.6699290038337328
 50
42.6418594711704984
 51
56.3628278925927333
  0
LINE
  5
268E
  8
0
 10
580.3718750584039299
 20
149.4701336731916115
 30
0.0
 11
581.5232760004039392
 21
149.465652596991589
 31
0.0
  0
LINE
  5
268F
  8
0
 10
580.3718750584039299
 20
149.4701336731916115
 30
0.0
 11
580.2536836946037511
 21
149.4702003872916123
 31
0.0
  0
ARC
  5
2690
  8
0
 10
580.2519947683044848
 20
149.1188420164114063
 30
0.0
 40
0.3513624300627748
 50
89.7245900152432654
 51
123.211764127002894
  0
ARC
  5
2691
  8
0
 10
581.4419586691974473
 20
156.3905866065244936
 30
0.0
 40
6.9244781807166458
 50
266.2575441018253173
 51
268.3047865478840208
  0
ARC
  5
2692
  8
0
 10
581.4586263034261719
 20
156.9274508461427047
 30
0.0
 40
7.4616005685260447
 50
268.2988092206769011
 51
269.4652890234901861
  0
ARC
  5
2693
  8
0
 10
581.3965576563673494
 20
155.7898023473699141
 30
0.0
 40
6.3220146083218189
 50
264.7026071789757111
 51
266.3127368178256802
  0
ARC
  5
2694
  8
0
 10
581.059031345575022
 20
152.2768656196410006
 30
0.0
 40
2.7929444970149611
 50
261.6909367578634829
 51
264.9436907185822747
  0
ARC
  5
2695
  8
0
 10
580.799004221381324
 20
150.4380020698993121
 30
0.0
 40
0.9358444497264486
 50
252.4858008140743948
 51
261.1741057421377263
  0
LINE
  5
2696
  8
0
 10
580.1730112887679525
 20
148.7614318328249965
 30
0.0
 11
581.0396331795451488
 21
148.5492063749126999
 31
0.0
  0
ARC
  5
2697
  8
0
 10
581.2606656812179153
 20
149.3897696115126905
 30
0.0
 40
0.8690145825296248
 50
266.8180959754232049
 51
283.6655844677226241
  0
ARC
  5
2698
  8
0
 10
581.2842643120513912
 20
149.3026429275134035
 30
0.0
 40
0.7787826016487865
 50
283.4929493443290198
 51
303.4767412380134033
  0
ARC
  5
2699
  8
0
 10
581.3427445860359057
 20
149.2108101784415908
 30
0.0
 40
0.6699290038337328
 50
303.6371721074062862
 51
317.3581405288294945
  0
LINE
  5
269A
  8
0
 10
580.3718750584039299
 20
148.752510103491602
 30
0.0
 11
581.5232760004039392
 21
148.756991179691596
 31
0.0
  0
LINE
  5
269B
  8
0
 10
580.3718750584039299
 20
148.752510103491602
 30
0.0
 11
580.2536836946037511
 21
148.7524433893916012
 31
0.0
  0
ARC
  5
269C
  8
0
 10
580.2519947683044848
 20
149.1038017602718071
 30
0.0
 40
0.3513624300627748
 50
236.7882358729970917
 51
270.2754099847567204
  0
ARC
  5
269D
  8
0
 10
581.4419586691974473
 20
141.8320571701586914
 30
0.0
 40
6.9244781807166458
 50
91.6952134521160076
 51
93.7424558981746685
  0
ARC
  5
269E
  8
0
 10
581.4586263034261719
 20
141.2951929305405088
 30
0.0
 40
7.4616005685260447
 50
90.5347109765097855
 51
91.7011907793230705
  0
ARC
  5
269F
  8
0
 10
581.3965576563673494
 20
142.4328414293132994
 30
0.0
 40
6.3220146083218189
 50
93.6872631821743056
 51
95.2973928210242889
  0
ARC
  5
26A0
  8
0
 10
581.059031345575022
 20
145.9457781570422981
 30
0.0
 40
2.7929444970149611
 50
95.0563092814177537
 51
98.3090632421364745
  0
ARC
  5
26A1
  8
0
 10
580.799004221381324
 20
147.7846417067839013
 30
0.0
 40
0.9358444497264486
 50
98.8258942578623021
 51
107.5141991859256052
  0
ARC
  5
26A2
  8
0
 10
580.2546464309068597
 20
149.1113218883415925
 30
0.0
 40
0.3591115968042501
 50
122.9085374200992931
 51
237.0914625798951931
  0
LINE
  5
26A3
  8
0
 10
589.9601371580707792
 20
149.4612119438583022
 30
0.0
 11
589.0777913960348542
 21
149.6772879919915908
 31
0.0
  0
ARC
  5
26A4
  8
0
 10
588.8724827656208163
 20
148.8328741651704945
 30
0.0
 40
0.8690145825296248
 50
76.3344155322774611
 51
103.6655844677224962
  0
ARC
  5
26A5
  8
0
 10
588.8488841347874541
 20
148.92000084916981
 30
0.0
 40
0.7787826016487865
 50
103.4929493443289061
 51
123.4767412380133038
  0
ARC
  5
26A6
  8
0
 10
588.7904038608029396
 20
149.0118335982415942
 30
0.0
 40
0.6699290038337328
 50
123.6371721074072951
 51
137.3581405288294945
  0
LINE
  5
26A7
  8
0
 10
589.7612733884349154
 20
149.4701336731916115
 30
0.0
 11
588.6098724464349061
 21
149.465652596991589
 31
0.0
  0
LINE
  5
26A8
  8
0
 10
589.7612733884349154
 20
149.4701336731916115
 30
0.0
 11
589.8794647522349806
 21
149.4702003872916123
 31
0.0
  0
ARC
  5
26A9
  8
0
 10
589.8811536785342469
 20
149.1188420164114063
 30
0.0
 40
0.3513624300627748
 50
56.7882358729970704
 51
90.2754099847567488
  0
ARC
  5
26AA
  8
0
 10
588.6911897776412843
 20
156.3905866065244936
 30
0.0
 40
6.9244781807166458
 50
271.6952134521159792
 51
273.7424558981746827
  0
ARC
  5
26AB
  8
0
 10
588.6745221434125597
 20
156.9274508461427047
 30
0.0
 40
7.4616005685260447
 50
270.5347109765098139
 51
271.7011907793230989
  0
ARC
  5
26AC
  8
0
 10
588.7365907904713822
 20
155.7898023473699141
 30
0.0
 40
6.3220146083218189
 50
273.6872631821743198
 51
275.2973928210241752
  0
ARC
  5
26AD
  8
0
 10
589.0741171012638233
 20
152.2768656196410006
 30
0.0
 40
2.7929444970149611
 50
275.0563092814177253
 51
278.3090632421365171
  0
ARC
  5
26AE
  8
0
 10
589.3341442254575213
 20
150.4380020698993121
 30
0.0
 40
0.9358444497264486
 50
278.8258942578622737
 51
287.5141991859255768
  0
LINE
  5
26AF
  8
0
 10
581.5232760004039392
 20
148.756991179691596
 30
0.0
 11
588.6098724464349061
 21
148.756991179691596
 31
0.0
  0
LINE
  5
26B0
  8
0
 10
589.9601371580707792
 20
148.7614318328249965
 30
0.0
 11
589.0777913960348542
 21
148.5453557846915942
 31
0.0
  0
ARC
  5
26B1
  8
0
 10
588.8724827656208163
 20
149.3897696115126905
 30
0.0
 40
0.8690145825296248
 50
256.3344155322773759
 51
273.1819040245832753
  0
ARC
  5
26B2
  8
0
 10
588.8724827656208163
 20
149.3897696115126905
 30
0.0
 40
0.8690145825296248
 50
283.6340148620191144
 51
283.6655844677226241
  0
ARC
  5
26B3
  8
0
 10
588.8488841347874541
 20
149.3026429275134035
 30
0.0
 40
0.7787826016487865
 50
236.5232587619867104
 51
256.5070506556709802
  0
ARC
  5
26B4
  8
0
 10
588.7904038608029396
 20
149.2108101784415908
 30
0.0
 40
0.6699290038337328
 50
222.6418594711705055
 51
236.3628278925936002
  0
LINE
  5
26B5
  8
0
 10
589.7612733884349154
 20
148.752510103491602
 30
0.0
 11
588.6098724464349061
 21
148.756991179691596
 31
0.0
  0
LINE
  5
26B6
  8
0
 10
589.7612733884349154
 20
148.752510103491602
 30
0.0
 11
589.8794647522349806
 21
148.7524433893916012
 31
0.0
  0
ARC
  5
26B7
  8
0
 10
589.8811536785342469
 20
149.1038017602718071
 30
0.0
 40
0.3513624300627748
 50
269.7245900152432796
 51
303.2117641270028798
  0
ARC
  5
26B8
  8
0
 10
588.6911897776412843
 20
141.8320571701586914
 30
0.0
 40
6.9244781807166458
 50
86.2575441018253315
 51
88.3047865478840066
  0
ARC
  5
26B9
  8
0
 10
588.6745221434125597
 20
141.2951929305405088
 30
0.0
 40
7.4616005685260447
 50
88.2988092206769153
 51
89.4652890234902145
  0
ARC
  5
26BA
  8
0
 10
588.7365907904713822
 20
142.4328414293132994
 30
0.0
 40
6.3220146083218189
 50
84.7026071789757253
 51
86.3127368178256802
  0
ARC
  5
26BB
  8
0
 10
589.0741171012638233
 20
145.9457781570422981
 30
0.0
 40
2.7929444970149611
 50
81.6909367578635255
 51
84.9436907185822605
  0
ARC
  5
26BC
  8
0
 10
589.3341442254575213
 20
147.7846417067839013
 30
0.0
 40
0.9358444497264486
 50
72.4858008140744232
 51
81.1741057421376837
  0
ARC
  5
26BD
  8
0
 10
589.8785020159317583
 20
149.1113218883415925
 30
0.0
 40
0.3591115968042501
 50
302.9085374201048921
 51
57.0914625799006501
  0
LINE
  5
26BF
  8
0
 10
581.0376307408192815
 20
148.5220947498916075
 30
0.0
 11
581.0376307408192815
 21
148.5238418004921925
 31
0.0
  0
LINE
  5
26C0
  8
0
 10
581.0376307408192815
 20
148.5486806722757933
 30
0.0
 11
581.0376307408192815
 21
148.5496967484886
 31
0.0
  0
LINE
  5
26C1
  8
0
 10
581.2154571609563618
 20
148.5220947498916075
 30
0.0
 11
581.2344695446194009
 21
148.5331522734936129
 31
0.0
  0
LINE
  5
26C2
  8
0
 10
581.2344695446194009
 20
148.5331522734936129
 30
0.0
 11
581.2344695446194009
 21
148.5426846915939905
 31
0.0
  0
LINE
  5
26C3
  8
0
 10
581.0590318096703868
 20
148.5362917772108915
 30
0.0
 11
581.0376307408192815
 21
148.5238418004921925
 31
0.0
  0
LINE
  5
26C4
  8
0
 10
581.0590318096703868
 20
148.5362917772108915
 30
0.0
 11
581.0376307408192815
 21
148.5486806722757933
 31
0.0
  0
LINE
  5
26C5
  8
0
 10
581.0376307408192815
 20
148.5491887103821966
 30
0.0
 11
581.1337470227193762
 21
148.5500366009916036
 31
0.0
  0
ARC
  5
26C6
  8
0
 10
581.1392061554341808
 20
147.9311931639508941
 30
0.0
 40
0.6188675154654194
 50
81.1451507145052346
 51
90.5054221027110231
  0
LINE
  5
26C7
  8
0
 10
581.0590318096703868
 20
148.5362917772108915
 30
0.0
 11
581.1867503738922096
 21
148.5482316951541861
 31
0.0
  0
LINE
  5
26C8
  8
0
 10
581.2344695446194009
 20
148.5379184825438017
 30
0.0
 11
581.0376307408192815
 21
148.5220947498916075
 31
0.0
  0
LINE
  5
26C9
  8
0
 10
581.0376307408192815
 20
148.5220947498916075
 30
0.0
 11
581.2154571609563618
 21
148.5220947498916075
 31
0.0
  0
LINE
  5
26CA
  8
0
 10
588.8986789022194444
 20
148.5220947498916075
 30
0.0
 11
588.8986789022194444
 21
148.5238418004921925
 31
0.0
  0
LINE
  5
26CB
  8
0
 10
588.8986789022194444
 20
148.5486806722757933
 30
0.0
 11
588.8986789022194444
 21
148.5496967484886
 31
0.0
  0
LINE
  5
26CC
  8
0
 10
589.0765053223564109
 20
148.5220947498916075
 30
0.0
 11
589.0955177060194501
 21
148.5331522734936129
 31
0.0
  0
LINE
  5
26CD
  8
0
 10
589.0955177060194501
 20
148.5331522734936129
 30
0.0
 11
589.0955177060194501
 21
148.5426846915939905
 31
0.0
  0
LINE
  5
26CE
  8
0
 10
588.9200799710703222
 20
148.5362917772108915
 30
0.0
 11
588.8986789022194444
 21
148.5238418004921925
 31
0.0
  0
LINE
  5
26CF
  8
0
 10
588.9200799710703222
 20
148.5362917772108915
 30
0.0
 11
588.8986789022194444
 21
148.5486806722757933
 31
0.0
  0
LINE
  5
26D0
  8
0
 10
588.8986789022194444
 20
148.5491887103821966
 30
0.0
 11
588.9947951841194254
 21
148.5500366009916036
 31
0.0
  0
ARC
  5
26D1
  8
0
 10
589.0002543168343436
 20
147.9311931639508941
 30
0.0
 40
0.6188675154654194
 50
81.1451507145052346
 51
90.5054221027110231
  0
LINE
  5
26D2
  8
0
 10
588.9200799710703222
 20
148.5362917772108915
 30
0.0
 11
589.0477985352922587
 21
148.5482316951541861
 31
0.0
  0
LINE
  5
26D3
  8
0
 10
589.0955177060194501
 20
148.5379184825438017
 30
0.0
 11
588.8986789022194444
 21
148.5220947498916075
 31
0.0
  0
LINE
  5
26D4
  8
0
 10
588.8986789022194444
 20
148.5220947498916075
 30
0.0
 11
589.0765053223564109
 21
148.5220947498916075
 31
0.0
  0
ARC
  5
26D5
  8
0
 10
589.7054201331732202
 20
147.825617885438902
 30
0.0
 40
0.9178635141987038
 50
81.7944943136275811
 51
99.0635699558066278
  0
ARC
  5
26D6
  8
0
 10
589.6940453436043299
 20
149.3446538770812992
 30
0.0
 40
0.6269493830568493
 50
257.732064106502321
 51
283.1260001629299268
  0
ARC
  5
26D7
  8
0
 10
589.7002516458065884
 20
150.0501941396742893
 30
0.0
 40
1.3194280117695569
 50
265.0409330206999243
 51
275.2253037326332787
  0
ARC
  5
26D8
  8
0
 10
580.4277283136656251
 20
147.825617885438902
 30
0.0
 40
0.9178635141987038
 50
80.936430044193358
 51
98.2055056863724189
  0
ARC
  5
26D9
  8
0
 10
580.4391031032345154
 20
149.3446538770812992
 30
0.0
 40
0.6269493830568493
 50
256.8739998370700732
 51
282.267935893497679
  0
ARC
  5
26DA
  8
0
 10
580.4328968010321432
 20
150.0501941396742893
 30
0.0
 40
1.3194280117695569
 50
264.7746962673667213
 51
274.9590669793000757
  0
ENDSEC
  0
EOF
