  0
SECTION
  2
HEADER
  9
$ACADVER
  1
AC1009
  9
$INSBASE
 10
3183.9342472982471008
 20
55.9302483080523771
 30
0.0
  9
$EXTMIN
 10
3135.6318901996969544
 20
26.9209454235407684
 30
0.0
  9
$EXTMAX
 10
3195.2680509676838483
 20
76.4166332022204529
 30
0.0
  9
$LIMMIN
 10
0.0
 20
0.0
  9
$LIMMAX
 10
11.6929133858000007
 20
8.2677165353999982
  9
$ORTHOMODE
 70
     0
  9
$REGENMODE
 70
     1
  9
$FILLMODE
 70
     1
  9
$QTEXTMODE
 70
     0
  9
$MIRRTEXT
 70
     0
  9
$DRAGMODE
 70
     2
  9
$LTSCALE
 40
0.6431102362
  9
$OSMODE
 70
  4095
  9
$ATTMODE
 70
     1
  9
$TEXTSIZE
 40
0.2
  9
$TRACEWID
 40
0.05
  9
$TEXTSTYLE
  7
STANDARD
  9
$CLAYER
  8
0
  9
$CELTYPE
  6
BYLAYER
  9
$CECOLOR
 62
   256
  9
$DIMSCALE
 40
1.0
  9
$DIMASZ
 40
0.1875
  9
$DIMEXO
 40
0.0625
  9
$DIMDLI
 40
0.4443307087
  9
$DIMRND
 40
0.0
  9
$DIMDLE
 40
0.0
  9
$DIMEXE
 40
0.125
  9
$DIMTP
 40
0.01
  9
$DIMTM
 40
0.01
  9
$DIMTXT
 40
2.0
  9
$DIMCEN
 40
0.1052362205
  9
$DIMTSZ
 40
0.0
  9
$DIMTOL
 70
     1
  9
$DIMLIM
 70
     0
  9
$DIMTIH
 70
     1
  9
$DIMTOH
 70
     1
  9
$DIMSE1
 70
     0
  9
$DIMSE2
 70
     0
  9
$DIMTAD
 70
     0
  9
$DIMZIN
 70
     0
  9
$DIMBLK
  1

  9
$DIMASO
 70
     1
  9
$DIMSHO
 70
     1
  9
$DIMPOST
  1
\X
  9
$DIMAPOST
  1

  9
$DIMALT
 70
     1
  9
$DIMALTD
 70
     2
  9
$DIMALTF
 40
25.3999999999999986
  9
$DIMLFAC
 40
1.0
  9
$DIMTOFL
 70
     0
  9
$DIMTVP
 40
0.0
  9
$DIMTIX
 70
     0
  9
$DIMSOXD
 70
     0
  9
$DIMSAH
 70
     0
  9
$DIMBLK1
  1

  9
$DIMBLK2
  1

  9
$DIMSTYLE
  2
STANDARD
  9
$DIMCLRD
 70
     0
  9
$DIMCLRE
 70
     0
  9
$DIMCLRT
 70
     0
  9
$DIMTFAC
 40
1.0
  9
$DIMGAP
 40
0.09
  9
$LUNITS
 70
     2
  9
$LUPREC
 70
     4
  9
$SKETCHINC
 40
0.1
  9
$FILLETRAD
 40
0.0
  9
$AUNITS
 70
     0
  9
$AUPREC
 70
     0
  9
$MENU
  1
.
  9
$ELEVATION
 40
0.0
  9
$PELEVATION
 40
0.0
  9
$THICKNESS
 40
0.0
  9
$LIMCHECK
 70
     0
  9
$BLIPMODE
 70
     0
  9
$CHAMFERA
 40
0.0
  9
$CHAMFERB
 40
0.0
  9
$SKPOLY
 70
     0
  9
$TDCREATE
 40
2458060.468368056230247
  9
$TDUPDATE
 40
2459948.7547453697770834
  9
$TDINDWG
 40
0.2923450231
  9
$TDUSRTIMER
 40
0.2923450231
  9
$USRTIMER
 70
     1
  9
$ANGBASE
 50
0.0
  9
$ANGDIR
 70
     0
  9
$PDMODE
 70
     0
  9
$PDSIZE
 40
0.3125
  9
$PLINEWID
 40
0.0
  9
$COORDS
 70
     1
  9
$SPLFRAME
 70
     0
  9
$SPLINETYPE
 70
     6
  9
$SPLINESEGS
 70
     8
  9
$ATTDIA
 70
     1
  9
$ATTREQ
 70
     1
  9
$HANDLING
 70
     1
  9
$HANDSEED
  5
64B7
  9
$SURFTAB1
 70
     6
  9
$SURFTAB2
 70
     6
  9
$SURFTYPE
 70
     6
  9
$SURFU
 70
     6
  9
$SURFV
 70
     6
  9
$UCSNAME
  2

  9
$UCSORG
 10
0.0
 20
0.0
 30
0.0
  9
$UCSXDIR
 10
1.0
 20
0.0
 30
0.0
  9
$UCSYDIR
 10
0.0
 20
1.0
 30
0.0
  9
$PUCSNAME
  2

  9
$PUCSORG
 10
0.0
 20
0.0
 30
0.0
  9
$PUCSXDIR
 10
1.0
 20
0.0
 30
0.0
  9
$PUCSYDIR
 10
0.0
 20
1.0
 30
0.0
  9
$USERI1
 70
     0
  9
$USERI2
 70
     0
  9
$USERI3
 70
     0
  9
$USERI4
 70
     0
  9
$USERI5
 70
     0
  9
$USERR1
 40
0.0
  9
$USERR2
 40
0.0
  9
$USERR3
 40
0.0
  9
$USERR4
 40
0.0
  9
$USERR5
 40
0.0
  9
$WORLDVIEW
 70
     1
  9
$SHADEDGE
 70
     3
  9
$SHADEDIF
 70
    70
  9
$TILEMODE
 70
     1
  9
$MAXACTVP
 70
    64
  9
$PLIMCHECK
 70
     0
  9
$PEXTMIN
 10
1.0000000000000000E+20
 20
1.0000000000000000E+20
 30
1.0000000000000000E+20
  9
$PEXTMAX
 10
-1.0000000000000000E+20
 20
-1.0000000000000000E+20
 30
-1.0000000000000000E+20
  9
$PLIMMIN
 10
0.0
 20
0.0
  9
$PLIMMAX
 10
12.0
 20
9.0
  9
$UNITMODE
 70
     0
  9
$VISRETAIN
 70
     1
  9
$PLINEGEN
 70
     0
  9
$PSLTSCALE
 70
     1
  0
ENDSEC
  0
SECTION
  2
TABLES
  0
TABLE
  2
VPORT
 70
     1
  0
VPORT
  2
*ACTIVE
 70
     0
 10
0.0
 20
0.0
 11
1.0
 21
1.0
 12
187.1220895174336931
 22
-18.6018623537480003
 13
0.0
 23
0.0
 14
1.0
 24
1.0
 15
0.0
 25
0.0
 16
0.0
 26
0.0
 36
238.8063968625259008
 17
3002.96630859375
 27
54.8220901489257813
 37
0.0
 40
53.3769203754449109
 41
2.8524096385542159
 42
50.0
 43
0.0
 44
0.0
 50
0.0
 51
0.0
 71
     0
 72
   100
 73
     1
 74
     1
 75
     0
 76
     0
 77
     0
 78
     0
  0
ENDTAB
  0
TABLE
  2
LTYPE
 70
     2
  0
LTYPE
  2
CONTINUOUS
 70
     0
  3
Solid line
 72
    65
 73
     0
 40
0.0
  0
LTYPE
  2
PHANTOM2
 70
     0
  3
___ _ _ ___ _ _ ___ _ _ ___ _ _
 72
    65
 73
     6
 40
1.25
 49
0.625
 49
-0.125
 49
0.125
 49
-0.125
 49
0.125
 49
-0.125
  0
ENDTAB
  0
TABLE
  2
LAYER
 70
     2
  0
LAYER
  2
0
 70
     0
 62
   255
  6
CONTINUOUS
  0
LAYER
  2
DEFPOINTS
 70
     0
 62
     7
  6
CONTINUOUS
  0
ENDTAB
  0
TABLE
  2
STYLE
 70
     1
  0
STYLE
  2
STANDARD
 70
     0
 40
0.0
 41
0.8
 50
0.0
 71
     0
 42
0.2
  3
txt
  4

  0
ENDTAB
  0
TABLE
  2
VIEW
 70
     0
  0
ENDTAB
  0
TABLE
  2
UCS
 70
     0
  0
ENDTAB
  0
TABLE
  2
APPID
 70
     9
  0
APPID
  2
ACAD
 70
     0
  0
APPID
  2
ACAD_MLEADERVER
 70
     0
  0
APPID
  2
ACAD_EXEMPT_FROM_CAD_STANDARDS
 70
     0
  0
APPID
  2
ACAD_NAV_VCDISPLAY
 70
     0
  0
APPID
  2
ACAECLAYERSTANDARD
 70
     0
  0
APPID
  2
ACCMTRANSPARENCY
 70
     0
  0
APPID
  2
ACAD_DSTYLE_DIMJAG
 70
     0
  0
APPID
  2
ACAD_DSTYLE_DIMTALN
 70
     0
  0
APPID
  2
ACDBATTR
 70
     0
  0
ENDTAB
  0
TABLE
  2
DIMSTYLE
 70
     1
  0
DIMSTYLE
  2
STANDARD
 70
     0
  3

  4

  5

  6

  7

 40
1.0
 41
0.1875
 42
0.0625
 43
0.38
 44
0.125
 45
0.0
 46
0.0
 47
0.01
 48
0.01
140
0.15625
141
0.09
142
0.0
143
25.3999999999999986
144
1.0
145
0.0
146
1.0
147
0.09
 71
     1
 72
     0
 73
     1
 74
     1
 75
     0
 76
     0
 77
     0
 78
     4
170
     0
171
     2
172
     0
173
     0
174
     0
175
     0
176
     0
177
     0
178
     0
  0
ENDTAB
  0
ENDSEC
  0
SECTION
  2
BLOCKS
  0
BLOCK
  8
0
  2
$MODEL_SPACE
 70
     0
 10
0.0
 20
0.0
 30
0.0
  3
$MODEL_SPACE
  1

  0
ENDBLK
  5
21
  8
0
  0
BLOCK
 67
     1
  8
0
  2
$PAPER_SPACE
 70
     0
 10
0.0
 20
0.0
 30
0.0
  3
$PAPER_SPACE
  1

  0
ENDBLK
  5
1D
 67
     1
  8
0
  0
BLOCK
  8
0
  2
_FILLED
 70
     0
 10
0.0
 20
0.0
 30
0.0
  3
_FILLED
  1

  0
SOLID
  5
5CF5
  8
0
  6
BYBLOCK
 62
     0
 10
0.0
 20
0.0
 30
0.0
 11
-1.0
 21
0.1666666667
 31
0.0
 12
-1.0
 22
-0.1666666667
 32
0.0
 13
-1.0
 23
-0.1666666667
 33
0.0
  0
ENDBLK
  5
5CF6
  8
0
  6
BYBLOCK
 62
     0
  0
ENDSEC
  0
SECTION
  2
ENTITIES
  0
ATTDEF
  5
3930
  8
DEFPOINTS
 10
3183.9254779203220096
 20
55.9341676808465991
 30
0.0
 40
0.001
  1
K-25412H
  3

  2
MODELNUMBER
 70
     0
1001
ACDBATTR
1070
     0
1070
     1
  0
ATTDEF
  5
3931
  8
DEFPOINTS
 10
3183.9254779203220096
 20
55.9325010141799268
 30
0.0
 40
0.001
  1
REACH UP
  3

  2
TRADENAME
 70
     0
1001
ACDBATTR
1070
     0
1070
     1
  0
ATTDEF
  5
3932
  8
DEFPOINTS
 10
3183.9254779203220096
 20
55.9308343475132688
 30
0.0
 40
0.001
  1
TOILET
  3

  2
PRODUCT
 70
     0
1001
ACDBATTR
1070
     0
1070
     1
  0
LINE
  5
62D2
  8
0
 10
3177.1446850938477837
 20
54.9502483080523803
 30
0.0
 11
3190.7238095026450537
 21
54.9502483080523803
 31
0.0
  0
ARC
  5
62D3
  8
0
 10
3177.1459576542788454
 20
54.5531085180209487
 30
0.0
 40
0.397141828867547
 50
90.1835930172658067
 51
174.0127787701960074
  0
ARC
  5
62D4
  8
0
 10
3183.9355597443482111
 20
121.892074894161297
 30
0.0
 40
72.8610163970090099
 50
265.3268996981238956
 51
269.9989679306519861
  0
ARC
  5
62D5
  8
0
 10
3178.234063873355808
 20
50.7381960530374627
 30
0.0
 40
1.4835846293034489
 50
181.4919075605344858
 51
260.9041753071587095
  0
ARC
  5
62D6
  8
0
 10
3181.1120199342658452
 20
50.1326956049800074
 30
0.0
 40
4.4210679398929349
 50
170.5473963090256007
 51
171.3753141611477986
  0
LINE
  5
62D7
  8
0
 10
3177.0613038998808406
 20
46.4856813216523008
 30
0.0
 11
3179.5925415382339452
 21
46.4856813216523008
 31
0.0
  0
LINE
  5
62D8
  8
0
 10
3176.7409460403068806
 20
50.7956848527816973
 30
0.0
 11
3176.7511756352450902
 21
45.1284879869764879
 31
0.0
  0
LINE
  5
62D9
  8
0
 10
3176.7690716704591978
 20
46.2077470670237176
 30
0.0
 11
3176.7550605916471795
 21
45.9285598389523102
 31
0.0
  0
ARC
  5
62DA
  8
0
 10
3177.0613038998808406
 20
46.1930813216523006
 30
0.0
 40
0.2926
 50
90.0
 51
177.1270077122520092
  0
ARC
  5
62DB
  8
0
 10
3183.923224083760033
 20
34.5711363978636328
 30
0.0
 40
6.4665524165867581
 50
262.1839131935519163
 51
267.460178455185428
  0
ARC
  5
62DC
  8
0
 10
3183.8367182331339791
 20
33.8586937539923127
 30
0.0
 40
5.7489752085861676
 50
246.0442746235129903
 51
262.0724350022612157
  0
ARC
  5
62DD
  8
0
 10
3183.9166135954910715
 20
34.028241885382613
 30
0.0
 40
5.9363598034916194
 50
223.9613789394686023
 51
246.0040135822384002
  0
ARC
  5
62DE
  8
0
 10
3184.8959482011900946
 20
34.9100869187013032
 30
0.0
 40
7.2535858913001299
 50
207.8282078553677934
 51
223.6053787674819091
  0
ARC
  5
62DF
  8
0
 10
3189.054187344714137
 20
37.2152500974089406
 30
0.0
 40
12.0074261487163199
 50
192.8813163121940875
 51
208.2930529292096082
  0
ARC
  5
62E0
  8
0
 10
3200.1464103280691234
 20
39.7250714491559194
 30
0.0
 40
23.3800363415514596
 50
183.8444490487663927
 51
192.8172198688577907
  0
ARC
  5
62E1
  8
0
 10
3207.0378333966727951
 20
40.3037035368158385
 30
0.0
 40
30.2949674252198804
 50
182.4585131310180941
 51
184.0624634847123957
  0
ARC
  5
62E2
  8
0
 10
3149.0288973158990302
 20
45.6631460582523232
 30
0.0
 40
27.72743360768294
 50
357.8269708707467771
 51
0.5484576003561088
  0
ARC
  5
62E3
  8
0
 10
3233.1992552051888197
 20
41.098482627902527
 30
0.0
 40
56.4673552494628694
 50
180.7226661918826096
 51
182.1255243223596949
  0
LINE
  5
62E4
  8
0
 10
3179.6364648623161884
 20
46.4653784026808268
 30
0.0
 11
3179.6400677472670395
 21
46.3511611804230697
 31
0.0
  0
ARC
  5
62E5
  8
0
 10
3179.5883503029917847
 20
46.418950698123659
 30
0.0
 40
0.0668621161000163
 50
43.9778179549777093
 51
86.4060719294460853
  0
LINE
  5
62E6
  8
0
 10
3179.7251361536818877
 20
46.3231350557523172
 30
0.0
 11
3188.1433584428118593
 21
46.3231350557523172
 31
0.0
  0
ARC
  5
62E7
  8
0
 10
3179.6588305894829318
 20
46.3576760712279068
 30
0.0
 40
0.0198617232443865
 50
199.148178430959689
 51
242.7280706729802944
  0
ARC
  5
62E8
  8
0
 10
3179.7168555620160078
 20
46.4762942370374716
 30
0.0
 40
0.1519077680681567
 50
243.7757314156403936
 51
266.3051210675320135
  0
ARC
  5
62E9
  8
0
 10
3179.8414435709228201
 20
47.7691579090184035
 30
0.0
 40
1.4506927681191011
 50
264.6850827716232857
 51
265.4014495021021958
  0
LINE
  5
62EA
  8
0
 10
3179.6586568639468169
 20
46.4462813216524424
 30
0.0
 11
3179.6586568639468169
 21
46.3359771620161496
 31
0.0
  0
LINE
  5
62EB
  8
0
 10
3179.6980568639469311
 20
46.4856813216524429
 30
0.0
 11
3180.1704678876471917
 21
46.4856813216520877
 31
0.0
  0
LINE
  5
62EC
  8
0
 10
3180.1704678876471917
 20
46.3231350557523172
 30
0.0
 11
3180.1704678876471917
 21
46.4856813216520877
 31
0.0
  0
ARC
  5
62ED
  8
0
 10
3179.6980568639469311
 20
46.4462813216524424
 30
0.0
 40
0.0394
 50
89.9999999999739515
 51
180.0
  0
LINE
  5
62EE
  8
0
 10
3180.2334525870328434
 20
46.3282010059518825
 30
0.0
 11
3187.6350787494047836
 21
46.3282010059594427
 31
0.0
  0
ARC
  5
62EF
  8
0
 10
3180.2334600135482106
 20
46.2888309279520485
 30
0.0
 40
0.0393700787002716
 50
90.0108079018923064
 51
119.3870378557249978
  0
LINE
  5
62F0
  8
0
 10
3181.2248811499739531
 20
46.3643924332522985
 30
0.0
 11
3186.6436134465197938
 21
46.3643924332522985
 31
0.0
  0
ARC
  5
62F1
  8
0
 10
3181.2460613975199522
 20
44.993065724040612
 30
0.0
 40
1.3714902647424889
 50
90.8848674078464853
 51
103.2216993638410969
  0
LINE
  5
62F2
  8
0
 10
3176.7509821610988183
 20
54.5945330521009566
 30
0.0
 11
3176.7509821610988183
 21
50.699569804535507
 31
0.0
  0
ARC
  5
62F3
  8
0
 10
3190.722536942215811
 20
54.5531085180209487
 30
0.0
 40
0.397141828867547
 50
5.9872212298040202
 51
89.8164069827342075
  0
ARC
  5
62F4
  8
0
 10
3183.9329348521469001
 20
121.892074894161297
 30
0.0
 40
72.8610163970090099
 50
270.0010320693480139
 51
274.6731003018759907
  0
ARC
  5
62F5
  8
0
 10
3189.6344307231388484
 20
50.7381960530374627
 30
0.0
 40
1.4835846293034489
 50
279.0958246928412905
 51
358.5080924394653721
  0
ARC
  5
62F6
  8
0
 10
3186.7564746622279017
 20
50.1326956049800074
 30
0.0
 40
4.4210679398929349
 50
8.6246858388522138
 51
9.4526036909743993
  0
LINE
  5
62F7
  8
0
 10
3190.8071906966138158
 20
46.4856813216523008
 30
0.0
 11
3188.275953058261166
 21
46.4856813216523008
 31
0.0
  0
LINE
  5
62F8
  8
0
 10
3191.1275485561868663
 20
50.7956848527816973
 30
0.0
 11
3191.1173189612500209
 21
45.1284879869764879
 31
0.0
  0
LINE
  5
62F9
  8
0
 10
3191.0994229260350039
 20
46.2077470670237176
 30
0.0
 11
3191.1134340048470222
 21
45.9285598389523102
 31
0.0
  0
ARC
  5
62FA
  8
0
 10
3190.8071906966138158
 20
46.1930813216523006
 30
0.0
 40
0.2926
 50
2.8729922877480072
 51
90.0
  0
ARC
  5
62FB
  8
0
 10
3183.9452705127359877
 20
34.5711363978636328
 30
0.0
 40
6.4665524165867581
 50
272.539821544814572
 51
277.8160868064480837
  0
ARC
  5
62FC
  8
0
 10
3184.0317763633602226
 20
33.8586937539923127
 30
0.0
 40
5.7489752085861676
 50
277.9275649977387843
 51
293.9557253764870097
  0
ARC
  5
62FD
  8
0
 10
3183.9518810010040397
 20
34.028241885382613
 30
0.0
 40
5.9363598034916194
 50
293.9959864177616282
 51
316.0386210605313977
  0
ARC
  5
62FE
  8
0
 10
3182.9725463953050166
 20
34.9100869187012819
 30
0.0
 40
7.2535858913001299
 50
316.3946212325182046
 51
332.1717921446320929
  0
ARC
  5
62FF
  8
0
 10
3178.8143072517800647
 20
37.2152500974089335
 30
0.0
 40
12.0074261487163199
 50
331.7069470707904202
 51
347.1186836878059125
  0
ARC
  5
6300
  8
0
 10
3167.7220842684259878
 20
39.7250714491559123
 30
0.0
 40
23.3800363415514596
 50
347.1827801311421808
 51
356.1555509512335789
  0
ARC
  5
6301
  8
0
 10
3160.8306611998218614
 20
40.3037035368158172
 30
0.0
 40
30.2949674252198804
 50
355.9375365152876043
 51
357.5414868689817922
  0
ARC
  5
6302
  8
0
 10
3218.839597280596081
 20
45.6631460582523516
 30
0.0
 40
27.72743360768294
 50
179.4515423996442962
 51
181.2679953747064872
  0
ARC
  5
6303
  8
0
 10
3478.8004736229800073
 20
44.6111278451210467
 30
0.0
 40
287.6818543302443913
 50
179.9126784495138907
 51
180.5547405759400021
  0
ARC
  5
6304
  8
0
 10
3134.6692393913058368
 20
41.0984826279024773
 30
0.0
 40
56.4673552494628694
 50
357.8744756776401914
 51
359.2773338081157135
  0
LINE
  5
6305
  8
0
 10
3188.2320297341789228
 20
46.4653784026808268
 30
0.0
 11
3188.2284268492280717
 21
46.3511611804230697
 31
0.0
  0
ARC
  5
6306
  8
0
 10
3188.2801442935028717
 20
46.418950698123659
 30
0.0
 40
0.0668621161000163
 50
93.5939280705539147
 51
136.0221820450223049
  0
ARC
  5
6307
  8
0
 10
3188.2096640070108151
 20
46.3576760712279068
 30
0.0
 40
0.0198617232443865
 50
297.2719293270196772
 51
340.8518215690402826
  0
ARC
  5
6308
  8
0
 10
3188.1516390344781939
 20
46.4762942370374716
 30
0.0
 40
0.1519077680681567
 50
273.6948789324679865
 51
296.2242685843592085
  0
ARC
  5
6309
  8
0
 10
3188.0270510255718364
 20
47.7691579090184035
 30
0.0
 40
1.4506927681191011
 50
274.5985504978976905
 51
275.3149172283766006
  0
LINE
  5
630A
  8
0
 10
3188.2098377325469301
 20
46.4462813216524424
 30
0.0
 11
3188.2098377325469301
 21
46.3359771620161496
 31
0.0
  0
LINE
  5
630B
  8
0
 10
3188.1704377325468158
 20
46.4856813216524429
 30
0.0
 11
3187.69802670884701
 21
46.4856813216520877
 31
0.0
  0
LINE
  5
630C
  8
0
 10
3187.69802670884701
 20
46.3231350557523172
 30
0.0
 11
3187.69802670884701
 21
46.4856813216520877
 31
0.0
  0
ARC
  5
630D
  8
0
 10
3188.1704377325468158
 20
46.4462813216524424
 30
0.0
 40
0.0394
 50
0.0
 51
90.0000000000260485
  0
ARC
  5
630E
  8
0
 10
3187.6350603794489871
 20
46.2889292659588278
 30
0.0
 40
0.0392717442970354
 50
60.5753531811513284
 51
90.026801019250442
  0
ARC
  5
630F
  8
0
 10
3186.622433198975159
 20
44.993065724040612
 30
0.0
 40
1.3714902647424889
 50
76.7783006361588605
 51
89.1151325921535147
  0
LINE
  5
6310
  8
0
 10
3191.1175124353958381
 20
54.5945330521009566
 30
0.0
 11
3191.1175124353958381
 21
50.699569804535507
 31
0.0
  0
LINE
  5
6311
  8
0
 10
3183.6366670107931895
 20
28.1109363080523913
 30
0.0
 11
3184.2318275857019216
 21
28.1109363080523913
 31
0.0
  0
LINE
  5
6313
  8
0
 10
3176.7363914609059066
 20
40.386284155835817
 30
0.0
 11
3176.7363914609059066
 21
44.6117932759492817
 31
0.0
  0
LINE
  5
6314
  8
0
 10
3191.1321031355892046
 20
40.3862841558343035
 30
0.0
 11
3191.1321031355892046
 21
41.8258213956376323
 31
0.0
  0
CIRCLE
  5
6315
  8
0
 10
3183.9342474151471833
 20
52.194342738952308
 30
0.0
 40
0.9448818898000004
  0
CIRCLE
  5
6316
  8
0
 10
3183.9342474151471833
 20
52.194342738952308
 30
0.0
 40
0.7085586155999977
  0
ARC
  5
6317
  8
0
 10
3183.9342472982471008
 20
52.1943427389523009
 30
0.0
 40
0.6692913386000146
 50
277.4858006135654023
 51
82.502249252437295
  0
ARC
  5
6318
  8
0
 10
3184.0190106993559311
 20
52.8383800616415229
 30
0.0
 40
0.0197
 50
82.502249252437295
 51
189.6307109074624861
  0
ARC
  5
6319
  8
0
 10
3183.9342472982471008
 20
52.1943427389523009
 30
0.0
 40
0.6692913386000146
 50
87.5285289640019641
 51
272.4714659856513208
  0
ARC
  5
631A
  8
0
 10
3183.9622632436708045
 20
52.8434297456423607
 30
0.0
 40
0.0196
 50
9.8492609316860467
 51
87.5285289640019641
  0
ARC
  5
631B
  8
0
 10
3180.2651155818812185
 20
52.2007628469490186
 30
0.0
 40
3.7721886495392112
 50
7.7278449481255826
 51
9.861002651107448
  0
ARC
  5
631C
  8
0
 10
3180.2284506830342252
 20
52.1948581707405665
 30
0.0
 40
3.8093146565286
 50
4.4328206131506951
 51
7.7416947080626102
  0
ARC
  5
631D
  8
0
 10
3180.2236174938498152
 20
52.1943427389523507
 30
0.0
 40
3.8141732282973031
 50
358.2673052506498834
 51
4.4349286536595542
  0
ARC
  5
631E
  8
0
 10
3180.2236174938479962
 20
52.1943427389523009
 30
0.0
 40
3.8141732282996852
 50
353.2648083047059799
 51
358.267305250651475
  0
ARC
  5
631F
  8
0
 10
3180.2238772606829116
 20
52.1943059193822592
 30
0.0
 40
3.813910935944762
 50
350.1506156950899253
 51
353.2648987339312043
  0
ARC
  5
6320
  8
0
 10
3183.9622631864572213
 20
51.5452557297927569
 30
0.0
 40
0.0196
 50
272.4714659856513208
 51
350.150615695090778
  0
ARC
  5
6321
  8
0
 10
3180.2235846544699598
 20
52.1943390362119715
 30
0.0
 40
3.829981506908632
 50
5.3636090498275708
 51
9.6307109074605588
  0
ARC
  5
6322
  8
0
 10
3180.2235049286191497
 20
52.1943388222488096
 30
0.0
 40
3.8300609036903301
 50
358.622100898579788
 51
5.3635007516809061
  0
ARC
  5
6323
  8
0
 10
3180.2236174938461772
 20
52.1943427389524004
 30
0.0
 40
3.8299484652012228
 50
353.1181235888209926
 51
358.6220018282468232
  0
ARC
  5
6324
  8
0
 10
3180.241515790693029
 20
52.1917452760995886
 30
0.0
 40
3.8118679097588428
 50
350.3607202244963901
 51
353.1246488711083202
  0
ARC
  5
6325
  8
0
 10
3184.0188893992230987
 20
51.5501886035200982
 30
0.0
 40
0.0196
 50
170.3672455067772944
 51
277.4858006135654023
  0
LINE
  5
6326
  8
0
 10
3183.9652945969842222
 20
52.8639291759151604
 30
0.0
 11
3183.9410611473140307
 21
52.8646473932942271
 31
0.0
  0
ARC
  5
6327
  8
0
 10
3180.2236174938470867
 20
52.194342738952237
 30
0.0
 40
3.8162633977005278
 50
7.0279466906580703
 51
9.8653046766255361
  0
ARC
  5
6328
  8
0
 10
3180.223191300419785
 20
52.1943084466693392
 30
0.0
 40
3.8166905847844008
 50
2.172745669460789
 51
7.0276748010076746
  0
ARC
  5
6329
  8
0
 10
3180.2235136892099945
 20
52.1943429281040423
 30
0.0
 40
3.8163671205582572
 50
357.6187808002388238
 51
2.172411865268141
  0
ARC
  5
632A
  8
0
 10
3180.2236174938470867
 20
52.194342738952308
 30
0.0
 40
3.8162633977000602
 50
351.6629387683165078
 51
357.6187188856956141
  0
ARC
  5
632B
  8
0
 10
3180.2236174942459002
 20
52.1943427388892616
 30
0.0
 40
3.8162633972964031
 50
350.1346833152294948
 51
351.6629387683832988
  0
LINE
  5
632C
  8
0
 10
3183.9653103996638492
 20
51.5247559970133366
 30
0.0
 11
3183.9414615028240405
 21
51.524029142919872
 31
0.0
  0
ARC
  5
632D
  8
0
 10
3183.9418248239089735
 20
51.5326353670346009
 30
0.0
 40
0.0086138896976746
 50
241.568444875794512
 51
267.582631921589325
  0
ARC
  5
632E
  8
0
 10
3183.9422380615378643
 20
52.8547135988427499
 30
0.0
 40
0.010003269430337
 50
96.756667312918097
 51
117.017335081821102
  0
ARC
  5
632F
  8
0
 10
3183.9647317327981
 20
52.8449375150107272
 30
0.0
 40
0.019
 50
9.8653046766500072
 51
88.3023967761282762
  0
ARC
  5
6330
  8
0
 10
3183.9647315964461995
 20
51.5437471788310475
 30
0.0
 40
0.019
 50
271.74569015820299
 51
350.1346833152906015
  0
ARC
  5
6331
  8
0
 10
3184.0189196586661637
 20
52.8360726337639903
 30
0.0
 40
0.0214618125446832
 50
125.9801610527872953
 51
177.0940957208734972
  0
ARC
  5
6332
  8
0
 10
3180.2235964044348293
 20
52.1943398006845527
 30
0.0
 40
3.8282446540523329
 50
6.1966415594112529
 51
9.6666323851145588
  0
ARC
  5
6333
  8
0
 10
3184.0612638784050432
 20
52.5911346968437172
 30
0.0
 40
0.0357848662230925
 50
152.6688910232585101
 51
218.8832659610532119
  0
ARC
  5
6334
  8
0
 10
3180.4470048596749621
 20
52.210147053500819
 30
0.0
 40
3.604278986772246
 50
1.0227031949305641
 51
5.708756560799503
  0
ARC
  5
6335
  8
0
 10
3184.3181102318549165
 20
52.1943418242745167
 30
0.0
 40
0.2791503417467082
 50
163.3171979279437096
 51
175.5059742261273072
  0
ARC
  5
6336
  8
0
 10
3184.318374495606804
 20
52.1943987971126617
 30
0.0
 40
0.2794192970037058
 50
184.5039127724569994
 51
196.6783531306701889
  0
ARC
  5
6337
  8
0
 10
3180.403242183590919
 20
52.1800358826125716
 30
0.0
 40
3.6480619138894101
 50
354.3383219993505122
 51
358.9660295645920769
  0
ARC
  5
6338
  8
0
 10
3184.0612705411717798
 20
51.7975584203652701
 30
0.0
 40
0.0357862029557219
 50
140.8765218093186036
 51
207.3175263891747022
  0
ARC
  5
6339
  8
0
 10
3180.219790445496983
 20
52.1948752707721582
 30
0.0
 40
3.8320855420896378
 50
350.3545304329215924
 51
353.8018478532089262
  0
ARC
  5
633A
  8
0
 10
3184.0167112477329283
 20
51.5515796654218832
 30
0.0
 40
0.0190474410622395
 50
176.3120652711860998
 51
228.8634945572927961
  0
CIRCLE
  5
633B
  8
0
 10
3183.9342474151471833
 20
52.194342738952308
 30
0.0
 40
0.6822648631999997
  0
ARC
  5
633C
  8
0
 10
3183.9342472982471008
 20
52.1943427389523009
 30
0.0
 40
0.6701846933541954
 50
97.2547780872159962
 51
126.7452082624439953
  0
ARC
  5
633D
  8
0
 10
3183.9342472982471008
 20
52.1943427389523009
 30
0.0
 40
0.6701846933541954
 50
131.2547756639667114
 51
160.7452160947578079
  0
ARC
  5
633E
  8
0
 10
3183.9342472982471008
 20
52.1943427389523009
 30
0.0
 40
0.6701846933541954
 50
165.254777850842089
 51
194.7452221428627013
  0
ARC
  5
633F
  8
0
 10
3183.9342472982471008
 20
52.1943427389523009
 30
0.0
 40
0.6701846933541954
 50
199.2547838935873017
 51
228.7452243364766105
  0
ARC
  5
6340
  8
0
 10
3183.9342472982471008
 20
52.1943427389523009
 30
0.0
 40
0.6701846933541954
 50
233.2547917259823862
 51
262.7452219198228249
  0
ARC
  5
6341
  8
0
 10
3183.9342472982471008
 20
52.1943427389523009
 30
0.0
 40
0.6701846933541954
 50
267.2547986811600254
 51
282.7636453021769967
  0
ARC
  5
6342
  8
0
 10
3183.9342472982471008
 20
52.1943427389523009
 30
0.0
 40
0.6701846933541954
 50
287.2363746453323188
 51
312.7636389687173732
  0
ARC
  5
6343
  8
0
 10
3183.9342472982471008
 20
52.1943427389523009
 30
0.0
 40
0.6701846933541954
 50
317.2363756260327818
 51
342.7636322356262895
  0
ARC
  5
6344
  8
0
 10
3183.9342472982471008
 20
52.1943427389523009
 30
0.0
 40
0.6701846933541954
 50
347.2363731173720112
 51
12.7636268893809799
  0
ARC
  5
6345
  8
0
 10
3183.9342472982471008
 20
52.1943427389523009
 30
0.0
 40
0.6701846933541954
 50
17.2363677746776993
 51
42.7636243749977396
  0
ARC
  5
6346
  8
0
 10
3183.9342472982471008
 20
52.1943427389523009
 30
0.0
 40
0.6701846933541954
 50
47.2363610427448393
 51
72.7636253504662136
  0
ARC
  5
6347
  8
0
 10
3183.8778020620420648
 20
52.8395160769615018
 30
0.0
 40
0.0343579363903719
 50
44.8763721864561731
 51
145.1236072118259983
  0
ARC
  5
6348
  8
0
 10
3183.5266757445419898
 20
52.6976518360585473
 30
0.0
 40
0.0343579363919584
 50
78.8765169505531816
 51
179.1234669758601967
  0
ARC
  5
6349
  8
0
 10
3183.3149083113489723
 20
52.3836937052515665
 30
0.0
 40
0.0343579364025002
 50
112.8766077934969019
 51
213.1233861521128858
  0
ARC
  5
634A
  8
0
 10
3183.3149083113357847
 20
52.0049917727549484
 30
0.0
 40
0.0343579363900536
 50
146.8766138954231906
 51
247.1236073696829862
  0
ARC
  5
634B
  8
0
 10
3183.5266757445388066
 20
51.691033641941182
 30
0.0
 40
0.034357936385697
 50
180.8765331885468868
 51
281.1234828738985811
  0
ARC
  5
634C
  8
0
 10
3183.8778020620461575
 20
51.5491694010419224
 30
0.0
 40
0.0343579363895892
 50
214.8763930110646925
 51
315.1236275899087218
  0
ARC
  5
634D
  8
0
 10
3184.1022250513501604
 20
51.5674416663435409
 30
0.0
 40
0.0333271254909212
 50
231.313863560614891
 51
338.686156386868106
  0
ARC
  5
634E
  8
0
 10
3184.3931708516538492
 20
51.7354193024457274
 30
0.0
 40
0.0333271254907033
 50
261.3137455944362273
 51
8.6862690003117962
  0
ARC
  5
634F
  8
0
 10
3184.5611484878581905
 20
52.0263651028493186
 30
0.0
 40
0.033327125488507
 50
291.3136743809752147
 51
38.6863309720177426
  0
ARC
  5
6350
  8
0
 10
3184.1022250513510699
 20
52.8212438116666618
 30
0.0
 40
0.0333271254851347
 50
21.3138433982758109
 51
128.6861366587937994
  0
ARC
  5
6351
  8
0
 10
3184.393170851648847
 20
52.6532661755541227
 30
0.0
 40
0.0333271254974283
 50
351.3137308560322936
 51
98.6862545617051268
  0
ARC
  5
6352
  8
0
 10
3184.5611484878591
 20
52.3623203751554271
 30
0.0
 40
0.0333271254878816
 50
321.3136689790893001
 51
68.6863256849734398
  0
LINE
  5
6353
  8
0
 10
3183.902149156294854
 20
52.8637583292170277
 30
0.0
 11
3183.902149156294854
 21
52.8628639466998465
 31
0.0
  0
LINE
  5
6354
  8
0
 10
3183.5333042198572002
 20
52.7313643130976288
 30
0.0
 11
3183.5338520225632237
 21
52.7306584287605915
 31
0.0
  0
LINE
  5
6355
  8
0
 10
3183.2861336857390597
 20
52.3649190224372489
 30
0.0
 11
3183.2870495339798254
 21
52.3648887733624093
 31
0.0
  0
LINE
  5
6356
  8
0
 10
3183.2861336857199603
 20
52.0237664555388619
 30
0.0
 11
3183.2870489382030428
 21
52.0237989654489397
 31
0.0
  0
LINE
  5
6357
  8
0
 10
3183.5333042197489704
 20
51.6573211648879393
 30
0.0
 11
3183.5338423564121513
 21
51.6580342657031011
 31
0.0
  0
LINE
  5
6358
  8
0
 10
3183.9021491562039046
 20
51.5249271486919085
 30
0.0
 11
3183.9021938150622191
 21
51.525819388469543
 31
0.0
  0
LINE
  5
6359
  8
0
 10
3183.9975355742731153
 20
52.7612718728522907
 30
0.0
 11
3184.0096293093151871
 21
52.7612718728522907
 31
0.0
  0
LINE
  5
635A
  8
0
 10
3183.9987100351549998
 20
52.7533978571522866
 30
0.0
 11
3184.0108000193440603
 21
52.7533978571522866
 31
0.0
  0
LINE
  5
635B
  8
0
 10
3184.0009621298031561
 20
52.7379729642338972
 30
0.0
 11
3184.0130449255229905
 21
52.7379729833650686
 31
0.0
  0
LINE
  5
635C
  8
0
 10
3184.0043308895501468
 20
52.7140277783523103
 30
0.0
 11
3184.016402955941885
 21
52.7140277783523103
 31
0.0
  0
LINE
  5
635D
  8
0
 10
3184.0304785911562249
 20
52.4620592744523009
 30
0.0
 11
3184.0424696762770509
 21
52.4620592744523009
 31
0.0
  0
LINE
  5
635E
  8
0
 10
3184.0307282356639007
 20
52.4584854833895093
 30
0.0
 11
3184.0427182851080943
 21
52.4584854851825
 31
0.0
  0
LINE
  5
635F
  8
0
 10
3184.0330429055970853
 20
52.4226891956523033
 30
0.0
 11
3184.045011648480795
 21
52.422689195652282
 31
0.0
  0
LINE
  5
6360
  8
0
 10
3184.0335067467522094
 20
52.4148151799522921
 30
0.0
 11
3184.0454681389787766
 21
52.4148151799522992
 31
0.0
  0
LINE
  5
6361
  8
0
 10
3184.0335070228798031
 20
51.9738702980523115
 30
0.0
 11
3184.0454738455409824
 21
51.9738702980523115
 31
0.0
  0
LINE
  5
6362
  8
0
 10
3184.0330432007458512
 20
51.9659962823523003
 30
0.0
 11
3184.0450196036281341
 21
51.9659962823523003
 31
0.0
  0
LINE
  5
6363
  8
0
 10
3184.030478954065984
 20
51.9266262035523027
 30
0.0
 11
3184.0424920049317734
 21
51.9266262035523027
 31
0.0
  0
LINE
  5
6364
  8
0
 10
3184.0320872481338483
 20
51.9505714295161809
 30
0.0
 11
3184.0440802448401882
 21
51.950571420579081
 31
0.0
  0
LINE
  5
6365
  8
0
 10
3184.0043308895637892
 20
51.6746576996523004
 30
0.0
 11
3184.0164012078198539
 21
51.6746576996523004
 31
0.0
  0
LINE
  5
6366
  8
0
 10
3184.0038379259908652
 20
51.6710839071789394
 30
0.0
 11
3184.0159098075100701
 21
51.6710839084540794
 31
0.0
  0
LINE
  5
6367
  8
0
 10
3184.0009621298218008
 20
51.6507125137970604
 30
0.0
 11
3184.0130432020328044
 21
51.6507124946422209
 31
0.0
  0
LINE
  5
6368
  8
0
 10
3183.9975355742872125
 20
51.6274136051522987
 30
0.0
 11
3184.0096277586208089
 21
51.6274136051522987
 31
0.0
  0
LINE
  5
6369
  8
0
 10
3183.9876329926428298
 20
51.5650148073845926
 30
0.0
 11
3183.9999513989750994
 21
51.5661760042756967
 31
0.0
  0
LINE
  5
636A
  8
0
 10
3183.9856039709770812
 20
51.5529972263630327
 30
0.0
 11
3183.9979237099369129
 21
51.5541033628161571
 31
0.0
  0
LINE
  5
636B
  8
0
 10
3183.9853929393270846
 20
51.5517605897994073
 30
0.0
 11
3183.9977149850119531
 21
51.5528738878893407
 31
0.0
  0
LINE
  5
636C
  8
0
 10
3183.983349899112909
 20
51.539957877339269
 30
0.0
 11
3184.0005701771410713
 21
51.5414667602428196
 31
0.0
  0
LINE
  5
636D
  8
0
 10
3183.9833516876028625
 20
52.8487186898330492
 30
0.0
 11
3184.0005790903910565
 21
52.8472186174819498
 31
0.0
  0
LINE
  5
636E
  8
0
 10
3183.9853952793750977
 20
52.8369111889518805
 30
0.0
 11
3183.9977129310059354
 21
52.8358236860188129
 31
0.0
  0
LINE
  5
636F
  8
0
 10
3183.9856033374098843
 20
52.8356919678911297
 30
0.0
 11
3183.9979222801830474
 21
52.8345907787779794
 31
0.0
  0
ENDSEC
  0
EOF
