  0
SECTION
  2
HEADER
  9
$ACADVER
  1
AC1009
  9
$INSBASE
 10
1201.9394816968979285
 20
177.7476808056632933
 30
0.0
  9
$EXTMIN
 10
1200.9350074553819923
 20
177.7473396694489907
 30
-0.0000000349181948
  9
$EXTMAX
 10
1204.7035536274549941
 20
191.0864808434610893
 30
0.0000000814935746
  9
$LIMMIN
 10
0.0
 20
0.0
  9
$LIMMAX
 10
11.6929133858000007
 20
8.2677165353999982
  9
$ORTHOMODE
 70
     0
  9
$REGENMODE
 70
     1
  9
$FILLMODE
 70
     1
  9
$QTEXTMODE
 70
     0
  9
$MIRRTEXT
 70
     0
  9
$DRAGMODE
 70
     2
  9
$LTSCALE
 40
0.6431102362
  9
$OSMODE
 70
  4095
  9
$ATTMODE
 70
     1
  9
$TEXTSIZE
 40
0.2
  9
$TRACEWID
 40
0.05
  9
$TEXTSTYLE
  7
STANDARD
  9
$CLAYER
  8
0
  9
$CELTYPE
  6
BYLAYER
  9
$CECOLOR
 62
   256
  9
$DIMSCALE
 40
1.0
  9
$DIMASZ
 40
0.1875
  9
$DIMEXO
 40
0.0625
  9
$DIMDLI
 40
0.4443307087
  9
$DIMRND
 40
0.0
  9
$DIMDLE
 40
0.0
  9
$DIMEXE
 40
0.125
  9
$DIMTP
 40
0.01
  9
$DIMTM
 40
0.01
  9
$DIMTXT
 40
1.0
  9
$DIMCEN
 40
0.1052362205
  9
$DIMTSZ
 40
0.0
  9
$DIMTOL
 70
     1
  9
$DIMLIM
 70
     0
  9
$DIMTIH
 70
     0
  9
$DIMTOH
 70
     1
  9
$DIMSE1
 70
     0
  9
$DIMSE2
 70
     0
  9
$DIMTAD
 70
     0
  9
$DIMZIN
 70
     0
  9
$DIMBLK
  1

  9
$DIMASO
 70
     1
  9
$DIMSHO
 70
     1
  9
$DIMPOST
  1
\X
  9
$DIMAPOST
  1

  9
$DIMALT
 70
     1
  9
$DIMALTD
 70
     2
  9
$DIMALTF
 40
25.3999999999999986
  9
$DIMLFAC
 40
1.0
  9
$DIMTOFL
 70
     0
  9
$DIMTVP
 40
0.0
  9
$DIMTIX
 70
     0
  9
$DIMSOXD
 70
     0
  9
$DIMSAH
 70
     0
  9
$DIMBLK1
  1

  9
$DIMBLK2
  1

  9
$DIMSTYLE
  2
STANDARD
  9
$DIMCLRD
 70
     0
  9
$DIMCLRE
 70
     0
  9
$DIMCLRT
 70
     0
  9
$DIMTFAC
 40
1.0
  9
$DIMGAP
 40
0.09
  9
$LUNITS
 70
     2
  9
$LUPREC
 70
     4
  9
$SKETCHINC
 40
0.1
  9
$FILLETRAD
 40
0.0
  9
$AUNITS
 70
     0
  9
$AUPREC
 70
     0
  9
$MENU
  1
.
  9
$ELEVATION
 40
0.0
  9
$PELEVATION
 40
0.0
  9
$THICKNESS
 40
0.0
  9
$LIMCHECK
 70
     0
  9
$BLIPMODE
 70
     0
  9
$CHAMFERA
 40
0.0
  9
$CHAMFERB
 40
0.0
  9
$SKPOLY
 70
     0
  9
$TDCREATE
 40
2458172.5207638889551163
  9
$TDUPDATE
 40
2460059.0168518521822989
  9
$TDINDWG
 40
0.4870724769
  9
$TDUSRTIMER
 40
0.4870724769
  9
$USRTIMER
 70
     1
  9
$ANGBASE
 50
0.0
  9
$ANGDIR
 70
     0
  9
$PDMODE
 70
     0
  9
$PDSIZE
 40
0.3125
  9
$PLINEWID
 40
0.0
  9
$COORDS
 70
     1
  9
$SPLFRAME
 70
     0
  9
$SPLINETYPE
 70
     6
  9
$SPLINESEGS
 70
     8
  9
$ATTDIA
 70
     1
  9
$ATTREQ
 70
     1
  9
$HANDLING
 70
     1
  9
$HANDSEED
  5
E754
  9
$SURFTAB1
 70
     6
  9
$SURFTAB2
 70
     6
  9
$SURFTYPE
 70
     6
  9
$SURFU
 70
     6
  9
$SURFV
 70
     6
  9
$UCSNAME
  2

  9
$UCSORG
 10
0.0
 20
0.0
 30
0.0
  9
$UCSXDIR
 10
1.0
 20
0.0
 30
0.0
  9
$UCSYDIR
 10
0.0
 20
1.0
 30
0.0
  9
$PUCSNAME
  2

  9
$PUCSORG
 10
0.0
 20
0.0
 30
0.0
  9
$PUCSXDIR
 10
1.0
 20
0.0
 30
0.0
  9
$PUCSYDIR
 10
0.0
 20
1.0
 30
0.0
  9
$USERI1
 70
     0
  9
$USERI2
 70
     0
  9
$USERI3
 70
     0
  9
$USERI4
 70
     0
  9
$USERI5
 70
     0
  9
$USERR1
 40
0.0
  9
$USERR2
 40
0.0
  9
$USERR3
 40
0.0
  9
$USERR4
 40
0.0
  9
$USERR5
 40
0.0
  9
$WORLDVIEW
 70
     1
  9
$SHADEDGE
 70
     3
  9
$SHADEDIF
 70
    70
  9
$TILEMODE
 70
     1
  9
$MAXACTVP
 70
    64
  9
$PLIMCHECK
 70
     0
  9
$PEXTMIN
 10
1.0000000000000000E+20
 20
1.0000000000000000E+20
 30
1.0000000000000000E+20
  9
$PEXTMAX
 10
-1.0000000000000000E+20
 20
-1.0000000000000000E+20
 30
-1.0000000000000000E+20
  9
$PLIMMIN
 10
0.0
 20
0.0
  9
$PLIMMAX
 10
12.0
 20
9.0
  9
$UNITMODE
 70
     0
  9
$VISRETAIN
 70
     1
  9
$PLINEGEN
 70
     0
  9
$PSLTSCALE
 70
     1
  0
ENDSEC
  0
SECTION
  2
TABLES
  0
TABLE
  2
VPORT
 70
     1
  0
VPORT
  2
*ACTIVE
 70
     0
 10
0.0
 20
0.0
 11
1.0
 21
1.0
 12
736.0770788335886436
 22
95.2837631365252946
 13
0.0
 23
0.0
 14
1.0
 24
1.0
 15
0.0
 25
0.0
 16
0.0
 26
0.0
 36
24.1179433675886514
 17
466.74220170783002
 27
89.133147119929788
 37
0.0
 40
13.4304009767989196
 41
1.8299086757990859
 42
50.0
 43
0.0
 44
0.0
 50
0.0
 51
0.0
 71
     0
 72
   100
 73
     1
 74
     1
 75
     0
 76
     0
 77
     0
 78
     0
  0
ENDTAB
  0
TABLE
  2
LTYPE
 70
     2
  0
LTYPE
  2
CONTINUOUS
 70
     0
  3
Solid line
 72
    65
 73
     0
 40
0.0
  0
LTYPE
  2
PHANTOM2
 70
     0
  3
___ _ _ ___ _ _ ___ _ _ ___ _ _
 72
    65
 73
     6
 40
1.25
 49
0.625
 49
-0.125
 49
0.125
 49
-0.125
 49
0.125
 49
-0.125
  0
ENDTAB
  0
TABLE
  2
LAYER
 70
     2
  0
LAYER
  2
0
 70
     0
 62
   255
  6
CONTINUOUS
  0
LAYER
  2
DEFPOINTS
 70
     0
 62
     7
  6
CONTINUOUS
  0
ENDTAB
  0
TABLE
  2
STYLE
 70
     1
  0
STYLE
  2
STANDARD
 70
     0
 40
0.0
 41
0.8
 50
0.0
 71
     0
 42
0.2
  3
txt
  4

  0
ENDTAB
  0
TABLE
  2
VIEW
 70
     0
  0
ENDTAB
  0
TABLE
  2
UCS
 70
     0
  0
ENDTAB
  0
TABLE
  2
APPID
 70
    11
  0
APPID
  2
ACAD
 70
     0
  0
APPID
  2
ACAD_MLEADERVER
 70
     0
  0
APPID
  2
ACAD_EXEMPT_FROM_CAD_STANDARDS
 70
     0
  0
APPID
  2
ACAD_DSTYLE_DIMJAG
 70
     0
  0
APPID
  2
ACAD_DSTYLE_DIMTALN
 70
     0
  0
APPID
  2
ACAD_NAV_VCDISPLAY
 70
     0
  0
APPID
  2
ACAECLAYERSTANDARD
 70
     0
  0
APPID
  2
ACCMTRANSPARENCY
 70
     0
  0
APPID
  2
DCO15
 70
     0
  0
APPID
  2
ACDBATTR
 70
     0
  0
APPID
  2
ACADANNOTATIVE
 70
     0
  0
ENDTAB
  0
TABLE
  2
DIMSTYLE
 70
     1
  0
DIMSTYLE
  2
STANDARD
 70
     0
  3

  4

  5

  6

  7

 40
1.0
 41
0.1875
 42
0.0625
 43
0.38
 44
0.125
 45
0.0
 46
0.0
 47
0.01
 48
0.01
140
0.15625
141
0.09
142
0.0
143
25.3999999999999986
144
1.0
145
0.0
146
1.0
147
0.09
 71
     1
 72
     0
 73
     1
 74
     1
 75
     0
 76
     0
 77
     0
 78
     4
170
     0
171
     2
172
     0
173
     0
174
     0
175
     0
176
     0
177
     0
178
     0
  0
ENDTAB
  0
ENDSEC
  0
SECTION
  2
BLOCKS
  0
BLOCK
  8
0
  2
$MODEL_SPACE
 70
     0
 10
0.0
 20
0.0
 30
0.0
  3
$MODEL_SPACE
  1

  0
ENDBLK
  5
21
  8
0
  0
BLOCK
 67
     1
  8
0
  2
$PAPER_SPACE
 70
     0
 10
0.0
 20
0.0
 30
0.0
  3
$PAPER_SPACE
  1

  0
ENDBLK
  5
1D
 67
     1
  8
0
  0
ENDSEC
  0
SECTION
  2
ENTITIES
  0
ATTDEF
  5
829
  8
DEFPOINTS
 10
1201.9367901090060968
 20
177.7525030882021042
 30
0.0
 40
0.001
  1
K-25980K-4
  3

  2
MODELNUMBER
 70
     0
1001
ACDBATTR
1070
     0
1070
     1
  0
ATTDEF
  5
82A
  8
DEFPOINTS
 10
1201.9367901090060968
 20
177.7508364215354959
 30
0.0
 40
0.001
  1
ATOM
  3

  2
TRADENAME
 70
     0
1001
ACDBATTR
1070
     0
1070
     1
  0
ATTDEF
  5
82B
  8
DEFPOINTS
 10
1201.9367901090060968
 20
177.7491697548688023
 30
0.0
 40
0.001
  1
KITCHEN SINK FAUCET
  3

  2
PRODUCT
 70
     0
1001
ACDBATTR
1070
     0
1070
     1
  0
LINE
  5
E444
  8
0
 10
1202.9355187047478921
 20
177.7476808056632933
 30
0.0
 11
1200.9434446890479649
 21
177.7476808056632933
 31
0.0
  0
LINE
  5
E445
  8
0
 10
1202.9040187047480686
 20
177.944531199363297
 30
0.0
 11
1200.9749446890480158
 21
177.944531199363297
 31
0.0
  0
LINE
  5
E446
  8
0
 10
1202.7662383897479685
 20
181.1846886797632976
 30
0.0
 11
1201.1127250039480714
 21
181.1846886797632976
 31
0.0
  0
ARC
  5
E447
  8
0
 10
1202.7662383897479685
 20
181.1649886797632973
 30
0.0
 40
0.0197
 50
0.0
 51
90.0
  0
LINE
  5
E448
  8
0
 10
1202.4119226417481059
 20
181.2161847427632893
 30
0.0
 11
1201.4670407520479785
 21
181.2161847427632893
 31
0.0
  0
LINE
  5
E449
  8
0
 10
1203.9788919331479065
 20
180.503586317563304
 30
0.0
 11
1203.7032612244479424
 21
180.503586317563304
 31
0.0
  0
LINE
  5
E44A
  8
0
 10
1203.5851509882479604
 20
180.503586317563304
 30
0.0
 11
1202.9040383897479387
 21
180.503586317563304
 31
0.0
  0
LINE
  5
E44B
  8
0
 10
1204.6481131929479034
 20
178.850043010463196
 30
0.0
 11
1204.4666588844729631
 21
178.850043010463196
 31
0.0
  0
LINE
  5
E44C
  8
0
 10
1204.1739092039119896
 20
178.850043010463196
 30
0.0
 11
1203.9755224233479112
 21
178.850043010463196
 31
0.0
  0
LINE
  5
E44D
  8
0
 10
1203.5851302756200312
 20
178.850043010463196
 30
0.0
 11
1202.9040383897479387
 21
178.850043010463196
 31
0.0
  0
LINE
  5
E44E
  8
0
 10
1204.6875131929480176
 20
182.3145604078623023
 30
0.0
 11
1204.6875131929480176
 21
178.8894430104631965
 31
0.0
  0
LINE
  5
E44F
  8
0
 10
1201.0930250039480143
 20
181.1649886797632973
 30
0.0
 11
1201.0930250039480143
 21
177.9563311993632908
 31
0.0
  0
LINE
  5
E450
  8
0
 10
1202.7859383897480257
 20
178.7319430104633113
 30
0.0
 11
1202.7859383897480257
 21
177.9563311993632908
 31
0.0
  0
LINE
  5
E451
  8
0
 10
1202.7859383897480257
 20
180.6216863175633023
 30
0.0
 11
1202.7859383897480257
 21
181.1649886797632973
 31
0.0
  0
LINE
  5
E452
  8
0
 10
1200.9355446890479016
 20
177.9051311993632964
 30
0.0
 11
1200.9355446890479016
 21
177.7555808056632998
 31
0.0
  0
LINE
  5
E453
  8
0
 10
1202.9434187047479554
 20
177.9051311993632964
 30
0.0
 11
1202.9434187047479554
 21
177.7555808056632998
 31
0.0
  0
LINE
  5
E454
  8
0
 10
1201.9395226417479989
 20
191.0783509737632926
 30
0.0
 11
1201.9394407520480854
 21
191.0783509737632926
 31
0.0
  0
LINE
  5
E455
  8
0
 10
1202.0031500223531111
 20
186.5131550773631943
 30
0.0
 11
1201.8758133714420637
 21
186.5131550773631943
 31
0.0
  0
LINE
  5
E456
  8
0
 10
1202.0089980255979754
 20
186.6706946131438087
 30
0.0
 11
1201.869965368198109
 21
186.6706946131438087
 31
0.0
  0
LINE
  5
E457
  8
0
 10
1201.4670407520479785
 20
190.6059509737632993
 30
0.0
 11
1201.4670407520479785
 21
181.2161847427632893
 31
0.0
  0
LINE
  5
E458
  8
0
 10
1202.4119226417481059
 20
190.6059509737632993
 30
0.0
 11
1202.4119226417481059
 21
181.2161847427632893
 31
0.0
  0
LINE
  5
E459
  8
0
 10
1203.7032612244479424
 20
180.503586317563304
 30
0.0
 11
1203.7032612244479424
 21
179.5980745064632913
 31
0.0
  0
LINE
  5
E45A
  8
0
 10
1203.6048360275478899
 20
180.4838863175633037
 30
0.0
 11
1203.6048360275478899
 21
178.8697430104631962
 31
0.0
  0
LINE
  5
E45B
  8
0
 10
1203.6166470512480373
 20
180.4760272623632886
 30
0.0
 11
1203.6166470512480373
 21
178.877602065563309
 31
0.0
  0
ARC
  5
E45C
  8
0
 10
1201.9394407520480854
 20
190.6059509737632993
 30
0.0
 40
0.4724000000000001
 50
90.0
 51
180.0
  0
ARC
  5
E45D
  8
0
 10
1201.9395226417479989
 20
190.6059509737632993
 30
0.0
 40
0.4724000000000001
 50
0.0
 51
90.0
  0
ARC
  5
E45E
  8
0
 10
1200.9749446890480158
 20
177.9051311993632964
 30
0.0
 40
0.0394
 50
90.0
 51
180.0
  0
ARC
  5
E45F
  8
0
 10
1202.9040187047480686
 20
177.9051311993632964
 30
0.0
 40
0.0394
 50
0.0
 51
90.0
  0
ARC
  5
E460
  8
0
 10
1200.9434446890479649
 20
177.7555808056632998
 30
0.0
 40
0.0079
 50
180.0000000000032117
 51
269.9999999999869829
  0
ARC
  5
E461
  8
0
 10
1201.1048250039480081
 20
177.9563311993632908
 30
0.0
 40
0.0118
 50
179.9999999999967031
 51
270.0
  0
ARC
  5
E462
  8
0
 10
1202.7741383897480318
 20
177.9563311993632908
 30
0.0
 40
0.0118
 50
270.0
 51
0.0
  0
ARC
  5
E463
  8
0
 10
1202.9355187047478921
 20
177.7555808056632998
 30
0.0
 40
0.0079
 50
270.0000000000130171
 51
359.9999999999951115
  0
ARC
  5
E464
  8
0
 10
1202.9040383897479387
 20
178.7319430104633113
 30
0.0
 40
0.1181
 50
90.0
 51
180.0
  0
ARC
  5
E465
  8
0
 10
1203.5851360275480602
 20
178.8697430104631962
 30
0.0
 40
0.0197
 50
269.9832710061547232
 51
0.0000000000016284
  0
LINE
  5
E466
  8
0
 10
1203.6166470512480373
 20
178.877602065563309
 30
0.0
 11
1203.6048360275478899
 21
178.877602065563309
 31
0.0
  0
LINE
  5
E467
  8
0
 10
1203.6166470512480373
 20
180.4760272623632886
 30
0.0
 11
1203.6048360275478899
 21
180.4760272623632886
 31
0.0
  0
ARC
  5
E468
  8
0
 10
1203.5851360178380673
 20
180.4838863135412055
 30
0.0
 40
0.0197000097102804
 50
0.0000116980186447
 51
89.9564598484109723
  0
LINE
  5
E469
  8
0
 10
1203.6166470512480373
 20
180.4760272623632886
 30
0.0
 11
1203.7032612244479424
 21
180.4142764518632873
 31
0.0
  0
LINE
  5
E46A
  8
0
 10
1203.6166470512480373
 20
178.877602065563309
 30
0.0
 11
1203.8258215313560413
 21
179.0267311654980062
 31
0.0
  0
LINE
  5
E46B
  8
0
 10
1202.4097892233480707
 20
181.2161847427632893
 30
0.0
 11
1202.4099541378479898
 21
181.1846886797632976
 31
0.0
  0
ARC
  5
E46C
  8
0
 10
1201.1127250039480714
 20
181.1649886797632973
 30
0.0
 40
0.0197
 50
90.0
 51
179.9999999999984084
  0
LINE
  5
E46D
  8
0
 10
1201.4691741704480137
 20
181.2161847427632893
 30
0.0
 11
1201.4690092559480945
 21
181.1846886797632976
 31
0.0
  0
LINE
  5
E46E
  8
0
 10
1201.9097892233480707
 20
181.2161847427632893
 30
0.0
 11
1201.9099541378479898
 21
181.1846886797632976
 31
0.0
  0
LINE
  5
E46F
  8
0
 10
1201.9099431454731075
 20
181.1867880495632903
 30
0.0
 11
1201.9690202483220673
 21
181.1867880495632903
 31
0.0
  0
LINE
  5
E470
  8
0
 10
1201.9691741704480137
 20
181.2161847427632893
 30
0.0
 11
1201.9690092559480945
 21
181.1846886797632976
 31
0.0
  0
ARC
  5
E471
  8
0
 10
1202.9040383897479387
 20
180.6216863175633023
 30
0.0
 40
0.1181
 50
180.0
 51
270.0
  0
LINE
  5
E472
  8
0
 10
1204.0575919331479327
 20
182.3145705694633136
 30
0.0
 11
1204.0575919331479327
 21
180.5822863175633017
 31
0.0
  0
ARC
  5
E473
  8
0
 10
1204.3725919331479872
 20
182.3145705694633136
 30
0.0
 40
0.315
 50
90.0
 51
180.0
  0
ARC
  5
E474
  8
0
 10
1203.9788919331479065
 20
180.5822863175633017
 30
0.0
 40
0.0787
 50
270.0
 51
0.0
  0
LINE
  5
E475
  8
0
 10
1203.7032612244479424
 20
179.5980745064632913
 30
0.0
 11
1203.9755224233479112
 21
178.850043010463196
 31
0.0
  0
ARC
  5
E476
  8
0
 10
1203.8189211237529435
 20
179.0363771112423876
 30
0.0
 40
0.0118600124114653
 50
305.5787439984600269
 51
347.9383489077893046
  0
LINE
  5
E477
  8
0
 10
1203.8305193064479681
 20
179.0338987947664009
 30
0.0
 11
1203.8595570786480948
 21
179.1686551764632895
 31
0.0
  0
ARC
  5
E478
  8
0
 10
1204.3202840441920216
 20
178.1287104907981984
 30
0.0
 40
0.7360341009719712
 50
78.5291332709794432
 51
101.4708667290205
  0
ARC
  5
E479
  8
0
 10
1204.6481131929479034
 20
178.8894430104631965
 30
0.0
 40
0.0394
 50
270.0
 51
359.9999999999984084
  0
ARC
  5
E47A
  8
0
 10
1204.372513176459961
 20
182.3145705625013875
 30
0.0
 40
0.3150000168072565
 50
359.9981529589435922
 51
89.985674839394747
  0
LINE
  5
E47B
  8
0
 10
1201.9950848018850138
 20
186.6934988638641926
 30
0.0
 11
1201.8838785919110705
 21
186.6934988638641926
 31
0.0
  0
ARC
  5
E47C
  8
0
 10
1201.9396496244510217
 20
184.4053420309408864
 30
0.0
 40
2.2888364074621248
 50
91.3962383078886518
 51
98.2146053149415934
  0
ARC
  5
E47D
  8
0
 10
1201.6734773999260142
 20
186.2155319487968086
 30
0.0
 40
0.4592133875022619
 50
97.6158152754790081
 51
113.8262314440133025
  0
ARC
  5
E47E
  8
0
 10
1201.5080300596569032
 20
186.5937638572877972
 30
0.0
 40
0.0464040744028705
 50
115.6107674776717005
 51
147.6254309031934042
  0
ARC
  5
E47F
  8
0
 10
1201.4837383099509225
 20
186.6109924859273121
 30
0.0
 40
0.0167343411168919
 50
152.91814738358471
 51
176.2004012391334129
  0
ARC
  5
E480
  8
0
 10
1201.5036544848960602
 20
186.6120830317379102
 30
0.0
 40
0.036676736170787
 50
183.3588159284527137
 51
218.7294846321630928
  0
ARC
  5
E481
  8
0
 10
1201.5548996890929629
 20
186.6634950713414867
 30
0.0
 40
0.1091162321004153
 50
222.9580382594336072
 51
255.6201641999965091
  0
ARC
  5
E482
  8
0
 10
1201.7288488268141009
 20
187.1926917641197861
 30
0.0
 40
0.6659663592138795
 50
252.4288923785184977
 51
263.8658654283437954
  0
ARC
  5
E483
  8
0
 10
1201.9480923361959412
 20
188.7973458996098088
 30
0.0
 40
2.2853341027475831
 50
262.6994636354544923
 51
268.1875865130475063
  0
LINE
  5
E484
  8
0
 10
1201.9178406431460644
 20
186.6594570853633002
 30
0.0
 11
1201.96112275065002
 21
186.6594469748035863
 31
0.0
  0
ARC
  5
E485
  8
0
 10
1201.9496792109980561
 20
184.2575791673399124
 30
0.0
 40
2.4020889299714052
 50
90.759451059031818
 51
93.1172629095979545
  0
ARC
  5
E486
  8
0
 10
1201.8646401110740953
 20
185.5427319575863123
 30
0.0
 40
1.114314670874657
 50
92.344577125014311
 51
97.7708407364388421
  0
ARC
  5
E487
  8
0
 10
1201.8408172428780745
 20
185.6237078061481895
 30
0.0
 40
1.030938996718691
 50
97.0674913381789537
 51
102.5879372662221982
  0
ARC
  5
E488
  8
0
 10
1201.6399533153410175
 20
186.4927740741493096
 30
0.0
 40
0.1391451290498953
 50
99.8554967254399202
 51
127.9771669105209071
  0
ARC
  5
E489
  8
0
 10
1201.5640835262709061
 20
186.5921565016255101
 30
0.0
 40
0.0141844327145851
 50
133.4381327297772089
 51
207.4249098057755134
  0
ARC
  5
E48A
  8
0
 10
1201.5929122658869801
 20
186.6164829504359091
 30
0.0
 40
0.0516512636741505
 50
216.6882436665229079
 51
250.4487283220250902
  0
ARC
  5
E48B
  8
0
 10
1201.784398387947931
 20
187.147265863407398
 30
0.0
 40
0.6159178401163876
 50
250.1865033996058116
 51
268.0235016097145717
  0
ARC
  5
E48C
  8
0
 10
1201.3400652293969415
 20
180.4049936427963132
 30
0.0
 40
6.1413120308381739
 50
85.1584116076437141
 51
86.0496206629764231
  0
ARC
  5
E48D
  8
0
 10
1201.9364294927709125
 20
188.5777048118596042
 30
0.0
 40
2.053314479016489
 50
269.9147578491079003
 51
270.0852421221011923
  0
LINE
  5
E48E
  8
0
 10
1201.8583989040459983
 20
186.5243926052633014
 30
0.0
 11
1202.0205697398489519
 21
186.5243926052633014
 31
0.0
  0
ARC
  5
E48F
  8
0
 10
1201.9238236251840135
 20
187.6652724599393878
 30
0.0
 40
1.039853850689384
 50
258.3572566208275134
 51
269.0310636885246822
  0
ARC
  5
E490
  8
0
 10
1201.7786020909170475
 20
186.6120935593420995
 30
0.0
 40
0.038023957293612
 50
73.4097734318711872
 51
92.3688486195709686
  0
ARC
  5
E491
  8
0
 10
1201.7766988139969726
 20
186.6037584069428021
 30
0.0
 40
0.0463278034684597
 50
89.5898238984579791
 51
102.7525147884853993
  0
ARC
  5
E492
  8
0
 10
1201.7670349939139669
 20
186.6463337585786917
 30
0.0
 40
0.0026696197176428
 50
102.165609530921401
 51
138.8891086202735892
  0
ARC
  5
E493
  8
0
 10
1201.7653877593750167
 20
186.6479116477059961
 30
0.0
 40
0.000405086896705
 50
154.0225388331575118
 51
219.843157061676294
  0
ARC
  5
E494
  8
0
 10
1201.7684040668200396
 20
186.6518677691155119
 30
0.0
 40
0.0053705589101869
 50
231.716667015300601
 51
264.7350593787467119
  0
ARC
  5
E495
  8
0
 10
1201.7776569615259632
 20
186.7070462155334951
 30
0.0
 40
0.0613059331868416
 50
260.8529783598505105
 51
276.8845748500497166
  0
ARC
  5
E496
  8
0
 10
1201.783998847608018
 20
186.6594976407241973
 30
0.0
 40
0.0133533322141545
 50
274.3241549912140158
 51
294.5628413260997149
  0
ARC
  5
E497
  8
0
 10
1201.7892056867181054
 20
186.6478073341212109
 30
0.0
 40
0.0007701055193225
 50
3.2063497683106399
 51
70.8056285372768031
  0
ARC
  5
E498
  8
0
 10
1201.7891848630379172
 20
186.648094374268112
 30
0.0
 40
0.0008265489077903
 50
296.193725437469709
 51
342.8326998245382242
  0
ARC
  5
E499
  8
0
 10
1201.8986043070929099
 20
186.7089563629633062
 30
0.0
 40
0.0510313937650834
 50
258.8164844553377861
 51
283.5695440039473283
  0
ARC
  5
E49A
  8
0
 10
1201.8189268263390659
 20
186.5999174768587068
 30
0.0
 40
0.038023957293612
 50
73.4097734318711872
 51
92.3688486195709686
  0
ARC
  5
E49B
  8
0
 10
1201.817023549418991
 20
186.5915823244594094
 30
0.0
 40
0.0463278034684597
 50
89.5898238984579791
 51
102.7525147884853993
  0
ARC
  5
E49C
  8
0
 10
1201.8073597293350758
 20
186.6341576760952989
 30
0.0
 40
0.0026696197176428
 50
102.165609530921401
 51
138.8891086202735892
  0
ARC
  5
E49D
  8
0
 10
1201.8057124947970351
 20
186.6357355652224896
 30
0.0
 40
0.000405086896705
 50
154.0225388331575118
 51
219.843157061676294
  0
ARC
  5
E49E
  8
0
 10
1201.808728802242058
 20
186.6396916866320908
 30
0.0
 40
0.0053705589101869
 50
231.716667015300601
 51
264.7350593787467119
  0
ARC
  5
E49F
  8
0
 10
1201.8179816969479816
 20
186.6948701330501024
 30
0.0
 40
0.0613059331868416
 50
260.8529783598505105
 51
276.8845748500497166
  0
ARC
  5
E4A0
  8
0
 10
1201.8243235830300364
 20
186.6473215582406908
 30
0.0
 40
0.0133533322141545
 50
274.3241549912140158
 51
294.5628413260997149
  0
ARC
  5
E4A1
  8
0
 10
1201.829530422138987
 20
186.6356312516377898
 30
0.0
 40
0.0007701055193225
 50
3.2063497683106399
 51
70.8056285372768031
  0
ARC
  5
E4A2
  8
0
 10
1201.8295095984599357
 20
186.6359182917846908
 30
0.0
 40
0.0008265489077903
 50
296.193725437469709
 51
342.8326998245382242
  0
ARC
  5
E4A3
  8
0
 10
1201.859426826338904
 20
186.6120985592586976
 30
0.0
 40
0.038023957293612
 50
73.4097734318711872
 51
92.3688486195709686
  0
ARC
  5
E4A4
  8
0
 10
1201.8575235494190565
 20
186.6037634068594002
 30
0.0
 40
0.0463278034684597
 50
89.5898238984579791
 51
102.7525147884853993
  0
ARC
  5
E4A5
  8
0
 10
1201.8478597293349139
 20
186.6463387584952898
 30
0.0
 40
0.0026696197176428
 50
102.165609530921401
 51
138.8891086202735892
  0
ARC
  5
E4A6
  8
0
 10
1201.8462124947971006
 20
186.6479166476225942
 30
0.0
 40
0.000405086896705
 50
154.0225388331575118
 51
219.843157061676294
  0
ARC
  5
E4A7
  8
0
 10
1201.8492288022418961
 20
186.65187276903211
 30
0.0
 40
0.0053705589101869
 50
231.716667015300601
 51
264.7350593787467119
  0
ARC
  5
E4A8
  8
0
 10
1201.8584816969480471
 20
186.7070512154500932
 30
0.0
 40
0.0613059331868416
 50
260.8529783598505105
 51
276.8845748500497166
  0
ARC
  5
E4A9
  8
0
 10
1201.8648235830301019
 20
186.6595026406407953
 30
0.0
 40
0.0133533322141545
 50
274.3241549912140158
 51
294.5628413260997149
  0
ARC
  5
E4AA
  8
0
 10
1201.8700304221390525
 20
186.6478123340376953
 30
0.0
 40
0.0007701055193225
 50
3.2063497683106399
 51
70.8056285372768031
  0
ARC
  5
E4AB
  8
0
 10
1201.8700095984600011
 20
186.6480993741847101
 30
0.0
 40
0.0008265489077903
 50
296.193725437469709
 51
342.8326998245382242
  0
ARC
  5
E4AC
  8
0
 10
1201.8999268263389695
 20
186.5999174768587068
 30
0.0
 40
0.038023957293612
 50
73.4097734318711872
 51
92.3688486195709686
  0
ARC
  5
E4AD
  8
0
 10
1201.8980235494188946
 20
186.5915823244594094
 30
0.0
 40
0.0463278034684597
 50
89.5898238984579791
 51
102.7525147884853993
  0
ARC
  5
E4AE
  8
0
 10
1201.8883597293349794
 20
186.6341576760952989
 30
0.0
 40
0.0026696197176428
 50
102.165609530921401
 51
138.8891086202735892
  0
ARC
  5
E4AF
  8
0
 10
1201.8867124947960292
 20
186.6357355652226033
 30
0.0
 40
0.000405086896705
 50
154.0225388331575118
 51
219.843157061676294
  0
ARC
  5
E4B0
  8
0
 10
1201.8897288022419616
 20
186.6396916866320908
 30
0.0
 40
0.0053705589101869
 50
231.716667015300601
 51
264.7350593787467119
  0
ARC
  5
E4B1
  8
0
 10
1201.8989816969481126
 20
186.6948701330501024
 30
0.0
 40
0.0613059331868416
 50
260.8529783598505105
 51
276.8845748500497166
  0
ARC
  5
E4B2
  8
0
 10
1201.90532358302994
 20
186.6473215582406908
 30
0.0
 40
0.0133533322141545
 50
274.3241549912140158
 51
294.5628413260997149
  0
ARC
  5
E4B3
  8
0
 10
1201.9105304221388906
 20
186.6356312516377898
 30
0.0
 40
0.0007701055193225
 50
3.2063497683106399
 51
70.8056285372768031
  0
ARC
  5
E4B4
  8
0
 10
1201.9105095984600666
 20
186.6359182917846908
 30
0.0
 40
0.0008265489077903
 50
296.193725437469709
 51
342.8326998245382242
  0
ARC
  5
E4B5
  8
0
 10
1201.9404268262890128
 20
186.6120985592586976
 30
0.0
 40
0.038023957293612
 50
73.4097734318711872
 51
92.3688486195709686
  0
ARC
  5
E4B6
  8
0
 10
1201.9385235493689379
 20
186.6037634068594002
 30
0.0
 40
0.0463278034684597
 50
89.5898238984579791
 51
102.7525147884853993
  0
ARC
  5
E4B7
  8
0
 10
1201.9288597292850227
 20
186.6463387584952898
 30
0.0
 40
0.0026696197176428
 50
102.165609530921401
 51
138.8891086202735892
  0
ARC
  5
E4B8
  8
0
 10
1201.927212494746982
 20
186.6479166476225942
 30
0.0
 40
0.000405086896705
 50
154.0225388331575118
 51
219.843157061676294
  0
ARC
  5
E4B9
  8
0
 10
1201.9302288021920049
 20
186.65187276903211
 30
0.0
 40
0.0053705589101869
 50
231.716667015300601
 51
264.7350593787467119
  0
ARC
  5
E4BA
  8
0
 10
1201.9394816968979285
 20
186.7070512154500932
 30
0.0
 40
0.0613059331868416
 50
260.8529783598505105
 51
276.8845748500497166
  0
ARC
  5
E4BB
  8
0
 10
1201.9458235829799833
 20
186.6595026406407953
 30
0.0
 40
0.0133533322141545
 50
274.3241549912140158
 51
294.5628413260997149
  0
ARC
  5
E4BC
  8
0
 10
1201.9510304220889338
 20
186.6478123340376953
 30
0.0
 40
0.0007701055193225
 50
3.2063497683106399
 51
70.8056285372768031
  0
ARC
  5
E4BD
  8
0
 10
1201.9510095984101099
 20
186.6480993741847101
 30
0.0
 40
0.0008265489077903
 50
296.193725437469709
 51
342.8326998245382242
  0
ARC
  5
E4BE
  8
0
 10
1201.9315753239520745
 20
187.9675889790975134
 30
0.0
 40
1.371006320860878
 50
262.2747448267032269
 51
270.3304173766712211
  0
ARC
  5
E4BF
  8
0
 10
1201.7758920772839701
 20
186.8876007672988067
 30
0.0
 40
0.2800403591058618
 50
244.1710866973909049
 51
264.1359006429378269
  0
ARC
  5
E4C0
  8
0
 10
1201.5956469318280142
 20
186.6195903146056878
 30
0.0
 40
0.0283872106812375
 50
195.4229738927965911
 51
244.5858011813888879
  0
ARC
  5
E4C1
  8
0
 10
1201.6854646513190801
 20
186.7702696599021976
 30
0.0
 40
0.2036974112337429
 50
239.9507360802456901
 51
263.7071020502808096
  0
ARC
  5
E4C2
  8
0
 10
1201.8968458119938987
 20
187.760739241949409
 30
0.0
 40
1.2156169978241189
 50
258.9155770119318731
 51
267.9143855517776842
  0
LINE
  5
E4C3
  8
0
 10
1201.5812569334439104
 20
186.6189331074783126
 30
0.0
 11
1201.5812566738679834
 21
186.596110172865906
 31
0.0
  0
LINE
  5
E4C4
  8
0
 10
1201.5812566738679834
 20
186.596110172865906
 30
0.0
 11
1201.6210862906480088
 21
186.5961101728632912
 31
0.0
  0
LINE
  5
E4C5
  8
0
 10
1201.6210862906480088
 20
186.5961101728632912
 30
0.0
 11
1201.6211934442480924
 21
186.6204195981632949
 31
0.0
  0
LINE
  5
E4C6
  8
0
 10
1201.6211934442480924
 20
186.6204195981632949
 30
0.0
 11
1201.5845666907459872
 21
186.6204208083584888
 31
0.0
  0
ARC
  5
E4C7
  8
0
 10
1201.6858538600608881
 20
186.5235003105009071
 30
0.0
 40
0.1165088738856492
 50
105.7047626038297068
 51
123.7095269982602019
  0
ARC
  5
E4C8
  8
0
 10
1201.7395960771100363
 20
186.3629408935339882
 30
0.0
 40
0.2857413216896189
 50
105.1484715672520025
 51
107.3644033973185969
  0
LINE
  5
E4C9
  8
0
 10
1201.6649258137479137
 20
186.6387532476632884
 30
0.0
 11
1201.6649258137479137
 21
186.639531324341192
 31
0.0
  0
LINE
  5
E4CA
  8
0
 10
1201.6649258137479137
 20
186.6387532476632884
 30
0.0
 11
1201.6627403597310604
 21
186.6391504872702001
 31
0.0
  0
ARC
  5
E4CB
  8
0
 10
1201.6938086259369811
 20
186.7283352309621023
 30
0.0
 40
0.1736416076383982
 50
229.5950731108763136
 51
231.0955815955771016
  0
ARC
  5
E4CC
  8
0
 10
1201.5027610542160801
 20
186.5917242701993928
 30
0.0
 40
0.016023721898483
 50
155.083853308774593
 51
232.7172967978740985
  0
ARC
  5
E4CD
  8
0
 10
1201.5644111915680696
 20
186.6634555615499949
 30
0.0
 40
0.1105835896072603
 50
229.8139383533043087
 51
253.695598825194395
  0
ARC
  5
E4CE
  8
0
 10
1201.6577233819800767
 20
186.9140403094565102
 30
0.0
 40
0.3777760039996612
 50
250.7807995975389872
 51
257.3702106087087031
  0
ARC
  5
E4CF
  8
0
 10
1201.7759821978340824
 20
187.4279627848505072
 30
0.0
 40
0.9051256335175288
 50
257.1785417739906734
 51
261.4034733286819119
  0
ARC
  5
E4D0
  8
0
 10
1201.5045665823211039
 20
185.5986525280553963
 30
0.0
 40
0.9442167084449364
 50
80.8625116025164488
 51
81.711157017905137
  0
ARC
  5
E4D1
  8
0
 10
1201.5272790283490849
 20
186.5747375854143115
 30
0.0
 40
0.0456988706345773
 50
111.2230847103364937
 51
148.7060091674277942
  0
ARC
  5
E4D2
  8
0
 10
1201.646981339732065
 20
186.3200551480142053
 30
0.0
 40
0.327015786892671
 50
99.9753592317938455
 51
114.6221467839409058
  0
ARC
  5
E4D3
  8
0
 10
1201.8453368662969751
 20
185.3424707056547049
 30
0.0
 40
1.3244370296508909
 50
94.1634091102739177
 51
101.1008594266487961
  0
ARC
  5
E4D4
  8
0
 10
1202.0965772081690375
 20
181.9066101416158006
 30
0.0
 40
4.7694710165666674
 50
92.7233192322087234
 51
94.1769778726534099
  0
ARC
  5
E4D5
  8
0
 10
1201.6954908614429769
 20
186.7122466727510073
 30
0.0
 40
0.1379265266777857
 50
237.3537419063160883
 51
257.166462439017323
  0
LINE
  5
E4D6
  8
0
 10
1201.6648547241759388
 20
186.5777656188631966
 30
0.0
 11
1201.6363689122829328
 21
186.5725773642712113
 31
0.0
  0
LINE
  5
E4D7
  8
0
 10
1201.6648547241759388
 20
186.6171550830154047
 30
0.0
 11
1201.6648547241759388
 21
186.5674561020323949
 31
0.0
  0
ARC
  5
E4D8
  8
0
 10
1201.8300532843888959
 20
187.2749239024267069
 30
0.0
 40
0.6781964199893293
 50
255.9017655318016864
 51
264.3975292724006181
  0
ARC
  5
E4D9
  8
0
 10
1201.841037280664068
 20
187.5209473130256015
 30
0.0
 40
0.9318458566680087
 50
259.1015809607217193
 51
263.5078380955998227
  0
LINE
  5
E4DA
  8
0
 10
1201.7356759935480568
 20
186.5950770738633082
 30
0.0
 11
1201.7638438053479604
 21
186.5999670971633009
 31
0.0
  0
LINE
  5
E4DB
  8
0
 10
1201.7638438053479604
 20
186.5999670971633009
 30
0.0
 11
1201.7638415805479326
 21
186.5605750259632032
 31
0.0
  0
LINE
  5
E4DC
  8
0
 10
1201.7638415805479326
 20
186.5605750259632032
 30
0.0
 11
1201.7364738699250211
 21
186.5555849747682942
 31
0.0
  0
LINE
  5
E4DD
  8
0
 10
1201.7356759935480568
 20
186.5950770738633082
 30
0.0
 11
1201.7356759935480568
 21
186.5556911242206013
 31
0.0
  0
ARC
  5
E4DE
  8
0
 10
1201.9223170196930823
 20
188.0257049372862923
 30
0.0
 40
1.473675718014555
 50
263.826615970017599
 51
267.9451480225146156
  0
LINE
  5
E4DF
  8
0
 10
1201.869476542125085
 20
186.5923691874583028
 30
0.0
 11
1201.869476542125085
 21
186.5459275142785032
 31
0.0
  0
ARC
  5
E4E0
  8
0
 10
1201.9394816955750684
 20
188.4432519997037048
 30
0.0
 40
1.852206226686254
 50
267.8339585797381233
 51
272.1660415020552932
  0
ARC
  5
E4E1
  8
0
 10
1201.9394816969479507
 20
188.667259227250895
 30
0.0
 40
2.0829829839199139
 50
268.074033534904288
 51
271.9259664622410924
  0
LINE
  5
E4E2
  8
0
 10
1202.0094868516669067
 20
186.5923691875582051
 30
0.0
 11
1202.0094868516669067
 21
186.5459275142785032
 31
0.0
  0
ARC
  5
E4E3
  8
0
 10
1201.9375583554331115
 20
184.3986164575854048
 30
0.0
 40
2.2956033086509939
 50
81.763653530872574
 51
88.5640517042369737
  0
ARC
  5
E4E4
  8
0
 10
1202.2053469172560654
 20
186.2154077058058874
 30
0.0
 40
0.4592133875022619
 50
66.1470003406475087
 51
82.357416509189008
  0
ARC
  5
E4E5
  8
0
 10
1202.3709709469490008
 20
186.5935622771006877
 30
0.0
 40
0.0464040744028705
 50
32.3478008814768927
 51
64.3624643070022415
  0
ARC
  5
E4E6
  8
0
 10
1202.3952707431060389
 20
186.6107795549129094
 30
0.0
 40
0.0167343411168919
 50
5.6896727784679291
 51
27.0550844010832598
  0
ARC
  5
E4E7
  8
0
 10
1202.3753550798298875
 20
186.6118794053116119
 30
0.0
 40
0.036676736170787
 50
321.2437471525093997
 51
355.5780870145990775
  0
ARC
  5
E4E8
  8
0
 10
1202.3241339005960526
 20
186.6633153807293866
 30
0.0
 40
0.1091162321004153
 50
284.3530675846706117
 51
317.0151935252392832
  0
ARC
  5
E4E9
  8
0
 10
1202.1504320190999806
 20
187.1925932836560094
 30
0.0
 40
0.6659663592138795
 50
276.1073663563216201
 51
287.5443394061468894
  0
ARC
  5
E4EA
  8
0
 10
1201.9332663242539638
 20
188.7844951162111897
 30
0.0
 40
2.2724148616249491
 50
271.7622980871313985
 51
277.2815869600848941
  0
ARC
  5
E4EB
  8
0
 10
1201.9283270933599397
 20
184.2597517609358988
 30
0.0
 40
2.399919305851022
 50
86.8554357827187431
 51
89.217010658634166
  0
ARC
  5
E4EC
  8
0
 10
1202.01386989920411
 20
185.5426970979928001
 30
0.0
 40
1.114314670874657
 50
82.2023910482352562
 51
87.628654659661251
  0
ARC
  5
E4ED
  8
0
 10
1202.037730596188112
 20
185.6236618078287961
 30
0.0
 40
1.030938996718691
 50
77.3852945184452636
 51
82.9057404464827954
  0
ARC
  5
E4EE
  8
0
 10
1202.2390005238939921
 20
186.4926341386681088
 30
0.0
 40
0.1391451290498953
 50
51.9960648741430873
 51
80.1177350592320749
  0
ARC
  5
E4EF
  8
0
 10
1202.314916735504994
 20
186.5919811094277065
 30
0.0
 40
0.0141844327145851
 50
332.5483219788940801
 51
46.5350990548858476
  0
ARC
  5
E4F0
  8
0
 10
1202.2860993641938876
 20
186.6163210241822981
 30
0.0
 40
0.0516512636741505
 50
289.5245034626419169
 51
323.2849881181484761
  0
ARC
  5
E4F1
  8
0
 10
1202.094861241344006
 20
187.1471933402937111
 30
0.0
 40
0.6159178401163876
 50
271.9497301749495932
 51
289.7867283850716831
  0
ARC
  5
E4F2
  8
0
 10
1202.5864177664100225
 20
179.7099512618881931
 30
0.0
 40
6.837894033360179
 50
93.9463617620067737
 51
94.7467568484587019
  0
ARC
  5
E4F3
  8
0
 10
1201.9559708968670293
 20
187.6634074548514093
 30
0.0
 40
1.0379753655162081
 50
270.9248058310030274
 51
281.6207859371203881
  0
ARC
  5
E4F4
  8
0
 10
1202.1004075087339515
 20
186.6120183866422053
 30
0.0
 40
0.038023957293612
 50
87.6043831650959959
 51
106.5634583527972978
  0
ARC
  5
E4F5
  8
0
 10
1202.1023068913170846
 20
186.603682345954013
 30
0.0
 40
0.0463278034684597
 50
77.2207169961876616
 51
90.3834078862112875
  0
ARC
  5
E4F6
  8
0
 10
1202.1119906012729643
 20
186.6462531780697987
 30
0.0
 40
0.0026696197176428
 50
41.0841231643913218
 51
77.8076222537470414
  0
ARC
  5
E4F7
  8
0
 10
1202.1136385728109417
 20
186.647830297447598
 30
0.0
 40
0.000405086896705
 50
320.1300747229919921
 51
25.9506929515158511
  0
ARC
  5
E4F8
  8
0
 10
1202.1106241139689246
 20
186.6517878276245881
 30
0.0
 40
0.0053705589101869
 50
275.2381724059308112
 51
308.2565647693697883
  0
ARC
  5
E4F9
  8
0
 10
1202.1013969992829971
 20
186.7069705909127038
 30
0.0
 40
0.0613059331868416
 50
263.0886569346201895
 51
279.1202534248116081
  0
ARC
  5
E4FA
  8
0
 10
1202.0950328995090786
 20
186.6594249841803901
 30
0.0
 40
0.0133533322141545
 50
245.4103904585730902
 51
265.6490767934488986
  0
ARC
  5
E4FB
  8
0
 10
1202.0898205993339616
 20
186.6477371114544042
 30
0.0
 40
0.0007701055193225
 50
109.1676032473910993
 51
176.7668820163586929
  0
ARC
  5
E4FC
  8
0
 10
1202.089841557113914
 20
186.6480241418414039
 30
0.0
 40
0.0008265489077903
 50
197.1405319601300903
 51
243.7795063472009076
  0
ARC
  5
E4FD
  8
0
 10
1201.9804505593240265
 20
186.7089372439448027
 30
0.0
 40
0.0510313937650834
 50
256.4036877807261021
 51
281.1567473293405897
  0
ARC
  5
E4FE
  8
0
 10
1202.0600770891260254
 20
186.5998611449408884
 30
0.0
 40
0.038023957293612
 50
87.6043831650959959
 51
106.5634583527972978
  0
ARC
  5
E4FF
  8
0
 10
1202.0619764717100679
 20
186.5915251042528098
 30
0.0
 40
0.0463278034684597
 50
77.2207169961876616
 51
90.3834078862112875
  0
ARC
  5
E500
  8
0
 10
1202.0716601816659477
 20
186.6340959363685101
 30
0.0
 40
0.0026696197176428
 50
41.0841231643913218
 51
77.8076222537470414
  0
ARC
  5
E501
  8
0
 10
1202.073308153203925
 20
186.6356730557463095
 30
0.0
 40
0.000405086896705
 50
320.1300747229919921
 51
25.9506929515158511
  0
ARC
  5
E502
  8
0
 10
1202.0702936943619079
 20
186.6396305859232996
 30
0.0
 40
0.0053705589101869
 50
275.2381724059308112
 51
308.2565647693697883
  0
ARC
  5
E503
  8
0
 10
1202.0610665796759804
 20
186.6948133492113868
 30
0.0
 40
0.0613059331868416
 50
263.0886569346201895
 51
279.1202534248116081
  0
ARC
  5
E504
  8
0
 10
1202.0547024799020619
 20
186.6472677424791016
 30
0.0
 40
0.0133533322141545
 50
245.4103904585730902
 51
265.6490767934488986
  0
ARC
  5
E505
  8
0
 10
1202.0494901797260354
 20
186.6355798697530872
 30
0.0
 40
0.0007701055193225
 50
109.1676032473910993
 51
176.7668820163586929
  0
ARC
  5
E506
  8
0
 10
1202.0495111375068973
 20
186.635866900140087
 30
0.0
 40
0.0008265489077903
 50
197.1405319601300903
 51
243.7795063472009076
  0
ARC
  5
E507
  8
0
 10
1202.0195827844690939
 20
186.6120611473473048
 30
0.0
 40
0.038023957293612
 50
87.6043831650959959
 51
106.5634583527972978
  0
ARC
  5
E508
  8
0
 10
1202.0214821670519996
 20
186.6037251066591125
 30
0.0
 40
0.0463278034684597
 50
77.2207169961876616
 51
90.3834078862112875
  0
ARC
  5
E509
  8
0
 10
1202.0311658770081067
 20
186.6462959387748128
 30
0.0
 40
0.0026696197176428
 50
41.0841231643913218
 51
77.8076222537470414
  0
ARC
  5
E50A
  8
0
 10
1202.032813848546084
 20
186.6478730581526975
 30
0.0
 40
0.000405086896705
 50
320.1300747229919921
 51
25.9506929515158511
  0
ARC
  5
E50B
  8
0
 10
1202.0297993897040669
 20
186.6518305883296023
 30
0.0
 40
0.0053705589101869
 50
275.2381724059308112
 51
308.2565647693697883
  0
ARC
  5
E50C
  8
0
 10
1202.020572275017912
 20
186.7070133516178032
 30
0.0
 40
0.0613059331868416
 50
263.0886569346201895
 51
279.1202534248116081
  0
ARC
  5
E50D
  8
0
 10
1202.0142081752439935
 20
186.6594677448854895
 30
0.0
 40
0.0133533322141545
 50
245.4103904585730902
 51
265.6490767934488986
  0
ARC
  5
E50E
  8
0
 10
1202.0089958750691039
 20
186.6477798721595036
 30
0.0
 40
0.0007701055193225
 50
109.1676032473910993
 51
176.7668820163586929
  0
ARC
  5
E50F
  8
0
 10
1202.0090168328490563
 20
186.6480669025465033
 30
0.0
 40
0.0008265489077903
 50
197.1405319601300903
 51
243.7795063472009076
  0
ARC
  5
E510
  8
0
 10
1201.9790770979670924
 20
186.5998989876125052
 30
0.0
 40
0.038023957293612
 50
87.6043831650959959
 51
106.5634583527972978
  0
ARC
  5
E511
  8
0
 10
1201.9809764805499981
 20
186.5915629469243129
 30
0.0
 40
0.0463278034684597
 50
77.2207169961876616
 51
90.3834078862112875
  0
ARC
  5
E512
  8
0
 10
1201.9906601905061052
 20
186.6341337790400132
 30
0.0
 40
0.0026696197176428
 50
41.0841231643913218
 51
77.8076222537470414
  0
ARC
  5
E513
  8
0
 10
1201.9923081620440826
 20
186.6357108984178979
 30
0.0
 40
0.000405086896705
 50
320.1300747229919921
 51
25.9506929515158511
  0
ARC
  5
E514
  8
0
 10
1201.9892937032020654
 20
186.6396684285948027
 30
0.0
 40
0.0053705589101869
 50
275.2381724059308112
 51
308.2565647693697883
  0
ARC
  5
E515
  8
0
 10
1201.9800665885159106
 20
186.6948511918828899
 30
0.0
 40
0.0613059331868416
 50
263.0886569346201895
 51
279.1202534248116081
  0
ARC
  5
E516
  8
0
 10
1201.9737024887419921
 20
186.6473055851506047
 30
0.0
 40
0.0133533322141545
 50
245.4103904585730902
 51
265.6490767934488986
  0
ARC
  5
E517
  8
0
 10
1201.9684901885659656
 20
186.635617712424704
 30
0.0
 40
0.0007701055193225
 50
109.1676032473910993
 51
176.7668820163586929
  0
ARC
  5
E518
  8
0
 10
1201.9685111463470548
 20
186.63590474281159
 30
0.0
 40
0.0008265489077903
 50
197.1405319601300903
 51
243.7795063472009076
  0
ARC
  5
E519
  8
0
 10
1201.948062868840907
 20
187.9676323649451888
 30
0.0
 40
1.3710537633756461
 50
269.6413939709696024
 51
277.6984172417302261
  0
ARC
  5
E51A
  8
0
 10
1202.1032462372420468
 20
186.8875242984308045
 30
0.0
 40
0.2800403591058618
 50
275.8373311417344098
 51
295.8021450872806213
  0
ARC
  5
E51B
  8
0
 10
1202.2833661502920677
 20
186.619429665631003
 30
0.0
 40
0.0283872106812375
 50
295.3874306032848835
 51
344.5502578918706718
  0
ARC
  5
E51C
  8
0
 10
1202.1936188370100353
 20
186.770150956735705
 30
0.0
 40
0.2036974112337429
 50
276.2661297343944966
 51
300.0224957044263192
  0
ARC
  5
E51D
  8
0
 10
1201.9837147169030231
 20
187.7541781882704868
 30
0.0
 40
1.2090029281088059
 50
272.0212906245080831
 51
281.0699335524162734
  0
LINE
  5
E51E
  8
0
 10
1202.2977558400621092
 20
186.6187657356620946
 30
0.0
 11
1202.2977454369120096
 21
186.5959428034192058
 31
0.0
  0
LINE
  5
E51F
  8
0
 10
1202.2977454369120096
 20
186.5959428034192058
 30
0.0
 11
1202.2579158244789141
 21
186.5959614115535885
 31
0.0
  0
LINE
  5
E520
  8
0
 10
1202.2579158244789141
 20
186.5959614115535885
 30
0.0
 11
1202.2578200280959209
 21
186.6202708842619984
 31
0.0
  0
LINE
  5
E521
  8
0
 10
1202.2578200280959209
 20
186.6202708842619984
 30
0.0
 11
1202.2944467781660478
 21
186.6202549826768973
 31
0.0
  0
ARC
  5
E522
  8
0
 10
1202.1931143392801005
 20
186.5233818161013915
 30
0.0
 40
0.1165088738856492
 50
56.2637047864105995
 51
74.2684691808506727
  0
ARC
  5
E523
  8
0
 10
1202.1392971157840748
 20
186.362847524670201
 30
0.0
 40
0.2857413216896189
 50
72.6088283873598641
 51
74.824760217420561
  0
LINE
  5
E524
  8
0
 10
1202.2140962287301136
 20
186.6386249632388967
 30
0.0
 11
1202.2140965922419582
 21
186.6394030398319046
 31
0.0
  0
LINE
  5
E525
  8
0
 10
1202.2140962287301136
 20
186.6386249632388967
 30
0.0
 11
1202.2162818680949385
 21
186.6390211817725913
 31
0.0
  0
ARC
  5
E526
  8
0
 10
1202.1852552718100924
 20
186.7282204306227129
 30
0.0
 40
0.1736416076383982
 50
308.8776501890915256
 51
310.3781586737890166
  0
ARC
  5
E527
  8
0
 10
1202.3762389989319672
 20
186.5915202285900136
 30
0.0
 40
0.016023721898483
 50
307.2559349867984224
 51
24.8893784758954588
  0
ARC
  5
E528
  8
0
 10
1202.3146223807000297
 20
186.663280314654088
 30
0.0
 40
0.1105835896072603
 50
286.2776329594764206
 51
310.1592934313698038
  0
ARC
  5
E529
  8
0
 10
1202.2214272720309509
 20
186.9139086300596091
 30
0.0
 40
0.3777760039996612
 50
282.6030211759622262
 51
289.1924321871325105
  0
ARC
  5
E52A
  8
0
 10
1202.1034085703099663
 20
187.4278862991139079
 30
0.0
 40
0.9051256335175288
 50
278.5697584559870279
 51
282.7946900106824728
  0
ARC
  5
E52B
  8
0
 10
1202.3739695143860899
 20
185.5984494383556012
 30
0.0
 40
0.9442167084449364
 50
98.2620747667573511
 51
99.110720182149123
  0
ARC
  5
E52C
  8
0
 10
1202.3517130914069639
 20
186.5745450002962116
 30
0.0
 40
0.0456988706345773
 50
31.2672226172406518
 51
68.7501470743364109
  0
ARC
  5
E52D
  8
0
 10
1202.2318918071139251
 20
186.319918514829709
 30
0.0
 40
0.327015786892671
 50
65.3510850007281903
 51
79.9978725528775669
  0
ARC
  5
E52E
  8
0
 10
1202.0330795811239568
 20
185.342426849566607
 30
0.0
 40
1.3244370296508909
 50
78.8723723580175431
 51
85.8098226743920947
  0
ARC
  5
E52F
  8
0
 10
1201.7677430868420743
 20
181.7205985613913128
 30
0.0
 40
4.9559716370304017
 50
85.8099343997604649
 51
87.2097590566705776
  0
ARC
  5
E530
  8
0
 10
1202.1835655200191013
 20
186.7121326600966995
 30
0.0
 40
0.1379265266777857
 50
282.8067693456517873
 51
302.6194898783490999
  0
LINE
  5
E531
  8
0
 10
1202.2141388252719025
 20
186.5776373078822132
 30
0.0
 11
1202.2426222101369149
 21
186.5724357454708979
 31
0.0
  0
LINE
  5
E532
  8
0
 10
1202.2141572277719206
 20
186.6170267677354957
 30
0.0
 11
1202.2141340087330263
 21
186.5673277921763997
 31
0.0
  0
ARC
  5
E533
  8
0
 10
1202.0492659908888982
 20
187.2748726950507887
 30
0.0
 40
0.6781964199893293
 50
275.575702512270027
 51
284.0714662528682766
  0
ARC
  5
E534
  8
0
 10
1202.0383969363449523
 20
187.5209012104513988
 30
0.0
 40
0.9318458566680087
 50
276.4653936890725276
 51
280.8716508239580207
  0
LINE
  5
E535
  8
0
 10
1202.1433256514280856
 20
186.5949818482278886
 30
0.0
 11
1202.115160127289073
 21
186.5998850308120893
 31
0.0
  0
LINE
  5
E536
  8
0
 10
1202.115160127289073
 20
186.5998850308120893
 30
0.0
 11
1202.115143948369905
 21
186.5604929628717059
 31
0.0
  0
LINE
  5
E537
  8
0
 10
1202.115143948369905
 20
186.5604929628717059
 30
0.0
 11
1202.1425093246859888
 21
186.5554901262055125
 31
0.0
  0
LINE
  5
E538
  8
0
 10
1202.1433256514280856
 20
186.5949818482278886
 30
0.0
 11
1202.1433072505690234
 21
186.5555959028835105
 31
0.0
  0
ARC
  5
E539
  8
0
 10
1201.9573530256550384
 20
188.0256967529892052
 30
0.0
 40
1.473675718014555
 50
272.0280837621517094
 51
276.146615814653785
  0
LINE
  5
E53A
  8
0
 10
1202.1097409422259261
 20
179.6946656642498965
 30
0.0
 11
1202.1097409422259261
 21
179.6649928134945071
 31
0.0
  0
ARC
  5
E53B
  8
0
 10
1202.4192377719130036
 20
179.6590706501040131
 30
0.0
 40
0.3115369843507363
 50
155.7624925929036976
 51
173.4392776290476093
  0
ARC
  5
E53C
  8
0
 10
1203.0993630877910618
 20
179.3193845764699006
 30
0.0
 40
1.0715934925917709
 50
142.5095322659144017
 51
154.1294598997644982
  0
ARC
  5
E53D
  8
0
 10
1213.3752081887901113
 20
171.3305914019857141
 30
0.0
 40
14.08747859392947
 50
138.7360772993039859
 51
142.1656004244686073
  0
ARC
  5
E53E
  8
0
 10
1202.3804551229429762
 20
179.6842165668861071
 30
0.0
 40
0.2713958738368319
 50
184.0618269097236066
 51
199.203548993476204
  0
ARC
  5
E53F
  8
0
 10
1203.4847209382469373
 20
180.2209082397602913
 30
0.0
 40
1.4976483422640221
 50
204.7060079157079997
 51
223.8634049542432933
  0
ARC
  5
E540
  8
0
 10
1222.4803776050780471
 20
195.7495505253810961
 30
0.0
 40
26.0282577954906387
 50
219.5297240732944886
 51
220.8297154649764877
  0
LINE
  5
E542
  8
0
 10
1201.9062393608719503
 20
186.625567297673598
 30
0.0
 11
1201.9727240329239066
 21
186.625567297673598
 31
0.0
  0
LINE
  5
E543
  8
0
 10
1202.0263572892160937
 20
186.5459275142785032
 30
0.0
 11
1201.8526061045790811
 21
186.5459275142785032
 31
0.0
  0
ENDSEC
  0
EOF
