  0
SECTION
  2
HEADER
  9
$ACADVER
  1
AC1009
  9
$INSBASE
 10
1760.8767152508260097
 20
194.3580192717741113
 30
0.0
  9
$EXTMIN
 10
1759.7482644035139856
 20
185.1933226358115121
 30
-0.0000000000000058
  9
$EXTMAX
 10
1764.4320426110589324
 20
195.388671712853494
 30
0.0000000000000104
  9
$LIMMIN
 10
0.0
 20
0.0
  9
$LIMMAX
 10
11.6929133858000007
 20
8.2677165353999982
  9
$ORTHOMODE
 70
     0
  9
$REGENMODE
 70
     1
  9
$FILLMODE
 70
     1
  9
$QTEXTMODE
 70
     0
  9
$MIRRTEXT
 70
     0
  9
$DRAGMODE
 70
     2
  9
$LTSCALE
 40
0.6431102362
  9
$OSMODE
 70
  4095
  9
$ATTMODE
 70
     1
  9
$TEXTSIZE
 40
0.2
  9
$TRACEWID
 40
0.05
  9
$TEXTSTYLE
  7
STANDARD
  9
$CLAYER
  8
0
  9
$CELTYPE
  6
BYLAYER
  9
$CECOLOR
 62
   256
  9
$DIMSCALE
 40
1.0
  9
$DIMASZ
 40
0.1875
  9
$DIMEXO
 40
0.0625
  9
$DIMDLI
 40
0.4443307087
  9
$DIMRND
 40
0.0
  9
$DIMDLE
 40
0.0
  9
$DIMEXE
 40
0.125
  9
$DIMTP
 40
0.01
  9
$DIMTM
 40
0.01
  9
$DIMTXT
 40
2.0
  9
$DIMCEN
 40
0.1052362205
  9
$DIMTSZ
 40
0.0
  9
$DIMTOL
 70
     1
  9
$DIMLIM
 70
     0
  9
$DIMTIH
 70
     1
  9
$DIMTOH
 70
     1
  9
$DIMSE1
 70
     0
  9
$DIMSE2
 70
     0
  9
$DIMTAD
 70
     0
  9
$DIMZIN
 70
     0
  9
$DIMBLK
  1

  9
$DIMASO
 70
     1
  9
$DIMSHO
 70
     1
  9
$DIMPOST
  1
\X
  9
$DIMAPOST
  1

  9
$DIMALT
 70
     1
  9
$DIMALTD
 70
     2
  9
$DIMALTF
 40
25.3999999999999986
  9
$DIMLFAC
 40
1.0
  9
$DIMTOFL
 70
     0
  9
$DIMTVP
 40
0.0
  9
$DIMTIX
 70
     0
  9
$DIMSOXD
 70
     0
  9
$DIMSAH
 70
     0
  9
$DIMBLK1
  1

  9
$DIMBLK2
  1

  9
$DIMSTYLE
  2
STANDARD
  9
$DIMCLRD
 70
     0
  9
$DIMCLRE
 70
     0
  9
$DIMCLRT
 70
     0
  9
$DIMTFAC
 40
1.0
  9
$DIMGAP
 40
0.09
  9
$LUNITS
 70
     2
  9
$LUPREC
 70
     4
  9
$SKETCHINC
 40
0.1
  9
$FILLETRAD
 40
0.0
  9
$AUNITS
 70
     0
  9
$AUPREC
 70
     0
  9
$MENU
  1
.
  9
$ELEVATION
 40
0.0
  9
$PELEVATION
 40
0.0
  9
$THICKNESS
 40
0.0
  9
$LIMCHECK
 70
     0
  9
$BLIPMODE
 70
     0
  9
$CHAMFERA
 40
0.0
  9
$CHAMFERB
 40
0.0
  9
$SKPOLY
 70
     0
  9
$TDCREATE
 40
2458060.468368056230247
  9
$TDUPDATE
 40
2460284.7042129631154239
  9
$TDINDWG
 40
0.3249037384
  9
$TDUSRTIMER
 40
0.3249037384
  9
$USRTIMER
 70
     1
  9
$ANGBASE
 50
0.0
  9
$ANGDIR
 70
     0
  9
$PDMODE
 70
     0
  9
$PDSIZE
 40
0.3125
  9
$PLINEWID
 40
0.0
  9
$COORDS
 70
     1
  9
$SPLFRAME
 70
     0
  9
$SPLINETYPE
 70
     6
  9
$SPLINESEGS
 70
     8
  9
$ATTDIA
 70
     1
  9
$ATTREQ
 70
     1
  9
$HANDLING
 70
     1
  9
$HANDSEED
  5
8103
  9
$SURFTAB1
 70
     6
  9
$SURFTAB2
 70
     6
  9
$SURFTYPE
 70
     6
  9
$SURFU
 70
     6
  9
$SURFV
 70
     6
  9
$UCSNAME
  2

  9
$UCSORG
 10
0.0
 20
0.0
 30
0.0
  9
$UCSXDIR
 10
1.0
 20
0.0
 30
0.0
  9
$UCSYDIR
 10
0.0
 20
1.0
 30
0.0
  9
$PUCSNAME
  2

  9
$PUCSORG
 10
0.0
 20
0.0
 30
0.0
  9
$PUCSXDIR
 10
1.0
 20
0.0
 30
0.0
  9
$PUCSYDIR
 10
0.0
 20
1.0
 30
0.0
  9
$USERI1
 70
     0
  9
$USERI2
 70
     0
  9
$USERI3
 70
     0
  9
$USERI4
 70
     0
  9
$USERI5
 70
     0
  9
$USERR1
 40
0.0
  9
$USERR2
 40
0.0
  9
$USERR3
 40
0.0
  9
$USERR4
 40
0.0
  9
$USERR5
 40
0.0
  9
$WORLDVIEW
 70
     1
  9
$SHADEDGE
 70
     3
  9
$SHADEDIF
 70
    70
  9
$TILEMODE
 70
     1
  9
$MAXACTVP
 70
    64
  9
$PLIMCHECK
 70
     0
  9
$PEXTMIN
 10
1.0000000000000000E+20
 20
1.0000000000000000E+20
 30
1.0000000000000000E+20
  9
$PEXTMAX
 10
-1.0000000000000000E+20
 20
-1.0000000000000000E+20
 30
-1.0000000000000000E+20
  9
$PLIMMIN
 10
0.0
 20
0.0
  9
$PLIMMAX
 10
12.0
 20
9.0
  9
$UNITMODE
 70
     0
  9
$VISRETAIN
 70
     1
  9
$PLINEGEN
 70
     0
  9
$PSLTSCALE
 70
     1
  0
ENDSEC
  0
SECTION
  2
TABLES
  0
TABLE
  2
VPORT
 70
     1
  0
VPORT
  2
*ACTIVE
 70
     0
 10
0.0
 20
0.0
 11
1.0
 21
1.0
 12
801.5830572865583008
 22
113.2849279909828937
 13
0.0
 23
0.0
 14
1.0
 24
1.0
 15
0.0
 25
0.0
 16
0.0
 26
0.0
 36
82.6066804857415349
 17
960.5070962207281582
 27
77.0060691833496094
 37
0.0
 40
10.2647839175212408
 41
2.1579545454545448
 42
50.0
 43
0.0
 44
0.0
 50
0.0
 51
0.0
 71
     0
 72
   100
 73
     1
 74
     1
 75
     0
 76
     0
 77
     0
 78
     0
  0
ENDTAB
  0
TABLE
  2
LTYPE
 70
     2
  0
LTYPE
  2
CONTINUOUS
 70
     0
  3
Solid line
 72
    65
 73
     0
 40
0.0
  0
LTYPE
  2
PHANTOM2
 70
     0
  3
___ _ _ ___ _ _ ___ _ _ ___ _ _
 72
    65
 73
     6
 40
1.25
 49
0.625
 49
-0.125
 49
0.125
 49
-0.125
 49
0.125
 49
-0.125
  0
ENDTAB
  0
TABLE
  2
LAYER
 70
     2
  0
LAYER
  2
0
 70
     0
 62
   255
  6
CONTINUOUS
  0
LAYER
  2
DEFPOINTS
 70
     0
 62
     7
  6
CONTINUOUS
  0
ENDTAB
  0
TABLE
  2
STYLE
 70
     1
  0
STYLE
  2
STANDARD
 70
     0
 40
0.0
 41
0.8
 50
0.0
 71
     0
 42
0.2
  3
txt
  4

  0
ENDTAB
  0
TABLE
  2
VIEW
 70
     0
  0
ENDTAB
  0
TABLE
  2
UCS
 70
     0
  0
ENDTAB
  0
TABLE
  2
APPID
 70
     9
  0
APPID
  2
ACAD
 70
     0
  0
APPID
  2
ACAD_MLEADERVER
 70
     0
  0
APPID
  2
ACAD_EXEMPT_FROM_CAD_STANDARDS
 70
     0
  0
APPID
  2
ACAD_NAV_VCDISPLAY
 70
     0
  0
APPID
  2
ACAECLAYERSTANDARD
 70
     0
  0
APPID
  2
ACCMTRANSPARENCY
 70
     0
  0
APPID
  2
ACAD_DSTYLE_DIMJAG
 70
     0
  0
APPID
  2
ACAD_DSTYLE_DIMTALN
 70
     0
  0
APPID
  2
ACDBATTR
 70
     0
  0
ENDTAB
  0
TABLE
  2
DIMSTYLE
 70
     1
  0
DIMSTYLE
  2
STANDARD
 70
     0
  3

  4

  5

  6

  7

 40
1.0
 41
0.1875
 42
0.0625
 43
0.38
 44
0.125
 45
0.0
 46
0.0
 47
0.01
 48
0.01
140
0.15625
141
0.09
142
0.0
143
25.3999999999999986
144
1.0
145
0.0
146
1.0
147
0.09
 71
     1
 72
     0
 73
     1
 74
     1
 75
     0
 76
     0
 77
     0
 78
     4
170
     0
171
     2
172
     0
173
     0
174
     0
175
     0
176
     0
177
     0
178
     0
  0
ENDTAB
  0
ENDSEC
  0
SECTION
  2
BLOCKS
  0
BLOCK
  8
0
  2
$MODEL_SPACE
 70
     0
 10
0.0
 20
0.0
 30
0.0
  3
$MODEL_SPACE
  1

  0
ENDBLK
  5
21
  8
0
  0
BLOCK
 67
     1
  8
0
  2
$PAPER_SPACE
 70
     0
 10
0.0
 20
0.0
 30
0.0
  3
$PAPER_SPACE
  1

  0
ENDBLK
  5
1D
 67
     1
  8
0
  0
BLOCK
  8
0
  2
_FILLED
 70
     0
 10
0.0
 20
0.0
 30
0.0
  3
_FILLED
  1

  0
SOLID
  5
78C7
  8
0
  6
BYBLOCK
 62
     0
 10
0.0
 20
0.0
 30
0.0
 11
-1.0
 21
0.1666666667
 31
0.0
 12
-1.0
 22
-0.1666666667
 32
0.0
 13
-1.0
 23
-0.1666666667
 33
0.0
  0
ENDBLK
  5
78C8
  8
0
  6
BYBLOCK
 62
     0
  0
ENDSEC
  0
SECTION
  2
ENTITIES
  0
ATTDEF
  5
3930
  8
DEFPOINTS
 10
1760.8719201142459951
 20
194.356644348721602
 30
0.0
 40
0.001
  1
K-25981T-4
  3

  2
MODELNUMBER
 70
     0
1001
ACDBATTR
1070
     0
1070
     1
  0
ATTDEF
  5
3931
  8
DEFPOINTS
 10
1760.8719201142459951
 20
194.3549776820549084
 30
0.0
 40
0.001
  1
ATOM
  3

  2
TRADENAME
 70
     0
1001
ACDBATTR
1070
     0
1070
     1
  0
ATTDEF
  5
3932
  8
DEFPOINTS
 10
1760.8719201142459951
 20
194.3533110153883001
 30
0.0
 40
0.001
  1
KITCHEN SINK FAUCET
  3

  2
PRODUCT
 70
     0
1001
ACDBATTR
1070
     0
1070
     1
  0
LINE
  5
804A
  8
0
 10
1760.3255342451759589
 20
186.68651892746621
 30
0.0
 11
1760.3255342451759589
 21
194.3580192717741113
 31
0.0
  0
LINE
  5
804B
  8
0
 10
1764.3215971405759319
 20
193.5706820412740967
 30
0.0
 11
1764.3215971405759319
 21
195.1454552696741018
 31
0.0
  0
ARC
  5
804C
  8
0
 10
1764.2821971405760451
 20
193.5706820412740967
 30
0.0
 40
0.0394
 50
270.0
 51
0.0
  0
LINE
  5
804D
  8
0
 10
1763.2507309988759516
 20
193.558838897174013
 30
0.0
 11
1763.2507309988759516
 21
195.1572640939739927
 31
0.0
  0
LINE
  5
804E
  8
0
 10
1763.6916758807760743
 20
194.2202883404740135
 30
0.0
 11
1763.6916758807760743
 21
194.4958190491740879
 31
0.0
  0
LINE
  5
804F
  8
0
 10
1763.3314396602759189
 20
195.1848253483740905
 30
0.0
 11
1764.2821971405760451
 21
195.1848253483740905
 31
0.0
  0
LINE
  5
8050
  8
0
 10
1763.2192199751759745
 20
195.1848253483740905
 30
0.0
 11
1761.1946472892700513
 21
195.1848253483740905
 31
0.0
  0
LINE
  5
8051
  8
0
 10
1761.4278962564760604
 20
193.5312820412740109
 30
0.0
 11
1763.2192199751759745
 21
193.5312820412740109
 31
0.0
  0
LINE
  5
8052
  8
0
 10
1763.3314396602759189
 20
193.5312820412740109
 30
0.0
 11
1764.2821971405760451
 21
193.5312820412740109
 31
0.0
  0
LINE
  5
8053
  8
0
 10
1763.2507309988759516
 20
193.558838897174013
 30
0.0
 11
1763.2389199751760316
 21
193.558838897174013
 31
0.0
  0
LINE
  5
8054
  8
0
 10
1763.2507309988759516
 20
193.558838897174013
 30
0.0
 11
1763.3314396602759189
 21
193.6163794251465049
 31
0.0
  0
LINE
  5
8055
  8
0
 10
1763.2389199751760316
 20
195.1572640939739927
 30
0.0
 11
1763.2507309988759516
 21
195.1572640939739927
 31
0.0
  0
LINE
  5
8056
  8
0
 10
1763.2507309988759516
 20
195.1572640939739927
 30
0.0
 11
1763.3314396602759189
 21
195.099723565908505
 31
0.0
  0
ARC
  5
8057
  8
0
 10
1764.2821971325320192
 20
195.1454253289535927
 30
0.0
 40
0.039400019420426
 50
0.0435400059645715
 51
89.9999883020660292
  0
LINE
  5
8058
  8
0
 10
1763.7310758807759612
 20
194.5352190491740885
 30
0.0
 11
1764.2821971405760451
 21
194.5352190491740885
 31
0.0
  0
LINE
  5
8059
  8
0
 10
1763.7310758807759612
 20
194.1808883404740129
 30
0.0
 11
1764.2821971405760451
 21
194.1808883404740129
 31
0.0
  0
ARC
  5
805A
  8
0
 10
1763.7310758807759612
 20
194.2202883404740135
 30
0.0
 40
0.0394
 50
179.9999999999942872
 51
270.0
  0
ARC
  5
805B
  8
0
 10
1763.7310758807759612
 20
194.4958190491740879
 30
0.0
 40
0.0394
 50
90.0
 51
180.0000000000048885
  0
ARC
  5
805C
  8
0
 10
1764.2821971405760451
 20
194.2202883404740135
 30
0.0
 40
0.0394
 50
270.0
 51
0.0000000000048853
  0
ARC
  5
805D
  8
0
 10
1764.2821971405760451
 20
194.4958190491740879
 30
0.0
 40
0.0394
 50
359.9999999999943157
 51
90.0
  0
ARC
  5
805E
  8
0
 10
1760.8793395898669587
 20
186.0544340989100931
 30
0.0
 40
0.855149617896966
 50
250.6997306340871035
 51
269.824166690883203
  0
ARC
  5
805F
  8
0
 10
1760.8977069716170263
 20
186.0887152401228946
 30
0.0
 40
0.8935950780662825
 50
218.8155874919895041
 51
250.3147256027534979
  0
ARC
  5
8060
  8
0
 10
1760.788383362049899
 20
186.0007678221942911
 30
0.0
 40
0.7532868462017515
 50
186.2537436390136918
 51
218.8155874919895041
  0
ARC
  5
8061
  8
0
 10
1761.2102137492620386
 20
186.0473099884196131
 30
0.0
 40
1.1776769798824791
 50
181.1832652796545915
 51
186.2690421209221086
  0
ARC
  5
8062
  8
0
 10
1760.8882671885260152
 20
186.0165766210049867
 30
0.0
 40
0.8555033317376469
 50
166.1840237423319877
 51
179.5704394781527924
  0
ARC
  5
8063
  8
0
 10
1761.2386752539518966
 20
185.8935196032618933
 30
0.0
 40
1.2256832913019431
 50
150.8754720493099057
 51
164.5094483072639093
  0
ARC
  5
8064
  8
0
 10
1797.9068869564230226
 20
168.9512862627518928
 30
0.0
 40
41.6153264270078509
 50
154.5639445579593882
 51
155.0738255736611961
  0
ARC
  5
8065
  8
0
 10
1760.8879292499420899
 20
186.7767276253946989
 30
0.0
 40
0.6070777200735039
 50
249.9863784293750086
 51
268.9415665493831966
  0
ARC
  5
8066
  8
0
 10
1760.8724879412670816
 20
186.7242587160837104
 30
0.0
 40
0.5525034138584802
 50
217.7919033993840969
 51
249.6287782686532921
  0
ARC
  5
8067
  8
0
 10
1760.850901333200909
 20
186.7075193118060099
 30
0.0
 40
0.5251869480667305
 50
193.852814398909004
 51
217.7919033993840969
  0
ARC
  5
8068
  8
0
 10
1760.8812773543741059
 20
186.7150100743918983
 30
0.0
 40
0.5564729543060954
 50
182.934799445563101
 51
193.852814398909004
  0
ARC
  5
8069
  8
0
 10
1760.8767152508260097
 20
194.3580192717741113
 30
0.0
 40
0.5511810056500002
 50
0.0
 51
180.0
  0
ARC
  5
806A
  8
0
 10
1760.8767152508260097
 20
194.3580192717741113
 30
0.0
 40
0.8858267716500005
 50
308.478587142839217
 51
231.5214128571602998
  0
LINE
  5
806B
  8
0
 10
1761.4278962564760604
 20
186.68651892746621
 30
0.0
 11
1761.4278962564760604
 21
194.3580192717741113
 31
0.0
  0
ARC
  5
806C
  8
0
 10
1760.8638466574091126
 20
186.1141267300594109
 30
0.0
 40
0.9149287258748223
 50
270.8058992822478217
 51
288.6702033927786033
  0
ARC
  5
806D
  8
0
 10
1760.855723530034993
 20
186.0887152401228946
 30
0.0
 40
0.8935950780662825
 50
289.6852743972464737
 51
321.1844125080104959
  0
ARC
  5
806E
  8
0
 10
1760.9650471396009834
 20
186.0007678221942911
 30
0.0
 40
0.7532868462017515
 50
321.1844125080104959
 51
353.7462563609861945
  0
ARC
  5
806F
  8
0
 10
1760.5432167523899807
 20
186.0473099884196131
 30
0.0
 40
1.1776769798824791
 50
353.7309578790777778
 51
358.8167347203445274
  0
ARC
  5
8070
  8
0
 10
1760.8651633131250946
 20
186.0165766210049867
 30
0.0
 40
0.8555033317376469
 50
0.4295605218471943
 51
13.8159762576679395
  0
ARC
  5
8071
  8
0
 10
1760.5147552476998953
 20
185.8935196032618933
 30
0.0
 40
1.2256832913019431
 50
15.4905516927360392
 51
29.12452795069008
  0
ARC
  5
8072
  8
0
 10
1723.8465435452289967
 20
168.9512862627518928
 30
0.0
 40
41.6153264270078509
 50
24.9261744263387399
 51
25.4360554420405798
  0
ARC
  5
8073
  8
0
 10
1760.8655012517099294
 20
186.7767276253946989
 30
0.0
 40
0.6070777200734861
 50
271.0584334506166897
 51
290.0136215706249914
  0
ARC
  5
8074
  8
0
 10
1760.8809425603849377
 20
186.7242587160837104
 30
0.0
 40
0.5525034138584802
 50
290.3712217313466226
 51
322.2080966006159883
  0
ARC
  5
8075
  8
0
 10
1760.9025291684511103
 20
186.7075193118060099
 30
0.0
 40
0.5251869480667305
 50
322.2080966006159883
 51
346.147185601090996
  0
ARC
  5
8076
  8
0
 10
1760.8721531472779134
 20
186.7150100743918983
 30
0.0
 40
0.5564729543060954
 50
346.147185601090996
 51
357.0652005544359895
  0
ARC
  5
8077
  8
0
 10
1760.8767152508260097
 20
194.3580192717741113
 30
0.0
 40
0.5571028617442348
 50
351.6384976691003885
 51
188.3615023308989009
  0
LINE
  5
8079
  8
0
 10
1763.238919975276076
 20
195.1651253483740902
 30
0.0
 11
1763.238919975276076
 21
193.5509820412740112
 31
0.0
  0
LINE
  5
807A
  8
0
 10
1763.3314396602759189
 20
195.1848253483740905
 30
0.0
 11
1763.3314396602759189
 21
193.5312820412740109
 31
0.0
  0
ARC
  5
807B
  8
0
 10
1763.2192199751759745
 20
193.5509820412740112
 30
0.0
 40
0.0197
 50
270.0
 51
0.0
  0
ARC
  5
807C
  8
0
 10
1763.2192199751759745
 20
195.1651253483740902
 30
0.0
 40
0.0197
 50
0.0000000000097707
 51
90.0
  0
ARC
  5
807D
  8
0
 10
1760.8767152508260097
 20
194.3580192717741113
 30
0.0
 40
1.0236220472499971
 50
302.57896396842699
 51
306.1321952667296955
  0
ARC
  5
807E
  8
0
 10
1760.8767152508260097
 20
194.3580192717741113
 30
0.0
 40
1.0236220472499971
 50
53.8743405785545519
 51
237.42103603157301
  0
ENDSEC
  0
EOF
