  0
SECTION
  2
HEADER
  9
$ACADVER
  1
AC1009
  9
$INSBASE
 10
1721.6438464375330568
 20
144.2965482323022002
 30
0.0
  9
$EXTMIN
 10
1712.3721369233699079
 20
144.2904111293541121
 30
-0.0000000000000058
  9
$EXTMAX
 10
1722.6792984653341136
 20
159.9813464737738968
 30
0.0000000000000104
  9
$LIMMIN
 10
0.0
 20
0.0
  9
$LIMMAX
 10
11.6929133858000007
 20
8.2677165353999982
  9
$ORTHOMODE
 70
     0
  9
$REGENMODE
 70
     1
  9
$FILLMODE
 70
     1
  9
$QTEXTMODE
 70
     0
  9
$MIRRTEXT
 70
     0
  9
$DRAGMODE
 70
     2
  9
$LTSCALE
 40
0.6431102362
  9
$OSMODE
 70
  4095
  9
$ATTMODE
 70
     1
  9
$TEXTSIZE
 40
0.2
  9
$TRACEWID
 40
0.05
  9
$TEXTSTYLE
  7
STANDARD
  9
$CLAYER
  8
0
  9
$CELTYPE
  6
BYLAYER
  9
$CECOLOR
 62
   256
  9
$DIMSCALE
 40
1.0
  9
$DIMASZ
 40
0.1875
  9
$DIMEXO
 40
0.0625
  9
$DIMDLI
 40
0.4443307087
  9
$DIMRND
 40
0.0
  9
$DIMDLE
 40
0.0
  9
$DIMEXE
 40
0.125
  9
$DIMTP
 40
0.01
  9
$DIMTM
 40
0.01
  9
$DIMTXT
 40
2.0
  9
$DIMCEN
 40
0.1052362205
  9
$DIMTSZ
 40
0.0
  9
$DIMTOL
 70
     1
  9
$DIMLIM
 70
     0
  9
$DIMTIH
 70
     1
  9
$DIMTOH
 70
     1
  9
$DIMSE1
 70
     0
  9
$DIMSE2
 70
     0
  9
$DIMTAD
 70
     0
  9
$DIMZIN
 70
     0
  9
$DIMBLK
  1

  9
$DIMASO
 70
     1
  9
$DIMSHO
 70
     1
  9
$DIMPOST
  1
\X
  9
$DIMAPOST
  1

  9
$DIMALT
 70
     1
  9
$DIMALTD
 70
     2
  9
$DIMALTF
 40
25.3999999999999986
  9
$DIMLFAC
 40
1.0
  9
$DIMTOFL
 70
     0
  9
$DIMTVP
 40
0.0
  9
$DIMTIX
 70
     0
  9
$DIMSOXD
 70
     0
  9
$DIMSAH
 70
     0
  9
$DIMBLK1
  1

  9
$DIMBLK2
  1

  9
$DIMSTYLE
  2
STANDARD
  9
$DIMCLRD
 70
     0
  9
$DIMCLRE
 70
     0
  9
$DIMCLRT
 70
     0
  9
$DIMTFAC
 40
1.0
  9
$DIMGAP
 40
0.09
  9
$LUNITS
 70
     2
  9
$LUPREC
 70
     4
  9
$SKETCHINC
 40
0.1
  9
$FILLETRAD
 40
0.0
  9
$AUNITS
 70
     0
  9
$AUPREC
 70
     0
  9
$MENU
  1
.
  9
$ELEVATION
 40
0.0
  9
$PELEVATION
 40
0.0
  9
$THICKNESS
 40
0.0
  9
$LIMCHECK
 70
     0
  9
$BLIPMODE
 70
     0
  9
$CHAMFERA
 40
0.0
  9
$CHAMFERB
 40
0.0
  9
$SKPOLY
 70
     0
  9
$TDCREATE
 40
2458060.468368056230247
  9
$TDUPDATE
 40
2460284.7043055561371148
  9
$TDINDWG
 40
0.3254477199
  9
$TDUSRTIMER
 40
0.3254477199
  9
$USRTIMER
 70
     1
  9
$ANGBASE
 50
0.0
  9
$ANGDIR
 70
     0
  9
$PDMODE
 70
     0
  9
$PDSIZE
 40
0.3125
  9
$PLINEWID
 40
0.0
  9
$COORDS
 70
     1
  9
$SPLFRAME
 70
     0
  9
$SPLINETYPE
 70
     6
  9
$SPLINESEGS
 70
     8
  9
$ATTDIA
 70
     1
  9
$ATTREQ
 70
     1
  9
$HANDLING
 70
     1
  9
$HANDSEED
  5
8229
  9
$SURFTAB1
 70
     6
  9
$SURFTAB2
 70
     6
  9
$SURFTYPE
 70
     6
  9
$SURFU
 70
     6
  9
$SURFV
 70
     6
  9
$UCSNAME
  2

  9
$UCSORG
 10
0.0
 20
0.0
 30
0.0
  9
$UCSXDIR
 10
1.0
 20
0.0
 30
0.0
  9
$UCSYDIR
 10
0.0
 20
1.0
 30
0.0
  9
$PUCSNAME
  2

  9
$PUCSORG
 10
0.0
 20
0.0
 30
0.0
  9
$PUCSXDIR
 10
1.0
 20
0.0
 30
0.0
  9
$PUCSYDIR
 10
0.0
 20
1.0
 30
0.0
  9
$USERI1
 70
     0
  9
$USERI2
 70
     0
  9
$USERI3
 70
     0
  9
$USERI4
 70
     0
  9
$USERI5
 70
     0
  9
$USERR1
 40
0.0
  9
$USERR2
 40
0.0
  9
$USERR3
 40
0.0
  9
$USERR4
 40
0.0
  9
$USERR5
 40
0.0
  9
$WORLDVIEW
 70
     1
  9
$SHADEDGE
 70
     3
  9
$SHADEDIF
 70
    70
  9
$TILEMODE
 70
     1
  9
$MAXACTVP
 70
    64
  9
$PLIMCHECK
 70
     0
  9
$PEXTMIN
 10
1.0000000000000000E+20
 20
1.0000000000000000E+20
 30
1.0000000000000000E+20
  9
$PEXTMAX
 10
-1.0000000000000000E+20
 20
-1.0000000000000000E+20
 30
-1.0000000000000000E+20
  9
$PLIMMIN
 10
0.0
 20
0.0
  9
$PLIMMAX
 10
12.0
 20
9.0
  9
$UNITMODE
 70
     0
  9
$VISRETAIN
 70
     1
  9
$PLINEGEN
 70
     0
  9
$PSLTSCALE
 70
     1
  0
ENDSEC
  0
SECTION
  2
TABLES
  0
TABLE
  2
VPORT
 70
     1
  0
VPORT
  2
*ACTIVE
 70
     0
 10
0.0
 20
0.0
 11
1.0
 21
1.0
 12
757.0186214736236252
 22
75.1298096182143951
 13
0.0
 23
0.0
 14
1.0
 24
1.0
 15
0.0
 25
0.0
 16
0.0
 26
0.0
 36
82.6066804857415349
 17
960.5070962207281582
 27
77.0060691833496094
 37
0.0
 40
15.7977975601592693
 41
2.1579545454545448
 42
50.0
 43
0.0
 44
0.0
 50
0.0
 51
0.0
 71
     0
 72
   100
 73
     1
 74
     1
 75
     0
 76
     0
 77
     0
 78
     0
  0
ENDTAB
  0
TABLE
  2
LTYPE
 70
     2
  0
LTYPE
  2
CONTINUOUS
 70
     0
  3
Solid line
 72
    65
 73
     0
 40
0.0
  0
LTYPE
  2
PHANTOM2
 70
     0
  3
___ _ _ ___ _ _ ___ _ _ ___ _ _
 72
    65
 73
     6
 40
1.25
 49
0.625
 49
-0.125
 49
0.125
 49
-0.125
 49
0.125
 49
-0.125
  0
ENDTAB
  0
TABLE
  2
LAYER
 70
     2
  0
LAYER
  2
0
 70
     0
 62
   255
  6
CONTINUOUS
  0
LAYER
  2
DEFPOINTS
 70
     0
 62
     7
  6
CONTINUOUS
  0
ENDTAB
  0
TABLE
  2
STYLE
 70
     1
  0
STYLE
  2
STANDARD
 70
     0
 40
0.0
 41
0.8
 50
0.0
 71
     0
 42
0.2
  3
txt
  4

  0
ENDTAB
  0
TABLE
  2
VIEW
 70
     0
  0
ENDTAB
  0
TABLE
  2
UCS
 70
     0
  0
ENDTAB
  0
TABLE
  2
APPID
 70
     9
  0
APPID
  2
ACAD
 70
     0
  0
APPID
  2
ACAD_MLEADERVER
 70
     0
  0
APPID
  2
ACAD_EXEMPT_FROM_CAD_STANDARDS
 70
     0
  0
APPID
  2
ACAD_NAV_VCDISPLAY
 70
     0
  0
APPID
  2
ACAECLAYERSTANDARD
 70
     0
  0
APPID
  2
ACCMTRANSPARENCY
 70
     0
  0
APPID
  2
ACAD_DSTYLE_DIMJAG
 70
     0
  0
APPID
  2
ACAD_DSTYLE_DIMTALN
 70
     0
  0
APPID
  2
ACDBATTR
 70
     0
  0
ENDTAB
  0
TABLE
  2
DIMSTYLE
 70
     1
  0
DIMSTYLE
  2
STANDARD
 70
     0
  3

  4

  5

  6

  7

 40
1.0
 41
0.1875
 42
0.0625
 43
0.38
 44
0.125
 45
0.0
 46
0.0
 47
0.01
 48
0.01
140
0.15625
141
0.09
142
0.0
143
25.3999999999999986
144
1.0
145
0.0
146
1.0
147
0.09
 71
     1
 72
     0
 73
     1
 74
     1
 75
     0
 76
     0
 77
     0
 78
     4
170
     0
171
     2
172
     0
173
     0
174
     0
175
     0
176
     0
177
     0
178
     0
  0
ENDTAB
  0
ENDSEC
  0
SECTION
  2
BLOCKS
  0
BLOCK
  8
0
  2
$MODEL_SPACE
 70
     0
 10
0.0
 20
0.0
 30
0.0
  3
$MODEL_SPACE
  1

  0
ENDBLK
  5
21
  8
0
  0
BLOCK
 67
     1
  8
0
  2
$PAPER_SPACE
 70
     0
 10
0.0
 20
0.0
 30
0.0
  3
$PAPER_SPACE
  1

  0
ENDBLK
  5
1D
 67
     1
  8
0
  0
BLOCK
  8
0
  2
_FILLED
 70
     0
 10
0.0
 20
0.0
 30
0.0
  3
_FILLED
  1

  0
SOLID
  5
78C7
  8
0
  6
BYBLOCK
 62
     0
 10
0.0
 20
0.0
 30
0.0
 11
-1.0
 21
0.1666666667
 31
0.0
 12
-1.0
 22
-0.1666666667
 32
0.0
 13
-1.0
 23
-0.1666666667
 33
0.0
  0
ENDBLK
  5
78C8
  8
0
  6
BYBLOCK
 62
     0
  0
ENDSEC
  0
SECTION
  2
ENTITIES
  0
ATTDEF
  5
3930
  8
DEFPOINTS
 10
1721.6404048514639271
 20
144.3001002398142987
 30
0.0
 40
0.001
  1
K-25981T-4
  3

  2
MODELNUMBER
 70
     0
1001
ACDBATTR
1070
     0
1070
     1
  0
ATTDEF
  5
3931
  8
DEFPOINTS
 10
1721.6404048514639271
 20
144.2984335731476904
 30
0.0
 40
0.001
  1
ATOM
  3

  2
TRADENAME
 70
     0
1001
ACDBATTR
1070
     0
1070
     1
  0
ATTDEF
  5
3932
  8
DEFPOINTS
 10
1721.6404048514639271
 20
144.2967669064809968
 30
0.0
 40
0.001
  1
KITCHEN SINK FAUCET
  3

  2
PRODUCT
 70
     0
1001
ACDBATTR
1070
     0
1070
     1
  0
LINE
  5
8126
  8
0
 10
1721.5061701847469067
 20
149.6115088621021982
 30
0.0
 11
1721.7817008934468959
 21
149.6115088621021982
 31
0.0
  0
LINE
  5
8127
  8
0
 10
1721.6286983107540891
 20
145.8319813031021965
 30
0.0
 11
1721.6591771660400809
 21
145.8319813031021965
 31
0.0
  0
LINE
  5
8128
  8
0
 10
1721.4667723839959308
 20
149.5721088621021977
 30
0.0
 11
1721.4667723839959308
 21
147.5273217999933024
 31
0.0
  0
LINE
  5
8129
  8
0
 10
1721.8211030926959211
 20
149.5721088621021977
 30
0.0
 11
1721.8211030926959211
 21
147.5273218000226905
 31
0.0
  0
ARC
  5
812A
  8
0
 10
1721.5061723841010917
 20
149.5721088620587977
 30
0.0
 40
0.0394000001047858
 50
90.0031983184407238
 51
179.9999999368862973
  0
ARC
  5
812B
  8
0
 10
1721.7817030925918971
 20
149.5721088620587977
 30
0.0
 40
0.039400000104763
 50
0.0000000631022049
 51
90.003198013713245
  0
ARC
  5
812C
  8
0
 10
1721.6440295204549784
 20
146.6586936448267977
 30
0.0
 40
0.8268544865638279
 50
106.4190006595472937
 51
268.9375833781970755
  0
ARC
  5
812D
  8
0
 10
1721.6438464375330568
 20
146.6586935799523133
 30
0.0
 40
0.8268544127784485
 50
271.062383367089808
 51
73.581032601754373
  0
ARC
  5
812E
  8
0
 10
1721.3880723839959046
 20
147.5273217999933024
 30
0.0
 40
0.0787
 50
286.4140613159535746
 51
0.0000000000065138
  0
ARC
  5
812F
  8
0
 10
1721.8998030926959473
 20
147.5273218000226905
 30
0.0
 40
0.0787
 50
179.9999999999967031
 51
253.5859386906460884
  0
LINE
  5
8130
  8
0
 10
1720.6202243902330338
 20
144.2965482323022002
 30
0.0
 11
1722.6674684848330799
 21
144.2965482323022002
 31
0.0
  0
LINE
  5
8131
  8
0
 10
1720.6414711084980809
 20
144.4933986260022039
 30
0.0
 11
1722.6462217665680328
 21
144.4933986260022039
 31
0.0
  0
LINE
  5
8132
  8
0
 10
1720.7580196658329896
 20
148.4776466575021914
 30
0.0
 11
1720.7580196658329896
 21
144.4933986260022039
 31
0.0
  0
LINE
  5
8133
  8
0
 10
1720.7895196658330406
 20
148.5091466575022139
 30
0.0
 11
1721.4667723839959308
 21
148.5091466575022139
 31
0.0
  0
LINE
  5
8134
  8
0
 10
1721.8211030926959211
 20
148.5091466575021002
 30
0.0
 11
1722.4981732092330731
 21
148.5091466575021002
 31
0.0
  0
LINE
  5
8135
  8
0
 10
1721.0867598233330682
 20
148.5485167362022025
 30
0.0
 11
1721.4667723839959308
 21
148.5485167362022025
 31
0.0
  0
LINE
  5
8136
  8
0
 10
1721.8211030926959211
 20
148.5485167362022025
 30
0.0
 11
1722.2009330517330454
 21
148.5485167362022025
 31
0.0
  0
LINE
  5
8137
  8
0
 10
1721.0867598233330682
 20
148.5485167362022025
 30
0.0
 11
1721.0867598233330682
 21
148.5091466575022139
 31
0.0
  0
LINE
  5
8138
  8
0
 10
1721.0926654318329838
 20
148.5485167362022025
 30
0.0
 11
1721.0926654318329838
 21
155.6356618010225077
 31
0.0
  0
ARC
  5
8139
  8
0
 10
1720.7895196658330406
 20
148.4776466575021914
 30
0.0
 40
0.0315
 50
90.0
 51
180.0000000000048885
  0
LINE
  5
813A
  8
0
 10
1720.6202243902330338
 20
144.2965482323022002
 30
0.0
 11
1720.6217718586131014
 21
144.473870538757609
 31
0.0
  0
ARC
  5
813B
  8
0
 10
1720.6414711084980809
 20
144.4736986260022036
 30
0.0
 40
0.0197
 50
90.0
 51
179.4999999821143888
  0
LINE
  5
813C
  8
0
 10
1722.5296732092328966
 20
148.4776466575021914
 30
0.0
 11
1722.5296732092328966
 21
144.4933986260022039
 31
0.0
  0
LINE
  5
813D
  8
0
 10
1722.2009330517330454
 20
148.5485167362022025
 30
0.0
 11
1722.2009330517330454
 21
148.5091466575022139
 31
0.0
  0
LINE
  5
813E
  8
0
 10
1722.1950274432329024
 20
148.5485167362022025
 30
0.0
 11
1722.1950274432329024
 21
148.7453672769435116
 31
0.0
  0
LINE
  5
813F
  8
0
 10
1722.1950274432329024
 20
148.9815876023021985
 30
0.0
 11
1722.1950274432329024
 21
155.6353106384707985
 31
0.0
  0
ARC
  5
8140
  8
0
 10
1722.4981732092330731
 20
148.4776466575021914
 30
0.0
 40
0.0315
 50
359.9999999999951115
 51
90.0
  0
LINE
  5
8141
  8
0
 10
1722.6674684848330799
 20
144.2965482323022002
 30
0.0
 11
1722.6659210164521028
 21
144.473870538757609
 31
0.0
  0
ARC
  5
8142
  8
0
 10
1722.6462217665680328
 20
144.4736986260022036
 30
0.0
 40
0.0197
 50
0.5000000178856006
 51
90.0
  0
ARC
  5
8143
  8
0
 10
1722.7334072949408892
 20
148.8634774396228124
 30
0.0
 40
0.5511831594431643
 50
167.626429621661913
 51
192.3735703783347901
  0
LINE
  5
8144
  8
0
 10
1722.1891220281329424
 20
148.8984972330565881
 30
0.0
 11
1722.1891220281329424
 21
148.7765497478958139
 31
0.0
  0
LINE
  5
8145
  8
0
 10
1722.1844460649219855
 20
148.9129187501796991
 30
0.0
 11
1722.1872901048179756
 21
148.9067931257503119
 31
0.0
  0
ARC
  5
8146
  8
0
 10
1722.1694220281331127
 20
148.8984972330565881
 30
0.0
 40
0.0197
 50
359.9999999999919282
 51
24.9047686686636496
  0
LINE
  5
8147
  8
0
 10
1714.7081449530230657
 20
156.3630860240969866
 30
0.0
 11
1714.6725993804650443
 21
156.2091212338204116
 31
0.0
  0
LINE
  5
8148
  8
0
 10
1714.654727583058957
 20
156.1317099743727113
 30
0.0
 11
1714.5793538152859128
 21
155.8052303170672133
 31
0.0
  0
LINE
  5
8149
  8
0
 10
1713.6339614054008962
 20
156.6107209055718954
 30
0.0
 11
1713.456794109438988
 21
155.8433250377007084
 31
0.0
  0
ARC
  5
814A
  8
0
 10
1717.8589654318329849
 20
155.6356618010225077
 30
0.0
 40
3.2336999999999989
 50
0.0
 51
167.0000000246805882
  0
ARC
  5
814B
  8
0
 10
1717.8589274432329148
 20
155.6353106384707985
 30
0.0
 40
4.3361000000000001
 50
0.0
 51
166.9999999951079133
  0
LINE
  5
814C
  8
0
 10
1712.530243796511968
 20
152.8995326456154942
 30
0.0
 11
1714.0732035184860251
 21
152.5433123256478893
 31
0.0
  0
LINE
  5
814D
  8
0
 10
1713.4488393343840471
 20
155.8195466978484092
 30
0.0
 11
1712.4865539804450236
 21
152.9422980587401923
 31
0.0
  0
LINE
  5
814E
  8
0
 10
1713.456794109438988
 20
155.8433250377007084
 30
0.0
 11
1714.5111510906290277
 21
155.599907548587197
 31
0.0
  0
ARC
  5
814F
  8
0
 10
1713.4750142402178881
 20
155.8107925956892075
 30
0.0
 40
0.0276
 50
76.9999999966065332
 51
161.5076754427697097
  0
ARC
  5
8150
  8
0
 10
1712.6160634745949665
 20
153.2334211722059933
 30
0.0
 40
0.3447413020440725
 50
250.9687516575741881
 51
255.5852423152686015
  0
ARC
  5
8151
  8
0
 10
1712.512616502074934
 20
152.9335207853901863
 30
0.0
 40
0.0275008283717827
 50
161.387627551240513
 51
250.9687516575870063
  0
LINE
  5
8152
  8
0
 10
1713.1206213821999427
 20
152.7066652975306056
 30
0.0
 11
1713.1813186008130288
 21
152.6926522404972104
 31
0.0
  0
LINE
  5
8153
  8
0
 10
1713.0732035492790146
 20
152.7176125668179054
 30
0.0
 11
1713.0125063306959419
 21
152.7316256238445931
 31
0.0
  0
LINE
  5
8154
  8
0
 10
1712.9416815052470611
 20
152.7479768231432899
 30
0.0
 11
1712.7426297450861057
 21
152.793931542841193
 31
0.0
  0
LINE
  5
8155
  8
0
 10
1712.8244960168769921
 20
152.7833424898373949
 30
0.0
 11
1712.8269948085310261
 21
152.8310222762607111
 31
0.0
  0
LINE
  5
8156
  8
0
 10
1712.8734022375790573
 20
152.7720515991782975
 30
0.0
 11
1712.8759010293349547
 21
152.8197313855297068
 31
0.0
  0
LINE
  5
8157
  8
0
 10
1712.9529069731390791
 20
152.753696484720507
 30
0.0
 11
1712.971562516630911
 21
152.7976461909985915
 31
0.0
  0
LINE
  5
8158
  8
0
 10
1712.8145524315420971
 20
152.7856381474279033
 30
0.0
 11
1712.8260338846689592
 21
152.8126867561855988
 31
0.0
  0
LINE
  5
8159
  8
0
 10
1712.7350476959720709
 20
152.8039932618351884
 30
0.0
 11
1712.7375464876329261
 21
152.8516730483042068
 31
0.0
  0
LINE
  5
815A
  8
0
 10
1713.0049242815819071
 20
152.7416873428375936
 30
0.0
 11
1713.0074230732309388
 21
152.7893671291643045
 31
0.0
  0
LINE
  5
815B
  8
0
 10
1713.0844290171698958
 20
152.7233322283952077
 30
0.0
 11
1713.1030845606360344
 21
152.7672819346082917
 31
0.0
  0
LINE
  5
815C
  8
0
 10
1713.1130393330879542
 20
152.7167270165440982
 30
0.0
 11
1713.1155381248308913
 21
152.7644068027695141
 31
0.0
  0
LINE
  5
815D
  8
0
 10
1713.1925440687039099
 20
152.698371902074399
 30
0.0
 11
1713.211199612145947
 21
152.7423216082341924
 31
0.0
  0
LINE
  5
815E
  8
0
 10
1713.251393874679934
 20
152.6847853536912112
 30
0.0
 11
1713.2538926664340124
 21
152.7324651400180073
 31
0.0
  0
ARC
  5
815F
  8
0
 10
1712.9438860255750114
 20
152.7575256497792964
 30
0.0
 40
0.0098
 50
257.0000000303662091
 51
337.0000000024670044
  0
ARC
  5
8160
  8
0
 10
1712.8055314839650691
 20
152.7894673124575036
 30
0.0
 40
0.0098
 50
257.0000000303662091
 51
337.0000001882323772
  0
ARC
  5
8161
  8
0
 10
1712.8831888070189962
 20
152.7715387067997028
 30
0.0
 40
0.0098
 50
176.999999957034106
 51
257.0000000303259071
  0
ARC
  5
8162
  8
0
 10
1712.8342825863180678
 20
152.782829597480486
 30
0.0
 40
0.0098
 50
177.0000000832307023
 51
257.0000000303796241
  0
ARC
  5
8163
  8
0
 10
1712.7448342654129192
 20
152.8034803694771995
 30
0.0
 40
0.0098
 50
177.0000000769933877
 51
257.000000030340118
  0
ARC
  5
8164
  8
0
 10
1713.0147108510238922
 20
152.7411744504807132
 30
0.0
 40
0.0098
 50
177.0000000832322939
 51
257.0000000303530783
  0
ARC
  5
8165
  8
0
 10
1713.0754080696060555
 20
152.7271613934539118
 30
0.0
 40
0.0098
 50
257.0000000302997023
 51
337.0000000025445956
  0
ARC
  5
8166
  8
0
 10
1713.122825902527893
 20
152.7162141241666973
 30
0.0
 40
0.0098
 50
176.9999999633153038
 51
257.000000030326305
  0
ARC
  5
8167
  8
0
 10
1713.1835231211400696
 20
152.7022010671331884
 30
0.0
 40
0.0098
 50
257.0000000303131742
 51
337.0000000024759856
  0
LINE
  5
8168
  8
0
 10
1712.908997725008021
 20
152.7252182132052951
 30
0.0
 11
1713.6563668289340967
 21
152.5526744600583982
 31
0.0
  0
LINE
  5
8169
  8
0
 10
1712.901643890601008
 20
152.7369298747092046
 30
0.0
 11
1712.9060071909450471
 21
152.7562128875360088
 31
0.0
  0
ARC
  5
816A
  8
0
 10
1712.9112022453409736
 20
152.7347670398401078
 30
0.0
 40
0.0098
 50
167.24999996494779
 51
256.999999998545718
  0
LINE
  5
816B
  8
0
 10
1713.2589759237760063
 20
152.6747236346805039
 30
0.0
 11
1713.3196731417169758
 21
152.6607105776886897
 31
0.0
  0
ARC
  5
816C
  8
0
 10
1713.2611804441201002
 20
152.6842724613125881
 30
0.0
 40
0.0098
 50
176.9999999570324007
 51
256.9999999289269113
  0
LINE
  5
816D
  8
0
 10
1714.5464295209048942
 20
155.7131779279744137
 30
0.0
 11
1714.4316473068870437
 21
154.8422221693811025
 31
0.0
  0
LINE
  5
816E
  8
0
 10
1714.200923208733002
 20
153.0915111933628054
 30
0.0
 11
1714.1312182908959585
 21
152.5625973706823117
 31
0.0
  0
ARC
  5
816F
  8
0
 10
1714.1424359067571004
 20
152.8810303170984071
 30
0.0
 40
0.3447413020440725
 50
258.4148412085650079
 51
263.03124743648101
  0
ARC
  5
8170
  8
0
 10
1714.1039457482959278
 20
152.5661334675787089
 30
0.0
 40
0.0275008283717827
 50
263.0312474364807827
 51
352.6123715428182095
  0
LINE
  5
8171
  8
0
 10
1713.4580276825399778
 20
152.6287689124872031
 30
0.0
 11
1713.3973304641640425
 21
152.6427819705446893
 31
0.0
  0
LINE
  5
8172
  8
0
 10
1713.5054455152769606
 20
152.6178216424000027
 30
0.0
 11
1713.56614273362311
 21
152.6038085843493093
 31
0.0
  0
LINE
  5
8173
  8
0
 10
1713.6369675587959591
 20
152.5874573838557922
 30
0.0
 11
1713.8360193181829345
 21
152.5415026607996936
 31
0.0
  0
LINE
  5
8174
  8
0
 10
1713.7577964656120457
 20
152.5678730956894924
 30
0.0
 11
1713.7764520098990033
 21
152.611822801723406
 31
0.0
  0
LINE
  5
8175
  8
0
 10
1713.7088902451100694
 20
152.5791639872151961
 30
0.0
 11
1713.7275457892740178
 21
152.6231136932291008
 31
0.0
  0
LINE
  5
8176
  8
0
 10
1713.6293855098519998
 20
152.5975191029810105
 30
0.0
 11
1713.6318843023270801
 21
152.6451988892756049
 31
0.0
  0
LINE
  5
8177
  8
0
 10
1713.7677400509251129
 20
152.5655774380003891
 30
0.0
 11
1713.7692779193159822
 21
152.5949217042619921
 31
0.0
  0
LINE
  5
8178
  8
0
 10
1713.8472447861699948
 20
152.5472223221846093
 30
0.0
 11
1713.8659003304690032
 21
152.5911720282628892
 31
0.0
  0
LINE
  5
8179
  8
0
 10
1713.5773682016099428
 20
152.6095282457332019
 30
0.0
 11
1713.5960237458580195
 21
152.6534779516780134
 31
0.0
  0
LINE
  5
817A
  8
0
 10
1713.4978634663330013
 20
152.6278833615251926
 30
0.0
 11
1713.5003622588039889
 21
152.6755631477493864
 31
0.0
  0
LINE
  5
817B
  8
0
 10
1713.4692531505349962
 20
152.6344885738899961
 30
0.0
 11
1713.4879086946539246
 21
152.6784382797854107
 31
0.0
  0
LINE
  5
817C
  8
0
 10
1713.3897484152200832
 20
152.6528436896699077
 30
0.0
 11
1713.3922472076878876
 21
152.7005234758362064
 31
0.0
  0
LINE
  5
817D
  8
0
 10
1713.3308986094029933
 20
152.6664302387376893
 30
0.0
 11
1713.3495541535569373
 21
152.7103799447287997
 31
0.0
  0
ARC
  5
817E
  8
0
 10
1713.6391720792848901
 20
152.5970062104545946
 30
0.0
 40
0.0098
 50
176.9999990915935086
 51
256.999999063698624
  0
ARC
  5
817F
  8
0
 10
1713.7775266203550473
 20
152.5650645454423113
 30
0.0
 40
0.0098
 50
176.9999989058252083
 51
256.999999063698624
  0
ARC
  5
8180
  8
0
 10
1713.699869297603982
 20
152.5829931524102108
 30
0.0
 40
0.0098
 50
256.999999063738926
 51
336.9999991370266912
  0
ARC
  5
8181
  8
0
 10
1713.7487755181150533
 20
152.5717022609044022
 30
0.0
 40
0.0098
 50
256.9999990636854932
 51
336.9999990108295265
  0
ARC
  5
8182
  8
0
 10
1713.8382238386720928
 20
152.5510514873986097
 30
0.0
 40
0.0098
 50
256.9999990637123801
 51
336.99999901706542
  0
ARC
  5
8183
  8
0
 10
1713.5683472541120409
 20
152.6133574109481117
 30
0.0
 40
0.0098
 50
256.9999990636990219
 51
336.9999990108279917
  0
ARC
  5
8184
  8
0
 10
1713.507650035764982
 20
152.6273704689988904
 30
0.0
 40
0.0098
 50
176.9999990915138142
 51
256.999999063765415
  0
ARC
  5
8185
  8
0
 10
1713.4602322030279993
 20
152.6383177390860908
 30
0.0
 40
0.0098
 50
256.999999063738926
 51
336.9999991307416849
  0
ARC
  5
8186
  8
0
 10
1713.3995349846529734
 20
152.6523307971434917
 30
0.0
 40
0.0098
 50
176.9999990915821115
 51
256.9999990637393239
  0
LINE
  5
8187
  8
0
 10
1713.6681104645799678
 20
152.5599771168338066
 30
0.0
 11
1713.6726418729599573
 21
152.5792213188611868
 31
0.0
  0
ARC
  5
8188
  8
0
 10
1713.3218776620610697
 20
152.6702594043208023
 30
0.0
 40
0.0098
 50
256.9999999289000243
 51
336.9999991370402199
  0
ARC
  5
8189
  8
0
 10
1713.6585713492670493
 20
152.5622232866932109
 30
0.0
 40
0.0098
 50
256.99999999851849
 51
346.7499991290928847
  0
LINE
  5
818A
  8
0
 10
1714.3012755057329741
 20
154.5647483309253971
 30
0.0
 11
1714.1666929000589334
 21
153.425565848151507
 31
0.0
  0
ARC
  5
818B
  8
0
 10
1714.9133279766319902
 20
154.4384588818518012
 30
0.0
 40
0.6249457993143319
 50
151.1486458150635883
 51
168.3413441821697063
  0
ARC
  5
818C
  8
0
 10
1715.0437525500110496
 20
154.3666050607386069
 30
0.0
 40
0.7738536263405567
 50
142.5458845973213045
 51
151.1486458150621957
  0
ARC
  5
818D
  8
0
 10
1714.4202269129739307
 20
154.8442602459203101
 30
0.0
 40
0.0116008255360565
 50
322.5458845973161033
 51
349.8815493911703811
  0
ARC
  5
818E
  8
0
 10
1714.1883828924289901
 20
153.0925313173437985
 30
0.0
 40
0.0125817401789924
 50
355.3493691909998233
 51
12.1734010619186392
  0
ARC
  5
818F
  8
0
 10
1712.7552708500008976
 20
152.783377863222313
 30
0.0
 40
1.4786601774901009
 50
12.1734010619186392
 51
14.4806654690253804
  0
ARC
  5
8190
  8
0
 10
1714.8862202394720953
 20
153.3337117271134105
 30
0.0
 40
0.7222061660737946
 50
179.4670378989210917
 51
194.4806654690252969
  0
ARC
  5
8191
  8
0
 10
1716.1189646054328932
 20
153.3222444779893863
 30
0.0
 40
1.9550038662713889
 50
176.9705237884168127
 51
179.4670378989210917
  0
LINE
  5
8192
  8
0
 10
1714.5637594530398928
 20
154.683081436899414
 30
0.0
 11
1714.3282247936390377
 21
153.1992204324482998
 31
0.0
  0
LINE
  5
8193
  8
0
 10
1714.2406260489699434
 20
153.1330905525443882
 30
0.0
 11
1714.1904952558629702
 21
153.1391401789801989
 31
0.0
  0
LINE
  5
8194
  8
0
 10
1714.5132157705040754
 20
154.7696184979670875
 30
0.0
 11
1714.4085194504480114
 21
154.8085647243055973
 31
0.0
  0
ARC
  5
8195
  8
0
 10
1714.4856374922489977
 20
154.6954818095566964
 30
0.0
 40
0.0791
 50
350.9806336289930755
 51
69.5951858151296818
  0
ARC
  5
8196
  8
0
 10
1714.2501028328479151
 20
153.2116208051056105
 30
0.0
 40
0.0791
 50
263.1189992539822811
 51
350.9806336289947239
  0
LINE
  5
8197
  8
0
 10
1714.4936486390829486
 20
154.5218170787472047
 30
0.0
 11
1714.3171851816468916
 21
153.3705873722167894
 31
0.0
  0
ARC
  5
8198
  8
0
 10
1714.8901155460930568
 20
153.3214569995292891
 30
0.0
 40
0.5750330390724764
 50
175.0987179610611975
 51
192.273186403543292
  0
ARC
  5
8199
  8
0
 10
1714.9582832348430657
 20
154.415686684061086
 30
0.0
 40
0.4766014773927491
 50
145.87192056757101
 51
167.1334128761722866
  0
LINE
  5
819A
  8
0
 10
1714.5480344550840073
 20
155.7201264729476975
 30
0.0
 11
1714.5234891038398928
 21
155.613857643192091
 31
0.0
  0
ARC
  5
819B
  8
0
 10
1715.13125170217495
 20
155.5538095705774992
 30
0.0
 40
0.606468193162759
 50
155.508047557986913
 51
164.0833635933531127
  0
ARC
  5
819C
  8
0
 10
1714.5046434369310191
 20
155.6180943336397036
 30
0.0
 40
0.0193160220336277
 50
289.6883879950581218
 51
347.3299899442417882
  0
LINE
  5
819D
  8
0
 10
1714.5187019134259572
 20
155.6102859768442954
 30
0.0
 11
1714.5612087687679832
 21
155.7944033949650873
 31
0.0
  0
ARC
  5
819E
  8
0
 10
1714.4960176929159843
 20
155.6188538619005044
 30
0.0
 40
0.0242483507584324
 50
308.6161663561858859
 51
339.3083276357559726
  0
ARC
  5
819F
  8
0
 10
1714.6375538799409242
 20
155.7700717703733062
 30
0.0
 40
0.0801286712440406
 50
138.6528637797341048
 51
162.3226214557886067
  0
ARC
  5
81A0
  8
0
 10
1714.8189400846099488
 20
156.8568313877273113
 30
0.0
 40
1.0616666353042981
 50
256.8494421278256254
 51
257.1680062669105951
  0
ARC
  5
81A1
  8
0
 10
1715.1172359456500089
 20
156.0146596506735079
 30
0.0
 40
0.4853009194502632
 50
156.3774132323989079
 51
177.622140100307206
  0
LINE
  5
81A2
  8
0
 10
1714.6528973844760912
 20
156.1557506958390036
 30
0.0
 11
1714.6540158099660403
 21
156.1520924908082861
 31
0.0
  0
ARC
  5
81A3
  8
0
 10
1714.6163374025029498
 20
156.1405730458974119
 30
0.0
 40
0.0394
 50
347.0000000246790819
 51
16.999999611944201
  0
ENDSEC
  0
EOF
