  0
SECTION
  2
HEADER
  9
$ACADVER
  1
AC1009
  9
$INSBASE
 10
5825.0556330456383876
 20
420.4396432436618056
 30
0.0
  9
$EXTMIN
 10
5823.8745306834380244
 20
419.2585408814522907
 30
0.0
  9
$EXTMAX
 10
5826.2367354078387507
 20
421.6207456058523917
 30
0.0
  9
$LIMMIN
 10
0.0
 20
0.0
  9
$LIMMAX
 10
11.6929133858000007
 20
8.2677165353999982
  9
$ORTHOMODE
 70
     0
  9
$REGENMODE
 70
     1
  9
$FILLMODE
 70
     1
  9
$QTEXTMODE
 70
     0
  9
$MIRRTEXT
 70
     0
  9
$DRAGMODE
 70
     2
  9
$LTSCALE
 40
0.6431102362
  9
$OSMODE
 70
  4095
  9
$ATTMODE
 70
     1
  9
$TEXTSIZE
 40
0.2
  9
$TRACEWID
 40
0.05
  9
$TEXTSTYLE
  7
STANDARD
  9
$CLAYER
  8
0
  9
$CELTYPE
  6
BYLAYER
  9
$CECOLOR
 62
   256
  9
$DIMSCALE
 40
1.0
  9
$DIMASZ
 40
0.1875
  9
$DIMEXO
 40
0.0625
  9
$DIMDLI
 40
0.4443307087
  9
$DIMRND
 40
0.0
  9
$DIMDLE
 40
0.0
  9
$DIMEXE
 40
0.125
  9
$DIMTP
 40
0.01
  9
$DIMTM
 40
0.01
  9
$DIMTXT
 40
2.0
  9
$DIMCEN
 40
0.1052362205
  9
$DIMTSZ
 40
0.0
  9
$DIMTOL
 70
     1
  9
$DIMLIM
 70
     0
  9
$DIMTIH
 70
     1
  9
$DIMTOH
 70
     1
  9
$DIMSE1
 70
     0
  9
$DIMSE2
 70
     0
  9
$DIMTAD
 70
     0
  9
$DIMZIN
 70
     0
  9
$DIMBLK
  1

  9
$DIMASO
 70
     1
  9
$DIMSHO
 70
     1
  9
$DIMPOST
  1
\X
  9
$DIMAPOST
  1

  9
$DIMALT
 70
     1
  9
$DIMALTD
 70
     2
  9
$DIMALTF
 40
25.3999999999999986
  9
$DIMLFAC
 40
1.0
  9
$DIMTOFL
 70
     0
  9
$DIMTVP
 40
0.0
  9
$DIMTIX
 70
     0
  9
$DIMSOXD
 70
     0
  9
$DIMSAH
 70
     0
  9
$DIMBLK1
  1

  9
$DIMBLK2
  1

  9
$DIMSTYLE
  2
STANDARD
  9
$DIMCLRD
 70
     0
  9
$DIMCLRE
 70
     0
  9
$DIMCLRT
 70
     0
  9
$DIMTFAC
 40
1.0
  9
$DIMGAP
 40
0.09
  9
$LUNITS
 70
     2
  9
$LUPREC
 70
     4
  9
$SKETCHINC
 40
0.1
  9
$FILLETRAD
 40
0.0
  9
$AUNITS
 70
     0
  9
$AUPREC
 70
     0
  9
$MENU
  1
.
  9
$ELEVATION
 40
0.0
  9
$PELEVATION
 40
0.0
  9
$THICKNESS
 40
0.0
  9
$LIMCHECK
 70
     0
  9
$BLIPMODE
 70
     0
  9
$CHAMFERA
 40
0.0
  9
$CHAMFERB
 40
0.0
  9
$SKPOLY
 70
     0
  9
$TDCREATE
 40
2458060.468368056230247
  9
$TDUPDATE
 40
2460620.6001504641026258
  9
$TDINDWG
 40
0.6665811343
  9
$TDUSRTIMER
 40
0.6665811343
  9
$USRTIMER
 70
     1
  9
$ANGBASE
 50
0.0
  9
$ANGDIR
 70
     0
  9
$PDMODE
 70
     0
  9
$PDSIZE
 40
0.3125
  9
$PLINEWID
 40
0.0
  9
$COORDS
 70
     2
  9
$SPLFRAME
 70
     0
  9
$SPLINETYPE
 70
     6
  9
$SPLINESEGS
 70
     8
  9
$ATTDIA
 70
     1
  9
$ATTREQ
 70
     1
  9
$HANDLING
 70
     1
  9
$HANDSEED
  5
2D9EB
  9
$SURFTAB1
 70
     6
  9
$SURFTAB2
 70
     6
  9
$SURFTYPE
 70
     6
  9
$SURFU
 70
     6
  9
$SURFV
 70
     6
  9
$UCSNAME
  2

  9
$UCSORG
 10
0.0
 20
0.0
 30
0.0
  9
$UCSXDIR
 10
1.0
 20
0.0
 30
0.0
  9
$UCSYDIR
 10
0.0
 20
1.0
 30
0.0
  9
$PUCSNAME
  2

  9
$PUCSORG
 10
0.0
 20
0.0
 30
0.0
  9
$PUCSXDIR
 10
1.0
 20
0.0
 30
0.0
  9
$PUCSYDIR
 10
0.0
 20
1.0
 30
0.0
  9
$USERI1
 70
     0
  9
$USERI2
 70
     0
  9
$USERI3
 70
     0
  9
$USERI4
 70
     0
  9
$USERI5
 70
     0
  9
$USERR1
 40
0.0
  9
$USERR2
 40
0.0
  9
$USERR3
 40
0.0
  9
$USERR4
 40
0.0
  9
$USERR5
 40
0.0
  9
$WORLDVIEW
 70
     1
  9
$SHADEDGE
 70
     3
  9
$SHADEDIF
 70
    70
  9
$TILEMODE
 70
     1
  9
$MAXACTVP
 70
    64
  9
$PLIMCHECK
 70
     0
  9
$PEXTMIN
 10
1.0000000000000000E+20
 20
1.0000000000000000E+20
 30
1.0000000000000000E+20
  9
$PEXTMAX
 10
-1.0000000000000000E+20
 20
-1.0000000000000000E+20
 30
-1.0000000000000000E+20
  9
$PLIMMIN
 10
0.0
 20
0.0
  9
$PLIMMAX
 10
12.0
 20
9.0
  9
$UNITMODE
 70
     0
  9
$VISRETAIN
 70
     1
  9
$PLINEGEN
 70
     0
  9
$PSLTSCALE
 70
     1
  0
ENDSEC
  0
SECTION
  2
TABLES
  0
TABLE
  2
VPORT
 70
     1
  0
VPORT
  2
*ACTIVE
 70
     0
 10
0.0
 20
0.0
 11
1.0
 21
1.0
 12
1913.6902766003258876
 22
287.8600381411133071
 13
0.0
 23
0.0
 14
1.0
 24
1.0
 15
0.0
 25
0.0
 16
0.0
 26
0.0
 36
60.4960186965801583
 17
3911.3653564453120453
 27
132.5796051025390057
 37
0.0
 40
2.378957949395839
 41
2.21775147928994
 42
50.0
 43
0.0
 44
0.0
 50
0.0
 51
0.0
 71
     0
 72
   100
 73
     1
 74
     1
 75
     0
 76
     0
 77
     0
 78
     1
  0
ENDTAB
  0
TABLE
  2
LTYPE
 70
     2
  0
LTYPE
  2
CONTINUOUS
 70
     0
  3
Solid line
 72
    65
 73
     0
 40
0.0
  0
LTYPE
  2
PHANTOM2
 70
     0
  3
___ _ _ ___ _ _ ___ _ _ ___ _ _
 72
    65
 73
     6
 40
1.25
 49
0.625
 49
-0.125
 49
0.125
 49
-0.125
 49
0.125
 49
-0.125
  0
ENDTAB
  0
TABLE
  2
LAYER
 70
     2
  0
LAYER
  2
0
 70
     0
 62
   255
  6
CONTINUOUS
  0
LAYER
  2
DEFPOINTS
 70
     0
 62
     7
  6
CONTINUOUS
  0
ENDTAB
  0
TABLE
  2
STYLE
 70
     1
  0
STYLE
  2
STANDARD
 70
     0
 40
0.0
 41
0.8
 50
0.0
 71
     0
 42
0.2
  3
txt
  4

  0
ENDTAB
  0
TABLE
  2
VIEW
 70
     0
  0
ENDTAB
  0
TABLE
  2
UCS
 70
     0
  0
ENDTAB
  0
TABLE
  2
APPID
 70
    11
  0
APPID
  2
ACAD
 70
     0
  0
APPID
  2
ACAD_MLEADERVER
 70
     0
  0
APPID
  2
ACAD_EXEMPT_FROM_CAD_STANDARDS
 70
     0
  0
APPID
  2
ACAD_NAV_VCDISPLAY
 70
     0
  0
APPID
  2
ACAECLAYERSTANDARD
 70
     0
  0
APPID
  2
ACCMTRANSPARENCY
 70
     0
  0
APPID
  2
ACAD_DSTYLE_DIMJAG
 70
     0
  0
APPID
  2
ACAD_DSTYLE_DIMTALN
 70
     0
  0
APPID
  2
ACDBATTR
 70
     0
  0
APPID
  2
ACADANNOTATIVE
 70
     0
  0
APPID
  2
DCO15
 70
     0
  0
ENDTAB
  0
TABLE
  2
DIMSTYLE
 70
     1
  0
DIMSTYLE
  2
STANDARD
 70
     0
  3

  4

  5

  6

  7

 40
1.0
 41
0.1875
 42
0.0625
 43
0.38
 44
0.125
 45
0.0
 46
0.0
 47
0.01
 48
0.01
140
0.15625
141
0.09
142
0.0
143
25.3999999999999986
144
1.0
145
0.0
146
1.0
147
0.09
 71
     1
 72
     0
 73
     1
 74
     1
 75
     0
 76
     0
 77
     0
 78
     4
170
     0
171
     2
172
     0
173
     0
174
     0
175
     0
176
     0
177
     0
178
     0
  0
ENDTAB
  0
ENDSEC
  0
SECTION
  2
BLOCKS
  0
BLOCK
  8
0
  2
$MODEL_SPACE
 70
     0
 10
0.0
 20
0.0
 30
0.0
  3
$MODEL_SPACE
  1

  0
ENDBLK
  5
21
  8
0
  0
BLOCK
 67
     1
  8
0
  2
$PAPER_SPACE
 70
     0
 10
0.0
 20
0.0
 30
0.0
  3
$PAPER_SPACE
  1

  0
ENDBLK
  5
1D
 67
     1
  8
0
  0
BLOCK
  8
0
  2
_FILLED
 70
     0
 10
0.0
 20
0.0
 30
0.0
  3
_FILLED
  1

  0
SOLID
  5
2A961
  8
0
  6
BYBLOCK
 62
     0
 10
0.0
 20
0.0
 30
0.0
 11
-1.0
 21
0.1666666667
 31
0.0
 12
-1.0
 22
-0.1666666667
 32
0.0
 13
-1.0
 23
-0.1666666667
 33
0.0
  0
ENDBLK
  5
2A962
  8
0
  6
BYBLOCK
 62
     0
  0
ENDSEC
  0
SECTION
  2
ENTITIES
  0
ATTDEF
  5
26A5B
  8
DEFPOINTS
 10
5825.056168914969021
 20
420.4381898149397898
 30
0.0
 40
0.001
  1
K-25998T
  3

  2
MODELNUMBER
 70
     0
1001
ACDBATTR
1070
     0
1070
     1
  0
ATTDEF
  5
26A5C
  8
DEFPOINTS
 10
5825.0560431053108914
 20
420.436522974560603
 30
0.0
 40
0.001
  1
COMPOSED
  3

  2
TRADENAME
 70
     0
1001
ACDBATTR
1070
     0
1070
     1
  0
ATTDEF
  5
26A5D
  8
DEFPOINTS
 10
5825.056168914969021
 20
420.4348564816064027
 30
0.0
 40
0.001
  1
BATHROOM SINK FAUCET
  3

  2
PRODUCT
 70
     0
1001
ACDBATTR
1070
     0
1070
     1
  0
LINE
  5
2D64B
  8
0
 10
5824.9457974625083807
 20
420.3046262608522738
 30
0.0
 11
5825.1654686287693039
 21
420.3046262608522738
 31
0.0
  0
LINE
  5
2D64C
  8
0
 10
5824.5842869643383892
 20
420.4415618396961918
 30
0.0
 11
5824.5842869643383892
 21
420.2439500418195735
 31
0.0
  0
ARC
  5
2D64D
  8
0
 10
5825.1058515023551081
 20
428.0047534238045159
 30
0.0
 40
7.8803387005154901
 50
268.6374069115340149
 51
269.6348729150088275
  0
ARC
  5
2D64E
  8
0
 10
5824.9880575247971137
 20
421.3769536162889722
 30
0.0
 40
1.2522460419548509
 50
257.0526314677932191
 51
266.8140120103648769
  0
ARC
  5
2D64F
  8
0
 10
5824.7630783711392723
 20
420.4262175748229993
 30
0.0
 40
0.2753440730264014
 50
235.9863357591871136
 51
258.3514860617909221
  0
ARC
  5
2D650
  8
0
 10
5824.6486014107076699
 20
420.2500989291464748
 30
0.0
 40
0.0654219655273809
 50
198.4243582865985047
 51
232.8067465601417894
  0
ARC
  5
2D651
  8
0
 10
5824.654648958911821
 20
420.2473899176401915
 30
0.0
 40
0.0704460291717561
 50
182.7988628395405897
 51
194.7769671164610941
  0
ARC
  5
2D652
  8
0
 10
5824.6037221205242531
 20
420.2449001928811185
 30
0.0
 40
0.0194583679420772
 50
141.5132323130169993
 51
182.7988628395438866
  0
ARC
  5
2D653
  8
0
 10
5824.6994712935902498
 20
420.1442017430825899
 30
0.0
 40
0.1582475017873967
 50
103.2753510929519933
 51
134.5320438399704983
  0
ARC
  5
2D654
  8
0
 10
5824.9458537672417151
 20
419.2805610336483824
 30
0.0
 40
1.056201682000544
 50
94.1631431980627269
 51
105.5260879884347958
  0
LINE
  5
2D655
  8
0
 10
5824.8691770771392839
 20
420.4530548404326851
 30
0.0
 11
5824.8691770771392839
 21
420.3339758039197136
 31
0.0
  0
ARC
  5
2D656
  8
0
 10
5825.0355687960463911
 20
410.058114312163184
 30
0.0
 40
10.3962721583450008
 50
89.8894221392871628
 51
91.790787264652721
  0
ARC
  5
2D657
  8
0
 10
5824.7767398160958692
 20
418.3365844280162946
 30
0.0
 40
2.113756845957468
 50
91.790787264652721
 51
95.2280770681174999
  0
ARC
  5
2D658
  8
0
 10
5824.5891590705723502
 20
420.3866192761223033
 30
0.0
 40
0.0551579499749154
 50
95.2280770681174999
 51
113.0196872909305057
  0
ARC
  5
2D659
  8
0
 10
5824.5859093816761742
 20
420.4725306523973245
 30
0.0
 40
0.0399832186528541
 50
242.4949647968508089
 51
267.674444486652817
  0
LINE
  5
2D65A
  8
0
 10
5824.5713810771376302
 20
420.3983072769175919
 30
0.0
 11
5824.5713810771376302
 21
420.3886897080869858
 31
0.0
  0
LINE
  5
2D65B
  8
0
 10
5824.5841330456387368
 20
420.4024716527198962
 30
0.0
 11
5824.573570791633756
 21
420.3999124658814139
 31
0.0
  0
LINE
  5
2D65C
  8
0
 10
5824.5841330456387368
 20
420.3848292724082967
 30
0.0
 11
5824.5735949967502165
 21
420.387075110829187
 31
0.0
  0
ARC
  5
2D65D
  8
0
 10
5824.5753531461368766
 20
420.3951849302121104
 30
0.0
 40
0.0050523639099746
 50
110.6572234582744017
 51
141.8299741751899887
  0
ARC
  5
2D65E
  8
0
 10
5824.5742878010723871
 20
420.3903502280307976
 30
0.0
 40
0.0033475917483461
 50
209.7379687944466866
 51
258.0559723696615038
  0
ARC
  5
2D65F
  8
0
 10
5824.9579923207538741
 20
420.5512924311908023
 30
0.0
 40
0.246967435418356
 50
255.0309598610365072
 51
267.1696747901665958
  0
ARC
  5
2D660
  8
0
 10
5824.9041058304783292
 20
420.3497139047410087
 30
0.0
 40
0.0383106463914621
 50
204.2552426154771865
 51
255.0171093839628043
  0
ARC
  5
2D661
  8
0
 10
5825.0926114752383
 20
417.5668435943413783
 30
0.0
 40
2.727581057637765
 50
90.7767955606997248
 51
95.1547173619125743
  0
ARC
  5
2D662
  8
0
 10
5825.0034128367960875
 20
419.1110839737334004
 30
0.0
 40
1.182625360661071
 50
97.5732362043952861
 51
102.9824972547218067
  0
ARC
  5
2D663
  8
0
 10
5824.7826452132449049
 20
420.0686681068877988
 30
0.0
 40
0.1999220912671979
 50
102.9824972547218067
 51
118.3611385776546001
  0
LINE
  5
2D664
  8
0
 10
5824.6876767281391949
 20
420.2445937429197897
 30
0.0
 11
5824.6876767216381268
 21
420.220261852519684
 31
0.0
  0
LINE
  5
2D665
  8
0
 10
5824.8536432939381484
 20
420.2150731476198189
 30
0.0
 11
5824.8520997154337238
 21
420.2391697305266121
 31
0.0
  0
LINE
  5
2D666
  8
0
 10
5824.9126984121394344
 20
420.2150731476198189
 30
0.0
 11
5824.9114727703963581
 21
420.2358620713479809
 31
0.0
  0
ARC
  5
2D667
  8
0
 10
5824.7235244218181833
 20
420.2213124147179997
 30
0.0
 40
0.0358606415984187
 50
181.6466315283261963
 51
222.2585726244458044
  0
ARC
  5
2D668
  8
0
 10
5824.7551185277734476
 20
420.2500191085429719
 30
0.0
 40
0.0785486001050781
 50
222.2585726244458044
 51
244.8661639680861981
  0
ARC
  5
2D669
  8
0
 10
5824.8515683152545535
 20
420.4556012234672835
 30
0.0
 40
0.3056313327863704
 50
244.8661639680861981
 51
254.6851165474485867
  0
ARC
  5
2D66A
  8
0
 10
5824.9136105027891972
 20
420.6821580235389888
 30
0.0
 40
0.5405296441738602
 50
254.6851165474485867
 51
260.079719217207014
  0
ARC
  5
2D66B
  8
0
 10
5825.0153121026105509
 20
421.2636665381002103
 30
0.0
 40
1.130864606643307
 50
260.079719217207014
 51
263.0598949402070161
  0
ARC
  5
2D66C
  8
0
 10
5825.0214646604290465
 20
421.3142118653037755
 30
0.0
 40
1.181783012645629
 50
263.0598949402070161
 51
266.8228181504226768
  0
ARC
  5
2D66D
  8
0
 10
5825.0930665496898655
 20
422.6041223595022984
 30
0.0
 40
2.4736792598687449
 50
266.8228181504226768
 51
267.8699930718457267
  0
ARC
  5
2D66E
  8
0
 10
5825.0627528035001887
 20
422.2518705461454829
 30
0.0
 40
2.1206139158641131
 50
268.3347332471860227
 51
269.8076345533494873
  0
ARC
  5
2D66F
  8
0
 10
5824.8048981625252054
 20
420.1861632501696135
 30
0.0
 40
0.051893389930889
 50
115.4064444435869063
 51
137.9338140194940081
  0
ARC
  5
2D670
  8
0
 10
5824.8921184354821889
 20
420.0049572564727214
 30
0.0
 40
0.2529972584256228
 50
110.9837439669032051
 51
115.6421789125587054
  0
ARC
  5
2D671
  8
0
 10
5824.8755159318825463
 20
420.0482449623057164
 30
0.0
 40
0.2066348965138677
 50
101.4958807025274012
 51
110.9837439669032051
  0
ARC
  5
2D672
  8
0
 10
5825.2743605488258254
 20
418.0871393549307982
 30
0.0
 40
2.207887562156523
 50
100.2635870987344049
 51
101.4958807025274012
  0
ARC
  5
2D673
  8
0
 10
5825.0186783769586327
 20
419.3553602435467837
 30
0.0
 40
0.9147624226958493
 50
95.511407282765532
 51
98.6584778783587666
  0
ARC
  5
2D674
  8
0
 10
5825.0426186180893637
 20
419.1167509464581826
 30
0.0
 40
1.154568327450548
 50
93.7595641876297634
 51
95.5566949923276354
  0
ARC
  5
2D675
  8
0
 10
5825.0534466887520466
 20
418.9481651481178801
 30
0.0
 40
1.323501344580144
 50
91.2161360870939291
 51
93.748769507814643
  0
ARC
  5
2D676
  8
0
 10
5825.0164680696407231
 20
422.4760999335865108
 30
0.0
 40
2.204749482810572
 50
270.2309937248585925
 51
271.017850726883978
  0
ARC
  5
2D677
  8
0
 10
5824.7816537826238346
 20
420.2080679480528147
 30
0.0
 40
0.0199733807029533
 50
139.9076649703316946
 51
158.8129217171727134
  0
ARC
  5
2D678
  8
0
 10
5824.7749048131063319
 20
420.2106839499002717
 30
0.0
 40
0.0127351450601648
 50
158.8129217171727134
 51
195.2623003857351875
  0
ARC
  5
2D679
  8
0
 10
5824.780274206876129
 20
420.2121490531246195
 30
0.0
 40
0.0183008361139616
 50
195.2623003857383139
 51
227.4825099960550006
  0
ARC
  5
2D67A
  8
0
 10
5824.8186366760392048
 20
420.2539886933142839
 30
0.0
 40
0.0750655657580142
 50
227.4825099960550006
 51
249.9221654841890938
  0
ARC
  5
2D67B
  8
0
 10
5824.8992383931199583
 20
420.4514864997743757
 30
0.0
 40
0.2883394674256173
 50
248.3515601218761901
 51
257.5764008778638754
  0
ARC
  5
2D67C
  8
0
 10
5824.9884097674857912
 20
420.8468308416262857
 30
0.0
 40
0.6936134114936483
 50
257.4087221171660076
 51
263.5805584475601222
  0
ARC
  5
2D67D
  8
0
 10
5825.04575998839573
 20
421.3292776524501164
 30
0.0
 40
1.1794513495172749
 50
263.4323882349366954
 51
268.0335535136438239
  0
ARC
  5
2D67E
  8
0
 10
5825.1548963366549287
 20
427.0328759092849964
 30
0.0
 40
6.8839809169219937
 50
268.7547031544639822
 51
269.1737971371750859
  0
ARC
  5
2D67F
  8
0
 10
5824.8312602385176433
 20
420.0534656959803783
 30
0.0
 40
0.2013025431459685
 50
101.4905396006940066
 51
122.9759332201816022
  0
ARC
  5
2D680
  8
0
 10
5824.9402956630019617
 20
419.6438636156577786
 30
0.0
 40
0.6249262585051589
 50
99.7487027657437579
 51
103.8066374574568016
  0
ARC
  5
2D681
  8
0
 10
5824.9946463804162704
 20
419.3317705374147977
 30
0.0
 40
0.9417160088397778
 50
96.4626697161614857
 51
99.7925115659834745
  0
ARC
  5
2D682
  8
0
 10
5825.0284548665049442
 20
419.0544388557456159
 30
0.0
 40
1.2210930176070851
 50
94.6452147526992889
 51
96.5742658561440237
  0
ARC
  5
2D683
  8
0
 10
5825.0496495988909373
 20
418.7907644134775751
 30
0.0
 40
1.4856178466833541
 50
92.0989005395773432
 51
94.6363947220355328
  0
ARC
  5
2D684
  8
0
 10
5825.0561269051104318
 20
418.6140018151546087
 30
0.0
 40
1.6624990827177479
 50
90.0170201981581926
 51
92.0988699726396192
  0
ARC
  5
2D685
  8
0
 10
5824.7380475868121721
 20
420.1999182016612053
 30
0.0
 40
0.0277506830887167
 50
126.1077823698456939
 51
159.1981070707990966
  0
ARC
  5
2D686
  8
0
 10
5824.7257134498786399
 20
420.2046475656401867
 30
0.0
 40
0.0145410408748585
 50
159.3586995605803907
 51
214.0429327998243991
  0
ARC
  5
2D687
  8
0
 10
5824.7626248137512448
 20
420.2331518872287006
 30
0.0
 40
0.0611529212769991
 50
216.772752750741688
 51
247.186680512604994
  0
ARC
  5
2D688
  8
0
 10
5824.8882543278650701
 20
420.5318183174742899
 30
0.0
 40
0.3851659015297335
 50
247.186680512604994
 51
256.6644482071246784
  0
ARC
  5
2D689
  8
0
 10
5824.9486481909871145
 20
420.7865961015003222
 30
0.0
 40
0.6470039009415974
 50
256.6644482071246784
 51
264.1038201762635822
  0
ARC
  5
2D68A
  8
0
 10
5825.1209012193075978
 20
422.4545418401349934
 30
0.0
 40
2.3238205554375542
 50
264.1038201762635822
 51
266.5001799356879246
  0
ARC
  5
2D68B
  8
0
 10
5825.0730223977980131
 20
422.5036051033906119
 30
0.0
 40
2.370413609748399
 50
267.7277997344222058
 51
269.5796744416380193
  0
ARC
  5
2D68C
  8
0
 10
5824.9829611843388193
 20
420.2163264198262027
 30
0.0
 40
0.01127756719745
 50
186.3831316497852129
 51
241.0291956271279048
  0
ARC
  5
2D68D
  8
0
 10
5825.0108037996487838
 20
420.2666162449019112
 30
0.0
 40
0.0687604144954452
 50
241.0291956271279048
 51
249.1515515889026062
  0
ARC
  5
2D68E
  8
0
 10
5825.0202312642441029
 20
420.3037322231907069
 30
0.0
 40
0.1068920031730655
 50
251.5102976492204903
 51
259.4097162352658188
  0
ARC
  5
2D68F
  8
0
 10
5825.0478094225409222
 20
420.4553304131529785
 30
0.0
 40
0.2609774786971966
 50
259.5750357433972795
 51
267.1110221281854251
  0
ARC
  5
2D690
  8
0
 10
5824.2785982388340926
 20
392.907487465264694
 30
0.0
 40
27.2976693459136897
 50
88.3688413502262762
 51
88.4128880956981646
  0
ARC
  5
2D691
  8
0
 10
5824.8726443456171182
 20
420.2169595864974099
 30
0.0
 40
0.0190944655967343
 50
185.6697885618771977
 51
237.1891184797416088
  0
ARC
  5
2D692
  8
0
 10
5824.9134724330178869
 20
420.2758634859796985
 30
0.0
 40
0.0907561265860627
 50
235.6760592763133104
 51
253.3209273251981983
  0
ARC
  5
2D693
  8
0
 10
5824.9800425797266143
 20
420.4866410131432986
 30
0.0
 40
0.31178922418325
 50
252.7192768059688035
 51
262.8096303020618052
  0
ARC
  5
2D694
  8
0
 10
5825.0406442337780391
 20
420.8472006959412965
 30
0.0
 40
0.6772646930384234
 50
261.5409606620232807
 51
267.8111854072429878
  0
ARC
  5
2D695
  8
0
 10
5825.0704319216629301
 20
421.7853517470086899
 30
0.0
 40
1.615880314888805
 50
268.0262239400072986
 51
269.4752550768972128
  0
ARC
  5
2D696
  8
0
 10
5824.8856289195900899
 20
420.2014545528288068
 30
0.0
 40
0.0264877328226709
 50
120.5182278048347939
 51
134.8399483844767985
  0
ARC
  5
2D697
  8
0
 10
5824.9168275287529468
 20
420.1485283347882955
 30
0.0
 40
0.0879249997681148
 50
106.3832746104757945
 51
120.5182278048347939
  0
ARC
  5
2D698
  8
0
 10
5824.99354682946705
 20
419.8875772968826254
 30
0.0
 40
0.3599200278221954
 50
98.4548285640752567
 51
106.3832746104757945
  0
ARC
  5
2D699
  8
0
 10
5825.0401194700853011
 20
419.5742629551444907
 30
0.0
 40
0.6766768550462678
 50
92.4520684646552127
 51
98.4548285640752567
  0
ARC
  5
2D69A
  8
0
 10
5825.0620984801525992
 20
419.0610082844107751
 30
0.0
 40
1.190401911777474
 50
90.3111923192029451
 51
92.4520684646552127
  0
ARC
  5
2D69B
  8
0
 10
5825.0081059952226497
 20
420.4119383682465809
 30
0.0
 40
0.2211914949683095
 50
253.7799898832564907
 51
261.3648659179823994
  0
ARC
  5
2D69C
  8
0
 10
5825.0482795660091142
 20
420.6752722415321273
 30
0.0
 40
0.4875721057088755
 50
261.3436188118362793
 51
268.0932467378452202
  0
ARC
  5
2D69D
  8
0
 10
5825.0557085997761533
 20
420.8153537064152943
 30
0.0
 40
0.6278292779435066
 50
267.8410036136621102
 51
269.9931049198473829
  0
ARC
  5
2D69E
  8
0
 10
5824.9270639253427362
 20
420.2163909186792807
 30
0.0
 40
0.0144258271750301
 50
185.2411614493447019
 51
233.0002772386602885
  0
ARC
  5
2D69F
  8
0
 10
5824.9509283744382628
 20
420.2480604311007255
 30
0.0
 40
0.0540802083651063
 50
233.0002772386602885
 51
249.4605510095657053
  0
ARC
  5
2D6A0
  8
0
 10
5825.0126658752769799
 20
420.4397623768441008
 30
0.0
 40
0.2554312866245422
 50
251.5799000434365098
 51
263.8274079667061187
  0
ARC
  5
2D6A1
  8
0
 10
5825.0502689302620638
 20
420.7314411683886988
 30
0.0
 40
0.5494953028253642
 50
263.1994152540391951
 51
267.785924319708613
  0
ARC
  5
2D6A2
  8
0
 10
5825.0712416926198784
 20
421.6090500471481164
 30
0.0
 40
1.4273179833356531
 50
268.3056861510698923
 51
269.3734210370640767
  0
ARC
  5
2D6A3
  8
0
 10
5824.9519193992837245
 20
420.1821825506950177
 30
0.0
 40
0.0449227161716144
 50
109.8252659020332942
 51
123.3711421276658058
  0
ARC
  5
2D6A4
  8
0
 10
5824.9914447274932172
 20
420.0725484431271752
 30
0.0
 40
0.161464078409479
 50
101.5291560317892987
 51
109.8252659020332942
  0
ARC
  5
2D6A5
  8
0
 10
5825.0342965605486825
 20
419.8624721969625284
 30
0.0
 40
0.3758662910819214
 50
94.5452319559198742
 51
101.5291560317892987
  0
ARC
  5
2D6A6
  8
0
 10
5825.0611606825013951
 20
419.5245430314610076
 30
0.0
 40
0.714861574153614
 50
90.4430416048862753
 51
94.545237843190634
  0
LINE
  5
2D6A7
  8
0
 10
5824.847679195137971
 20
420.2336492492196953
 30
0.0
 11
5824.7839168494519981
 21
420.2336492536027777
 31
0.0
  0
ARC
  5
2D6A8
  8
0
 10
5824.7860767865031448
 20
420.2189075132575908
 30
0.0
 40
0.0151680635917703
 50
184.1169306883220997
 51
207.5513370837205969
  0
ARC
  5
2D6A9
  8
0
 10
5824.8051546155520555
 20
420.202769384421174
 30
0.0
 40
0.0061643545348262
 50
177.9542009789232111
 51
241.5188586592335014
  0
LINE
  5
2D6AA
  8
0
 10
5824.8482031218381962
 20
420.2278142365698272
 30
0.0
 11
5824.7740938092638316
 21
420.2278647345644913
 31
0.0
  0
LINE
  5
2D6AB
  8
0
 10
5824.7621833382472687
 20
420.2112738627093904
 30
0.0
 11
5824.8535405607763096
 21
420.216676900289599
 31
0.0
  0
LINE
  5
2D6AC
  8
0
 10
5824.798994190108715
 20
420.2029894416590992
 30
0.0
 11
5824.8549797010437032
 21
420.2097098314343953
 31
0.0
  0
LINE
  5
2D6AD
  8
0
 10
5824.8022150229780891
 20
420.197351076348923
 30
0.0
 11
5824.858520490986848
 21
420.2041098648359139
 31
0.0
  0
LINE
  5
2D6AE
  8
0
 10
5824.8482031218381962
 20
420.2278142365698272
 30
0.0
 11
5824.847679195137971
 21
420.2336492492196953
 31
0.0
  0
ARC
  5
2D6AF
  8
0
 10
5824.8478375440981836
 20
420.2435165687688254
 30
0.0
 40
0.0098685918420765
 50
269.0806077509691931
 51
297.4217813013328282
  0
ARC
  5
2D6B0
  8
0
 10
5824.8480393580293821
 20
420.2227087914977801
 30
0.0
 40
0.0051080708656993
 50
1.478207201364532
 51
88.162793067542367
  0
LINE
  5
2D6B1
  8
0
 10
5824.7709478623983159
 20
420.2178185648874091
 30
0.0
 11
5824.8531739912159537
 21
420.2223993651858223
 31
0.0
  0
ARC
  5
2D6B2
  8
0
 10
5824.8546678130596774
 20
420.2337125916844229
 30
0.0
 40
0.0053059036817219
 50
10.7401563822978208
 51
86.5343506971263565
  0
ARC
  5
2D6B3
  8
0
 10
5824.8456277413279167
 20
420.24249380473168
 30
0.0
 40
0.0162441850835799
 50
331.3331917796984953
 51
4.1755441731627077
  0
LINE
  5
2D6B4
  8
0
 10
5824.8549885555421497
 20
420.2390087920335873
 30
0.0
 11
5824.8033899401316376
 21
420.2418833411751962
 31
0.0
  0
LINE
  5
2D6B5
  8
0
 10
5824.8760552602288953
 20
420.2179335642235856
 30
0.0
 11
5824.9124184188112849
 21
420.2198223004293141
 31
0.0
  0
LINE
  5
2D6B6
  8
0
 10
5824.8929251520376056
 20
420.2142634039198015
 30
0.0
 11
5824.9126067870356565
 21
420.2166272618425182
 31
0.0
  0
LINE
  5
2D6B7
  8
0
 10
5824.8959685617383002
 20
420.2085879093198173
 30
0.0
 11
5824.9137891719537947
 21
420.2107442017438075
 31
0.0
  0
LINE
  5
2D6B8
  8
0
 10
5824.8788945935712036
 20
420.2278315716197881
 30
0.0
 11
5824.9072655175386899
 21
420.2278315716197881
 31
0.0
  0
ARC
  5
2D6B9
  8
0
 10
5824.9070267630695525
 20
420.2226131661760746
 30
0.0
 40
0.0052288185908916
 50
7.0509508568093571
 51
86.7646578251094667
  0
LINE
  5
2D6BA
  8
0
 10
5824.8756672979061477
 20
420.223652462436803
 30
0.0
 11
5824.9112924607261448
 21
420.2256371316789796
 31
0.0
  0
ARC
  5
2D6BB
  8
0
 10
5824.9180166482328787
 20
420.2344866681352187
 30
0.0
 40
0.0034385809367593
 50
175.4342710165952894
 51
245.7962574653861907
  0
ARC
  5
2D6BC
  8
0
 10
5824.9136679610101055
 20
420.2349975972409197
 30
0.0
 40
0.0046839761054912
 50
308.8617353585333944
 51
354.1831333388493022
  0
ARC
  5
2D6BD
  8
0
 10
5824.933753393383995
 20
420.2205536323980937
 30
0.0
 40
0.006599808076253
 50
187.4435240245977923
 51
213.9703016356654928
  0
ARC
  5
2D6BE
  8
0
 10
5824.9291325425338073
 20
420.2174403127709752
 30
0.0
 40
0.0010280021132229
 50
213.9703016356816931
 51
319.0713245950835244
  0
ARC
  5
2D6BF
  8
0
 10
5824.9227069554508489
 20
420.223011962258397
 30
0.0
 40
0.0095327917855185
 50
319.0713245950835244
 51
357.2826088128330184
  0
LINE
  5
2D6C0
  8
0
 10
5824.9334097079381536
 20
420.22103500771982
 30
0.0
 11
5824.9711867286596316
 21
420.2229246609563234
 31
0.0
  0
ARC
  5
2D6C1
  8
0
 10
5824.9340361862923601
 20
420.222391995607893
 30
0.0
 40
0.0014946207732095
 50
166.9550217620034118
 51
245.2187247777212917
  0
ARC
  5
2D6C2
  8
0
 10
5825.0408672921621474
 20
420.0350717644652718
 30
0.0
 40
0.1911228654381994
 50
93.9376671535709988
 51
104.1636133708533976
  0
ARC
  5
2D6C3
  8
0
 10
5825.0600945457335911
 20
419.7557425363434049
 30
0.0
 40
0.4711130527004532
 50
90.542606377368017
 51
93.9376671535709988
  0
ARC
  5
2D6C4
  8
0
 10
5825.0568477425604215
 20
420.3785728709272007
 30
0.0
 40
0.1558318583811875
 50
265.6245466897320853
 51
269.5533794400374745
  0
ARC
  5
2D6C5
  8
0
 10
5825.0513250645981316
 20
420.2787615546312168
 30
0.0
 40
0.0555066778733346
 50
251.5193367919052889
 51
265.7980515985386205
  0
ARC
  5
2D6C6
  8
0
 10
5825.0611967502572952
 20
420.4721775735067126
 30
0.0
 40
0.2491636828262171
 50
266.7930709634945856
 51
268.7205065915807154
  0
LINE
  5
2D6C7
  8
0
 10
5825.5272869643376907
 20
420.4415334603500014
 30
0.0
 11
5825.5272869643376907
 21
420.2439500418195735
 31
0.0
  0
LINE
  5
2D6C8
  8
0
 10
5825.242396851538615
 20
420.453049908322896
 30
0.0
 11
5825.242396851538615
 21
420.3339758039197136
 31
0.0
  0
ARC
  5
2D6C9
  8
0
 10
5825.075697295232203
 20
410.058114312163184
 30
0.0
 40
10.3962721583450008
 50
88.2092127353472648
 51
90.1105778607128229
  0
ARC
  5
2D6CA
  8
0
 10
5825.3345262751809059
 20
418.3365844280162946
 30
0.0
 40
2.113756845957468
 50
84.7719229318825143
 51
88.2092127353472648
  0
ARC
  5
2D6CB
  8
0
 10
5825.5234577055307454
 20
420.3945411033234905
 30
0.0
 40
0.0471501224693973
 50
64.4115598759680523
 51
85.5292731986353658
  0
ARC
  5
2D6CC
  8
0
 10
5825.5253567096006009
 20
420.4725306523973245
 30
0.0
 40
0.0399832186528541
 50
272.5908494830484869
 51
297.5050352031490775
  0
LINE
  5
2D6CD
  8
0
 10
5825.5398850141382354
 20
420.3983072769175919
 30
0.0
 11
5825.5398850141382354
 21
420.3886897080869858
 31
0.0
  0
LINE
  5
2D6CE
  8
0
 10
5825.5272869643376907
 20
420.4024343589082946
 30
0.0
 11
5825.5376952996430191
 21
420.3999124658814139
 31
0.0
  0
LINE
  5
2D6CF
  8
0
 10
5825.5272869643376907
 20
420.3848620751152794
 30
0.0
 11
5825.5376710945256491
 21
420.387075110829187
 31
0.0
  0
ARC
  5
2D6D0
  8
0
 10
5825.5359129451398985
 20
420.3951849302121104
 30
0.0
 40
0.0050523639099746
 50
38.1700258248099331
 51
69.3427765417255699
  0
ARC
  5
2D6D1
  8
0
 10
5825.536978290204388
 20
420.3903502280307976
 30
0.0
 40
0.0033475917483461
 50
281.9440276303386099
 51
330.262031205553285
  0
ARC
  5
2D6D2
  8
0
 10
5825.0030030600246391
 20
420.2736167798476004
 30
0.0
 40
0.0091335295056091
 50
200.9440784847951988
 51
343.4149079788056156
  0
ARC
  5
2D6D3
  8
0
 10
5824.9538639826942017
 20
420.2682450955488775
 30
0.0
 40
0.0079803558656683
 50
187.0561826715209861
 51
1.7588534618929079
  0
LINE
  5
2D6D4
  8
0
 10
5824.8933145464980043
 20
420.2614916909585077
 30
0.0
 11
5824.9055712704375765
 21
420.2589118925197909
 31
0.0
  0
ARC
  5
2D6D5
  8
0
 10
5824.911655072945905
 20
420.2595503074326757
 30
0.0
 40
0.0061172074144076
 50
185.9905126791759926
 51
267.2039997354198135
  0
ARC
  5
2D6D6
  8
0
 10
5824.9116217735027021
 20
420.2588684753263806
 30
0.0
 40
0.0054345626502517
 50
267.2039997354198135
 51
331.9894125507119043
  0
ARC
  5
2D6D7
  8
0
 10
5824.8969526766741183
 20
420.266671649786872
 30
0.0
 40
0.0220499751780328
 50
331.9894125507148033
 51
354.7809879201086005
  0
ARC
  5
2D6D8
  8
0
 10
5824.8598580934885831
 20
420.2557777770264806
 30
0.0
 40
0.0246481178472212
 50
342.4651406893451053
 51
10.2665527265002297
  0
ARC
  5
2D6D9
  8
0
 10
5824.8831019871331591
 20
420.2506079982106826
 30
0.0
 40
0.0077326248268152
 50
188.72495094312589
 51
222.8338141565826049
  0
ARC
  5
2D6DA
  8
0
 10
5824.8791901470685843
 20
420.2469813039551241
 30
0.0
 40
0.0023982641436654
 50
222.8338141565826049
 51
307.3214129818919105
  0
ARC
  5
2D6DB
  8
0
 10
5824.87491755350311
 20
420.2525855385575824
 30
0.0
 40
0.0094454267830156
 50
307.3214129818919105
 51
333.3686632729280177
  0
LINE
  5
2D6DC
  8
0
 10
5824.8752848256381185
 20
420.2494356758198251
 30
0.0
 11
5824.8466240738280248
 21
420.2531977555934759
 31
0.0
  0
LINE
  5
2D6DD
  8
0
 10
5824.7709478623983159
 20
420.2178185648874091
 30
0.0
 11
5824.7708124990158467
 21
420.2252924139957031
 31
0.0
  0
LINE
  5
2D6DE
  8
0
 10
5824.798994190108715
 20
420.2029894416590992
 30
0.0
 11
5824.7987638535096266
 21
420.213437303028627
 31
0.0
  0
LINE
  5
2D6DF
  8
0
 10
5824.8618288086108805
 20
420.2436765844913111
 30
0.0
 11
5824.8618288086108805
 21
420.2512019452403251
 31
0.0
  0
ARC
  5
2D6E0
  8
0
 10
5824.9106452938685834
 20
420.2145902328078932
 30
0.0
 40
0.0243528679950625
 50
170.8053712599194967
 51
193.8097137710578863
  0
ARC
  5
2D6E1
  8
0
 10
5824.8952300973878664
 20
420.2108011261557863
 30
0.0
 40
0.008478813321432
 50
193.8097137710578863
 51
231.7637504588973911
  0
ARC
  5
2D6E2
  8
0
 10
5824.8914887386836199
 20
420.2060528918834166
 30
0.0
 40
0.0024336918457486
 50
231.7637504588973911
 51
301.8213243344191028
  0
ARC
  5
2D6E3
  8
0
 10
5824.8890518281832556
 20
420.2099799619165879
 30
0.0
 40
0.0070554244038888
 50
301.8213243344208081
 51
348.6207415683733757
  0
LINE
  5
2D6E4
  8
0
 10
5824.8929251520376056
 20
420.2142634039198015
 30
0.0
 11
5824.8863646656382116
 21
420.2148429443196846
 31
0.0
  0
ARC
  5
2D6E5
  8
0
 10
5824.9267256788371014
 20
420.2057151813580163
 30
0.0
 40
0.0123061037002369
 50
177.1064049267201881
 51
221.9660015585265
  0
ARC
  5
2D6E6
  8
0
 10
5824.9219347464659222
 20
420.2014065513828882
 30
0.0
 40
0.0058627097773574
 50
221.9660015585290012
 51
273.0810794222945219
  0
ARC
  5
2D6E7
  8
0
 10
5824.9219347738971919
 20
420.201406041763903
 30
0.0
 40
0.0058621994206727
 50
273.0810794222944082
 51
339.5103067768289975
  0
LINE
  5
2D6E8
  8
0
 10
5824.9144352653393071
 20
420.206336409419805
 30
0.0
 11
5824.9145162392869679
 21
420.2092733303009027
 31
0.0
  0
ARC
  5
2D6E9
  8
0
 10
5824.8903368139172017
 20
420.2207429472936155
 30
0.0
 40
0.0206193167894493
 50
174.5528648053922893
 51
196.3345126033308077
  0
ARC
  5
2D6EA
  8
0
 10
5824.873660668269622
 20
420.2158555951560857
 30
0.0
 40
0.003241743755765
 50
196.3345126033214001
 51
227.2966207830100132
  0
ARC
  5
2D6EB
  8
0
 10
5824.8720875309218172
 20
420.2141510042699224
 30
0.0
 40
0.0009221767263332
 50
227.2966207830012024
 51
315.1256431023447817
  0
ARC
  5
2D6EC
  8
0
 10
5824.8683976003121643
 20
420.2178437844279983
 30
0.0
 40
0.0061425393572084
 50
315.0000680212268094
 51
354.1658192908852811
  0
ARC
  5
2D6ED
  8
0
 10
5824.8764627411828769
 20
420.2150184602591025
 30
0.0
 40
0.002943445574587
 50
97.9573961002405156
 51
131.6048858580207082
  0
LINE
  5
2D6EE
  8
0
 10
5824.8756678268382529
 20
420.2236524919197791
 30
0.0
 11
5824.8717645108881698
 21
420.2240239604731187
 31
0.0
  0
LINE
  5
2D6EF
  8
0
 10
5824.8441966303489608
 20
420.2023904591051746
 30
0.0
 11
5824.8445807952075484
 21
420.1901591379535148
 31
0.0
  0
LINE
  5
2D6F0
  8
0
 10
5824.8493341275379862
 20
420.1847863996197816
 30
0.0
 11
5824.8805757363834346
 21
420.1912793156911903
 31
0.0
  0
ARC
  5
2D6F1
  8
0
 10
5824.8500576071110117
 20
420.1902155085310824
 30
0.0
 40
0.0054771019949945
 50
180.5897011253080109
 51
262.4095210599285224
  0
LINE
  5
2D6F2
  8
0
 10
5824.8445807952075484
 20
420.1901591379535148
 30
0.0
 11
5824.8709641417817693
 21
420.1956779530632957
 31
0.0
  0
LINE
  5
2D6F3
  8
0
 10
5824.9045628109379322
 20
420.1802583532198128
 30
0.0
 11
5824.9110269404409337
 21
420.1825861466294896
 31
0.0
  0
LINE
  5
2D6F4
  8
0
 10
5824.9104516860652438
 20
420.1751677074885265
 30
0.0
 11
5824.9239008799304429
 21
420.1799479583461903
 31
0.0
  0
LINE
  5
2D6F5
  8
0
 10
5824.9044131696118711
 20
420.1841633897684005
 30
0.0
 11
5824.9045628109379322
 21
420.1802583532198128
 31
0.0
  0
ARC
  5
2D6F6
  8
0
 10
5824.9096723561178806
 20
420.1802176337113224
 30
0.0
 40
0.0051097074302024
 50
179.5434022980005864
 51
278.7729627507084729
  0
LINE
  5
2D6F7
  8
0
 10
5824.9822088194241587
 20
420.1694360069768095
 30
0.0
 11
5824.9859833813334262
 21
420.1721453977276042
 31
0.0
  0
ARC
  5
2D6F8
  8
0
 10
5824.9800602610548594
 20
420.1741995059030046
 30
0.0
 40
0.005225631548414
 50
191.8082517426865081
 51
294.2775770996665869
  0
LINE
  5
2D6F9
  8
0
 10
5824.9043154537321243
 20
420.2362608038226881
 30
0.0
 11
5824.9114727703963581
 21
420.2358620713479809
 31
0.0
  0
ARC
  5
2D6FA
  8
0
 10
5824.9115439918277843
 20
420.2311054486206103
 30
0.0
 40
0.0047571559007542
 50
50.2017936449522395
 51
90.857831872476396
  0
ARC
  5
2D6FB
  8
0
 10
5824.8955083249347808
 20
420.2399148415469199
 30
0.0
 40
0.0234478688527198
 50
346.7055607886345001
 51
359.4337076061045764
  0
ARC
  5
2D6FC
  8
0
 10
5824.9303524356510025
 20
420.2414983600868936
 30
0.0
 40
0.0029337645161936
 50
182.4915351920402884
 51
293.9311902337764764
  0
ARC
  5
2D6FD
  8
0
 10
5824.9296394115172006
 20
420.2431050286442087
 30
0.0
 40
0.0046915435890302
 50
293.9311902338242248
 51
353.6715301214721876
  0
ARC
  5
2D6FE
  8
0
 10
5824.9530210613593226
 20
420.2492263103376899
 30
0.0
 40
0.0044672093957743
 50
247.8134591089998082
 51
306.8923621756879925
  0
ARC
  5
2D6FF
  8
0
 10
5825.0038908075202926
 20
420.2415400783294785
 30
0.0
 40
0.0062242668515766
 50
230.1502036735093952
 51
319.1594769970578795
  0
ARC
  5
2D700
  8
0
 10
5824.9817293217138285
 20
420.2352492719065253
 30
0.0
 40
0.0028503769118822
 50
200.3683519288393882
 51
355.6849514921875084
  0
LINE
  5
2D701
  8
0
 10
5824.9717599680379863
 20
420.2149199677198226
 30
0.0
 11
5824.9709869379375959
 21
420.2257145311198201
 31
0.0
  0
LINE
  5
2D702
  8
0
 10
5824.9482428642431842
 20
420.2281255867837899
 30
0.0
 11
5824.9679521557382031
 21
420.2281255867837899
 31
0.0
  0
ARC
  5
2D703
  8
0
 10
5824.9662913593083431
 20
420.2229196921886114
 30
0.0
 40
0.0054643923099067
 50
30.7613829251050888
 51
72.3061578276149106
  0
ARC
  5
2D704
  8
0
 10
5824.9404369696885624
 20
420.2317748527780168
 30
0.0
 40
0.0327502114437865
 50
349.2306165251317225
 51
2.7242636648106089
  0
ARC
  5
2D705
  8
0
 10
5824.9674872014393259
 20
420.226629724105976
 30
0.0
 40
0.0052150087607861
 50
324.003514288439078
 51
349.2306165251317225
  0
ARC
  5
2D706
  8
0
 10
5824.9913831484445836
 20
420.2313451233019919
 30
0.0
 40
0.0211591344656821
 50
195.4327367606018129
 51
201.5745153363907889
  0
LINE
  5
2D707
  8
0
 10
5824.9455077418333531
 20
420.221640166318025
 30
0.0
 11
5824.9453563689394286
 21
420.2158529106197875
 31
0.0
  0
LINE
  5
2D708
  8
0
 10
5824.9575135753320865
 20
420.2098299445183898
 30
0.0
 11
5824.9724473200321881
 21
420.2122469371137186
 31
0.0
  0
LINE
  5
2D709
  8
0
 10
5824.9521885991380259
 20
420.2155471505196829
 30
0.0
 11
5824.9714944867419035
 21
420.2186271386113958
 31
0.0
  0
LINE
  5
2D70A
  8
0
 10
5824.9521885991380259
 20
420.2155471499198143
 30
0.0
 11
5824.9453563689394286
 21
420.2158529106197875
 31
0.0
  0
ARC
  5
2D70B
  8
0
 10
5824.9591676752570493
 20
420.2147862920713237
 30
0.0
 40
0.0138524314604826
 50
175.5839312043758866
 51
212.7725416386992094
  0
ARC
  5
2D70C
  8
0
 10
5824.9524367548019654
 20
420.2102094275713853
 30
0.0
 40
0.0057190870940723
 50
210.7197028065322968
 51
256.2689801257594127
  0
ARC
  5
2D70D
  8
0
 10
5824.9519928924328269
 20
420.2083929055934277
 30
0.0
 40
0.0038491229502407
 50
256.2689801257586169
 51
308.710756103321728
  0
ARC
  5
2D70E
  8
0
 10
5824.9483409610929812
 20
420.2129495076284798
 30
0.0
 40
0.0096885770877135
 50
308.7107564956015722
 51
341.217071771225676
  0
ARC
  5
2D70F
  8
0
 10
5824.9557542357051716
 20
420.2439584926246994
 30
0.0
 40
0.0453981545051611
 50
227.8711653063679989
 51
258.0076511156585184
  0
ARC
  5
2D710
  8
0
 10
5824.9293778394012406
 20
420.2147966728625192
 30
0.0
 40
0.0060773455895931
 50
181.6382222295463862
 51
227.8711653063679989
  0
ARC
  5
2D711
  8
0
 10
5824.9272709570650477
 20
420.214736415677919
 30
0.0
 40
0.0039696017469731
 50
143.2667451177715066
 51
181.638222229543203
  0
ARC
  5
2D712
  8
0
 10
5824.9310033800720703
 20
420.2119509819432892
 30
0.0
 40
0.0086268136372938
 50
116.0919034349430063
 51
143.2667451177740929
  0
ARC
  5
2D713
  8
0
 10
5825.0518550812903413
 20
420.4559446526895954
 30
0.0
 40
0.2561720765464888
 50
258.8210379910834718
 51
270.8450150485280119
  0
ARC
  5
2D714
  8
0
 10
5825.0144638089223008
 20
420.2667403370920169
 30
0.0
 40
0.063308445215793
 50
244.6029368474900991
 51
258.8210379910834718
  0
ARC
  5
2D715
  8
0
 10
5824.9915649244676388
 20
420.2184258332176796
 30
0.0
 40
0.0098421754160952
 50
199.9939737862723916
 51
244.3952436950820015
  0
ARC
  5
2D716
  8
0
 10
5825.0008051805443756
 20
420.1898392619169726
 30
0.0
 40
0.0312724589468409
 50
102.378916766964096
 51
126.244372706631097
  0
ARC
  5
2D717
  8
0
 10
5825.0221483809727943
 20
420.2214637870274032
 30
0.0
 40
0.0114532936314305
 50
179.8455823543324072
 51
234.9690520266825047
  0
ARC
  5
2D718
  8
0
 10
5825.0205007307049527
 20
420.2191134016475758
 30
0.0
 40
0.0085829168536913
 50
234.9690520266825047
 51
304.252279201310273
  0
ARC
  5
2D719
  8
0
 10
5825.0193786979625656
 20
420.2207611865437116
 30
0.0
 40
0.0105764445143318
 50
304.2522792013122057
 51
345.1705464508860928
  0
LINE
  5
2D71A
  8
0
 10
5825.0106965114382547
 20
420.2214945800196801
 30
0.0
 11
5825.0106554172662072
 21
420.2237916423493971
 31
0.0
  0
LINE
  5
2D71B
  8
0
 10
5825.0296028616940021
 20
420.2180542224530768
 30
0.0
 11
5825.0431439385392878
 21
420.2229529405196899
 31
0.0
  0
ARC
  5
2D71C
  8
0
 10
5825.0445798642176669
 20
420.2191149444244047
 30
0.0
 40
0.004097816075456
 50
84.6907624828698431
 51
110.5125431235978937
  0
ARC
  5
2D71D
  8
0
 10
5825.0450298132809621
 20
420.269368058637383
 30
0.0
 40
0.0458052315660833
 50
251.5166659098607056
 51
270.5463594847681179
  0
CIRCLE
  5
2D71E
  8
0
 10
5825.0556330456383876
 20
420.4396432436523128
 30
0.0
 40
1.181102362199999
  0
LINE
  5
2D71F
  8
0
 10
5824.3469716283379967
 20
420.9973097221987928
 30
0.0
 11
5824.3469716283379967
 21
420.1801524172523159
 31
0.0
  0
LINE
  5
2D720
  8
0
 10
5824.3837716283387635
 20
421.0341097221988775
 30
0.0
 11
5825.7274944629380116
 21
421.0341097221988775
 31
0.0
  0
LINE
  5
2D721
  8
0
 10
5824.3390976125383531
 20
420.703422771252292
 30
0.0
 11
5824.3390976125383531
 21
420.1758361570522879
 31
0.0
  0
ARC
  5
2D722
  8
0
 10
5824.3686251716380866
 20
420.703422771252292
 30
0.0
 40
0.0295275590999898
 50
137.1665718198231048
 51
180.0000000000098055
  0
ARC
  5
2D723
  8
0
 10
5824.3784716283380476
 20
420.1801524172523159
 30
0.0
 40
0.0315
 50
180.0
 51
270.0
  0
ARC
  5
2D724
  8
0
 10
5824.3685976344777373
 20
420.1758361661403001
 30
0.0
 40
0.0295000219405073
 50
180.0000176510789913
 51
270.0534834601356238
  0
ARC
  5
2D725
  8
0
 10
5824.3837716283387635
 20
420.9973097221987928
 30
0.0
 40
0.0368
 50
90.0
 51
180.0000000000032117
  0
LINE
  5
2D726
  8
0
 10
5824.3784716283380476
 20
420.1486524172523787
 30
0.0
 11
5824.7443439346207015
 21
420.1486524172523787
 31
0.0
  0
LINE
  5
2D727
  8
0
 10
5824.3686251716380866
 20
420.1463361570523034
 30
0.0
 11
5824.756323153989797
 21
420.1463361570523034
 31
0.0
  0
LINE
  5
2D728
  8
0
 10
5824.3469716283379967
 20
420.4635722851522814
 30
0.0
 11
5825.764294462937869
 21
420.4635722851522814
 31
0.0
  0
LINE
  5
2D729
  8
0
 10
5825.764294462937869
 20
420.9973097221987928
 30
0.0
 11
5825.764294462937869
 21
420.1801524172523159
 31
0.0
  0
LINE
  5
2D72A
  8
0
 10
5825.7721684787393315
 20
420.703422771252292
 30
0.0
 11
5825.7721684787393315
 21
420.1758361570522879
 31
0.0
  0
ARC
  5
2D72B
  8
0
 10
5825.7426409196386885
 20
420.703422771252292
 30
0.0
 40
0.0295275590999898
 50
359.9999999999902229
 51
42.8334281801768526
  0
ARC
  5
2D72C
  8
0
 10
5825.7327944629387275
 20
420.1801524172523159
 30
0.0
 40
0.0315
 50
270.0
 51
0.0
  0
ARC
  5
2D72D
  8
0
 10
5825.7426684567981283
 20
420.1758361661403001
 30
0.0
 40
0.0295000219405073
 50
269.9465165398644899
 51
359.9999823489209803
  0
ARC
  5
2D72E
  8
0
 10
5825.7274944629380116
 20
420.9973097221987928
 30
0.0
 40
0.0368
 50
359.9999999999968168
 51
90.0
  0
ARC
  5
2D72F
  8
0
 10
5824.7121119731718863
 20
420.1895202844006008
 30
0.0
 40
0.0602508674882783
 50
113.926123690050602
 51
144.8470894297321081
  0
ARC
  5
2D730
  8
0
 10
5824.6789883425881271
 20
420.2144993982223014
 30
0.0
 40
0.018834984800461
 50
148.9637101455899142
 51
218.6596855320435964
  0
ARC
  5
2D731
  8
0
 10
5824.755134401118994
 20
420.2967887773326083
 30
0.0
 40
0.1307701519327757
 50
225.991986760831395
 51
256.3417292590514194
  0
ARC
  5
2D732
  8
0
 10
5824.8881519035376186
 20
420.6992500973416895
 30
0.0
 40
0.5543173275052093
 50
252.802139498955114
 51
259.6541965651358055
  0
ARC
  5
2D733
  8
0
 10
5824.9722780997208247
 20
421.130097849667095
 30
0.0
 40
0.9932829652689994
 50
259.3436822189017903
 51
264.2713549256167198
  0
ARC
  5
2D734
  8
0
 10
5824.7796459424653222
 20
420.2366138150853772
 30
0.0
 40
0.0438265540919584
 50
187.4839227256728975
 51
230.6787950978450965
  0
ARC
  5
2D735
  8
0
 10
5824.8257455741686499
 20
420.2928940495701795
 30
0.0
 40
0.1165770924876539
 50
230.6787950978450965
 51
246.4688953083812919
  0
ARC
  5
2D736
  8
0
 10
5824.908558396213266
 20
420.5054709232505843
 30
0.0
 40
0.3446556466855924
 50
247.9559610621874128
 51
259.5158042583939846
  0
ARC
  5
2D737
  8
0
 10
5825.004955814089044
 20
420.9823400657421075
 30
0.0
 40
0.8311430589065407
 50
258.9632784667493866
 51
264.5706864209532228
  0
ARC
  5
2D738
  8
0
 10
5825.0472787657135996
 20
421.3896552221310117
 30
0.0
 40
1.240640575453209
 50
264.4047123501190981
 51
267.7293393185743184
  0
ARC
  5
2D739
  8
0
 10
5825.0551454765700328
 20
421.5579813338437134
 30
0.0
 40
1.4091467037113989
 50
267.6808958245085819
 51
269.1862772804886959
  0
ARC
  5
2D73A
  8
0
 10
5825.0179444269542728
 20
416.3128576498265261
 30
0.0
 40
3.836157600436445
 50
89.4370842517349445
 51
89.7432716814237352
  0
ARC
  5
2D73B
  8
0
 10
5824.7386449926243586
 20
420.1949102595274894
 30
0.0
 40
0.0594421170159591
 50
111.472320666121206
 51
149.0307635514880076
  0
ARC
  5
2D73C
  8
0
 10
5824.8749869591401875
 20
419.8941841552958181
 30
0.0
 40
0.3895667105914995
 50
102.8665367283980032
 51
113.9436318872528062
  0
ARC
  5
2D73D
  8
0
 10
5824.8737398514786037
 20
420.2129588648722915
 30
0.0
 40
0.0099520301235366
 50
133.0072915903269006
 51
165.7023588288618896
  0
ARC
  5
2D73E
  8
0
 10
5824.872796276167719
 20
420.2150679985666102
 30
0.0
 40
0.0087071811257989
 50
177.7054258050052908
 51
204.7214556483139063
  0
ARC
  5
2D73F
  8
0
 10
5824.8901643975577826
 20
420.2274274642477963
 30
0.0
 40
0.0299160489018438
 50
212.3343587131871004
 51
247.7723868824743079
  0
ARC
  5
2D740
  8
0
 10
5824.9587082842872405
 20
420.3825262481353775
 30
0.0
 40
0.1994756911356011
 50
246.3997373734044913
 51
260.5298857265021866
  0
ARC
  5
2D741
  8
0
 10
5825.0344204776411061
 20
420.7831540813273818
 30
0.0
 40
0.6071640066751387
 50
259.7028500690532269
 51
266.620736189315096
  0
ARC
  5
2D742
  8
0
 10
5825.0882117707733414
 20
422.1057166923030195
 30
0.0
 40
1.930750143876635
 50
267.3407044090461113
 51
269.0331674730174996
  0
ARC
  5
2D743
  8
0
 10
5825.005414588921667
 20
428.0047534238045159
 30
0.0
 40
7.8803387005154901
 50
270.3651270849911725
 51
271.3625930884659851
  0
ARC
  5
2D744
  8
0
 10
5825.1232085664787519
 20
421.3769536162889722
 30
0.0
 40
1.2522460419548509
 50
273.1859879896351231
 51
282.9473685322068945
  0
ARC
  5
2D745
  8
0
 10
5825.3481877201365933
 20
420.4262175748229993
 30
0.0
 40
0.2753440730264014
 50
281.6485139382090779
 51
304.0136642408128864
  0
ARC
  5
2D746
  8
0
 10
5825.4626646805681958
 20
420.2500989291464748
 30
0.0
 40
0.0654219655273809
 50
307.1932534398582106
 51
341.57564171340141
  0
ARC
  5
2D747
  8
0
 10
5825.4566171323649542
 20
420.2473899176401915
 30
0.0
 40
0.0704460291717561
 50
345.2230328835389059
 51
357.2011371604593251
  0
ARC
  5
2D748
  8
0
 10
5825.5075439707534315
 20
420.2449001928811185
 30
0.0
 40
0.0194583679420772
 50
357.201137160456085
 51
38.4867676869829936
  0
ARC
  5
2D749
  8
0
 10
5825.4117947976874348
 20
420.1442017430825899
 30
0.0
 40
0.1582475017873967
 50
45.4679561600294804
 51
76.7246489070480351
  0
ARC
  5
2D74A
  8
0
 10
5825.16541232403506
 20
419.2805610336483824
 30
0.0
 40
1.056201682000544
 50
74.4739120115651758
 51
85.8368568019372589
  0
ARC
  5
2D74B
  8
0
 10
5825.153273770522901
 20
420.5512924311908023
 30
0.0
 40
0.246967435418356
 50
272.8303252098335179
 51
284.9690401389634076
  0
ARC
  5
2D74C
  8
0
 10
5825.207160260798446
 20
420.3497139047410087
 30
0.0
 40
0.0383106463914621
 50
284.9828906160371957
 51
335.7447573845228135
  0
ARC
  5
2D74D
  8
0
 10
5825.0186546160375656
 20
417.5668435943413783
 30
0.0
 40
2.727581057637765
 50
84.8452826380874399
 51
89.2232044393003036
  0
ARC
  5
2D74E
  8
0
 10
5825.1078532544806876
 20
419.1110839737334004
 30
0.0
 40
1.182625360661071
 50
77.0175027452782075
 51
82.4267637956047281
  0
ARC
  5
2D74F
  8
0
 10
5825.3286208780318702
 20
420.0686681068877988
 30
0.0
 40
0.1999220912671979
 50
61.6388614223454425
 51
77.0175027452782075
  0
LINE
  5
2D750
  8
0
 10
5825.4235893631393992
 20
420.2445937429197897
 30
0.0
 11
5825.4235893696386483
 21
420.220261852519684
 31
0.0
  0
LINE
  5
2D751
  8
0
 10
5825.2576227973377172
 20
420.2150731476198189
 30
0.0
 11
5825.2591663758421419
 21
420.2391697305266121
 31
0.0
  0
LINE
  5
2D752
  8
0
 10
5825.1985676791382502
 20
420.2150731476198189
 30
0.0
 11
5825.199793320880417
 21
420.2358620713479809
 31
0.0
  0
ARC
  5
2D753
  8
0
 10
5825.3877416694585918
 20
420.2213124147179997
 30
0.0
 40
0.0358606415984187
 50
317.7414273755541103
 51
358.3533684716737753
  0
ARC
  5
2D754
  8
0
 10
5825.3561475635033275
 20
420.2500191085429719
 30
0.0
 40
0.0785486001050781
 50
295.1338360319138019
 51
317.7414273755541103
  0
ARC
  5
2D755
  8
0
 10
5825.2596977760222217
 20
420.4556012234672835
 30
0.0
 40
0.3056313327863704
 50
285.3148834525513848
 51
295.1338360319138019
  0
ARC
  5
2D756
  8
0
 10
5825.1976555884875779
 20
420.6821580235389888
 30
0.0
 40
0.5405296441738602
 50
279.920280782792986
 51
285.3148834525513848
  0
ARC
  5
2D757
  8
0
 10
5825.0959539886653147
 20
421.2636665381002103
 30
0.0
 40
1.130864606643307
 50
276.9401050597929839
 51
279.920280782792986
  0
ARC
  5
2D758
  8
0
 10
5825.0898014308477286
 20
421.3142118653037755
 30
0.0
 40
1.181783012645629
 50
273.1771818495773232
 51
276.9401050597929839
  0
ARC
  5
2D759
  8
0
 10
5825.0181995415869096
 20
422.6041223595022984
 30
0.0
 40
2.4736792598687449
 50
272.1300069281542733
 51
273.1771818495773232
  0
ARC
  5
2D75A
  8
0
 10
5825.0485132877747674
 20
422.2518705461454829
 30
0.0
 40
2.1206139158641131
 50
270.192365446650399
 51
271.665266752814091
  0
ARC
  5
2D75B
  8
0
 10
5825.3063679287533887
 20
420.1861632501696135
 30
0.0
 40
0.051893389930889
 50
42.0661859805059493
 51
64.5935555564130652
  0
ARC
  5
2D75C
  8
0
 10
5825.2191476557936767
 20
420.0049572564727214
 30
0.0
 40
0.2529972584256228
 50
64.3578210874413088
 51
69.0162560330967807
  0
ARC
  5
2D75D
  8
0
 10
5825.2357501593933193
 20
420.0482449623057164
 30
0.0
 40
0.2066348965138677
 50
69.0162560330967807
 51
78.5041192974726272
  0
ARC
  5
2D75E
  8
0
 10
5824.8369055424509497
 20
418.0871393549307982
 30
0.0
 40
2.207887562156523
 50
78.5041192974726272
 51
79.7364129012655525
  0
ARC
  5
2D75F
  8
0
 10
5825.0925877143172329
 20
419.3553602435467837
 30
0.0
 40
0.9147624226958493
 50
81.3415221216412334
 51
84.488592717234468
  0
ARC
  5
2D760
  8
0
 10
5825.0686474731874114
 20
419.1167509464581826
 30
0.0
 40
1.154568327450548
 50
84.4433050076723362
 51
86.2404358123702508
  0
ARC
  5
2D761
  8
0
 10
5825.057819402525638
 20
418.9481651481178801
 30
0.0
 40
1.323501344580144
 50
86.2512304921853712
 51
88.7838639129060709
  0
ARC
  5
2D762
  8
0
 10
5825.0947980216351425
 20
422.4760999335865108
 30
0.0
 40
2.204749482810572
 50
268.982149273116022
 51
269.7690062751412938
  0
ARC
  5
2D763
  8
0
 10
5825.3296123086529406
 20
420.2080679480528147
 30
0.0
 40
0.0199733807029533
 50
21.1870782828272795
 51
40.0923350296682983
  0
ARC
  5
2D764
  8
0
 10
5825.3363612781713528
 20
420.2106839499002717
 30
0.0
 40
0.0127351450601648
 50
344.7376996142648977
 51
21.1870782828272795
  0
ARC
  5
2D765
  8
0
 10
5825.3309918844015556
 20
420.2121490531246195
 30
0.0
 40
0.0183008361139616
 50
312.5174900039449994
 51
344.7376996142617145
  0
ARC
  5
2D766
  8
0
 10
5825.2926294152366609
 20
420.2539886933142839
 30
0.0
 40
0.0750655657580142
 50
290.0778345158108777
 51
312.5174900039449994
  0
ARC
  5
2D767
  8
0
 10
5825.2120276981568168
 20
420.4514864997743757
 30
0.0
 40
0.2883394674256173
 50
282.4235991221361246
 51
291.6484398781237815
  0
ARC
  5
2D768
  8
0
 10
5825.1228563237900744
 20
420.8468308416262857
 30
0.0
 40
0.6936134114936483
 50
276.4194415524398778
 51
282.5912778828338787
  0
ARC
  5
2D769
  8
0
 10
5825.0655061028792261
 20
421.3292776524501164
 30
0.0
 40
1.1794513495172749
 50
271.9664464863561193
 51
276.5676117650634183
  0
ARC
  5
2D76A
  8
0
 10
5824.9563697546218464
 20
427.0328759092849964
 30
0.0
 40
6.8839809169219937
 50
270.8262028628249141
 51
271.2452968455360178
  0
ARC
  5
2D76B
  8
0
 10
5825.2800058527591318
 20
420.0534656959803783
 30
0.0
 40
0.2013025431459685
 50
57.0240667798183694
 51
78.509460399305965
  0
ARC
  5
2D76C
  8
0
 10
5825.170970428273904
 20
419.6438636156577786
 30
0.0
 40
0.6249262585051589
 50
76.1933625425432126
 51
80.2512972342562563
  0
ARC
  5
2D76D
  8
0
 10
5825.1166197108595952
 20
419.3317705374147977
 30
0.0
 40
0.9417160088397778
 50
80.2074884340165255
 51
83.5373302838385143
  0
ARC
  5
2D76E
  8
0
 10
5825.0828112247709214
 20
419.0544388557456159
 30
0.0
 40
1.2210930176070851
 50
83.4257341438559763
 51
85.3547852473006969
  0
ARC
  5
2D76F
  8
0
 10
5825.0616164923858378
 20
418.7907644134775751
 30
0.0
 40
1.4856178466833541
 50
85.3636052779644814
 51
87.9010994604226141
  0
ARC
  5
2D770
  8
0
 10
5825.0551391861663433
 20
418.6140018151546087
 30
0.0
 40
1.6624990827177479
 50
87.901130027360395
 51
89.9829798018418074
  0
ARC
  5
2D771
  8
0
 10
5825.373218504464603
 20
420.1999182016612053
 30
0.0
 40
0.0277506830887167
 50
20.8018929292009283
 51
53.8922176301542635
  0
ARC
  5
2D772
  8
0
 10
5825.3855526413972257
 20
420.2046475656401867
 30
0.0
 40
0.0145410408748585
 50
325.9570672001755725
 51
20.6413004394196484
  0
ARC
  5
2D773
  8
0
 10
5825.3486412775264398
 20
420.2331518872287006
 30
0.0
 40
0.0611529212769991
 50
292.813319487395006
 51
323.2272472492556972
  0
ARC
  5
2D774
  8
0
 10
5825.223011763411705
 20
420.5318183174742899
 30
0.0
 40
0.3851659015297335
 50
283.3355517928753216
 51
292.813319487395006
  0
ARC
  5
2D775
  8
0
 10
5825.1626179002887511
 20
420.7865961015003222
 30
0.0
 40
0.6470039009415974
 50
275.8961798237363041
 51
283.3355517928753216
  0
ARC
  5
2D776
  8
0
 10
5824.9903648719682678
 20
422.4545418401349934
 30
0.0
 40
2.3238205554375542
 50
273.4998200643120754
 51
275.8961798237363041
  0
ARC
  5
2D777
  8
0
 10
5825.0382436934778525
 20
422.5036051033906119
 30
0.0
 40
2.370413609748399
 50
270.4203255583619807
 51
272.2722002655777942
  0
ARC
  5
2D778
  8
0
 10
5825.1283049069370463
 20
420.2163264198262027
 30
0.0
 40
0.01127756719745
 50
298.9708043728721236
 51
353.6168683502148156
  0
ARC
  5
2D779
  8
0
 10
5825.1004622916261724
 20
420.2666162449019112
 30
0.0
 40
0.0687604144954452
 50
290.8484484110974222
 51
298.9708043728721236
  0
ARC
  5
2D77A
  8
0
 10
5825.0910348270326722
 20
420.3037322231907069
 30
0.0
 40
0.1068920031730655
 50
280.5902837647341812
 51
288.4897023507793961
  0
ARC
  5
2D77B
  8
0
 10
5825.0634566687358529
 20
420.4553304131529785
 30
0.0
 40
0.2609774786971966
 50
272.8889778718145749
 51
280.4249642566027205
  0
ARC
  5
2D77C
  8
0
 10
5825.8326678524408635
 20
392.907487465264694
 30
0.0
 40
27.2976693459136897
 50
91.5871119043018211
 51
91.6311586497737665
  0
ARC
  5
2D77D
  8
0
 10
5825.2386217456587474
 20
420.2169595864974099
 30
0.0
 40
0.0190944655967343
 50
302.8108815202584196
 51
354.3302114381227739
  0
ARC
  5
2D77E
  8
0
 10
5825.1977936582588882
 20
420.2758634859796985
 30
0.0
 40
0.0907561265860627
 50
286.6790726748017732
 51
304.3239407236868033
  0
ARC
  5
2D77F
  8
0
 10
5825.1312235115510703
 20
420.4866410131432986
 30
0.0
 40
0.31178922418325
 50
277.1903696979381948
 51
287.2807231940312249
  0
ARC
  5
2D780
  8
0
 10
5825.0706218574987361
 20
420.8472006959412965
 30
0.0
 40
0.6772646930384234
 50
272.1888145927570122
 51
278.4590393379767193
  0
ARC
  5
2D781
  8
0
 10
5825.040834169612026
 20
421.7853517470086899
 30
0.0
 40
1.615880314888805
 50
270.5247449231027872
 51
271.9737760599925878
  0
ARC
  5
2D782
  8
0
 10
5825.2256371716866852
 20
420.2014545528288068
 30
0.0
 40
0.0264877328226709
 50
45.1600516155231801
 51
59.4817721951651208
  0
ARC
  5
2D783
  8
0
 10
5825.1944385625247378
 20
420.1485283347882955
 30
0.0
 40
0.0879249997681148
 50
59.4817721951651208
 51
73.6167253895241203
  0
ARC
  5
2D784
  8
0
 10
5825.1177192618106346
 20
419.8875772968826254
 30
0.0
 40
0.3599200278221954
 50
73.6167253895241203
 51
81.5451714359247433
  0
ARC
  5
2D785
  8
0
 10
5825.0711466211905645
 20
419.5742629551444907
 30
0.0
 40
0.6766768550462678
 50
81.5451714359247433
 51
87.5479315353448015
  0
ARC
  5
2D786
  8
0
 10
5825.0491676111232664
 20
419.0610082844107751
 30
0.0
 40
1.190401911777474
 50
87.5479315353448015
 51
89.6888076807970549
  0
ARC
  5
2D787
  8
0
 10
5825.103160096053216
 20
420.4119383682465809
 30
0.0
 40
0.2211914949683095
 50
278.6351340820174869
 51
286.2200101167434809
  0
ARC
  5
2D788
  8
0
 10
5825.0629865252667514
 20
420.6752722415321273
 30
0.0
 40
0.4875721057088755
 50
271.9067532621547798
 51
278.6563811881637207
  0
ARC
  5
2D789
  8
0
 10
5825.0555574914997123
 20
420.8153537064152943
 30
0.0
 40
0.6278292779435066
 50
270.0068950801526171
 51
272.1589963863378898
  0
ARC
  5
2D78A
  8
0
 10
5825.1842021659331294
 20
420.2163909186792807
 30
0.0
 40
0.0144258271750301
 50
306.9997227613396831
 51
354.7588385506552981
  0
ARC
  5
2D78B
  8
0
 10
5825.1603377168394218
 20
420.2480604311007255
 30
0.0
 40
0.0540802083651063
 50
290.5394489904343232
 51
306.9997227613396831
  0
ARC
  5
2D78C
  8
0
 10
5825.0986002159997952
 20
420.4397623768441008
 30
0.0
 40
0.2554312866245422
 50
276.1725920332938813
 51
288.4200999565634902
  0
ARC
  5
2D78D
  8
0
 10
5825.0609971610156208
 20
420.7314411683886988
 30
0.0
 40
0.5494953028253642
 50
272.214075680291387
 51
276.8005847459609186
  0
ARC
  5
2D78E
  8
0
 10
5825.0400243986559872
 20
421.6090500471481164
 30
0.0
 40
1.4273179833356531
 50
270.6265789629359233
 51
271.6943138489301077
  0
ARC
  5
2D78F
  8
0
 10
5825.1593466919930506
 20
420.1821825506950177
 30
0.0
 40
0.0449227161716144
 50
56.6288578723341871
 51
70.1747340979666347
  0
ARC
  5
2D790
  8
0
 10
5825.1198213637835579
 20
420.0725484431271752
 30
0.0
 40
0.161464078409479
 50
70.1747340979666347
 51
78.4708439682106587
  0
ARC
  5
2D791
  8
0
 10
5825.0769695307280926
 20
419.8624721969625284
 30
0.0
 40
0.3758662910819214
 50
78.4708439682106587
 51
85.4547680440801543
  0
ARC
  5
2D792
  8
0
 10
5825.0501054087753801
 20
419.5245430314610076
 30
0.0
 40
0.714861574153614
 50
85.4547621568093803
 51
89.5569583951137531
  0
LINE
  5
2D793
  8
0
 10
5825.2635868961388041
 20
420.2336492492196953
 30
0.0
 11
5825.327349241824777
 21
420.2336492536027777
 31
0.0
  0
ARC
  5
2D794
  8
0
 10
5825.3251893047727208
 20
420.2189075132575908
 30
0.0
 40
0.0151680635917703
 50
332.4486629162794884
 51
355.8830693116779003
  0
ARC
  5
2D795
  8
0
 10
5825.3061114757247196
 20
420.202769384421174
 30
0.0
 40
0.0061643545348262
 50
298.4811413407664986
 51
2.0457990210767631
  0
LINE
  5
2D796
  8
0
 10
5825.2630629694385789
 20
420.2278142365698272
 30
0.0
 11
5825.3371722820129435
 21
420.2278647345644913
 31
0.0
  0
LINE
  5
2D797
  8
0
 10
5825.3490827530304159
 20
420.2112738627093904
 30
0.0
 11
5825.257725530501375
 21
420.216676900289599
 31
0.0
  0
LINE
  5
2D798
  8
0
 10
5825.3122719011680601
 20
420.2029894416590992
 30
0.0
 11
5825.2562863902330719
 21
420.2097098314343953
 31
0.0
  0
LINE
  5
2D799
  8
0
 10
5825.3090510682977765
 20
420.197351076348923
 30
0.0
 11
5825.2527456002899271
 21
420.2041098648359139
 31
0.0
  0
LINE
  5
2D79A
  8
0
 10
5825.2630629694385789
 20
420.2278142365698272
 30
0.0
 11
5825.2635868961388041
 21
420.2336492492196953
 31
0.0
  0
ARC
  5
2D79B
  8
0
 10
5825.2634285471804105
 20
420.2435165687688254
 30
0.0
 40
0.0098685918420765
 50
242.5782186986672002
 51
270.9193922490308069
  0
ARC
  5
2D79C
  8
0
 10
5825.263226733247393
 20
420.2227087914977801
 30
0.0
 40
0.0051080708656993
 50
91.837206932457633
 51
178.521792798635488
  0
LINE
  5
2D79D
  8
0
 10
5825.3403182288775497
 20
420.2178185648874091
 30
0.0
 11
5825.2580921000599119
 21
420.2223993651858223
 31
0.0
  0
ARC
  5
2D79E
  8
0
 10
5825.2565982782170977
 20
420.2337125916844229
 30
0.0
 40
0.0053059036817219
 50
93.4656493028736435
 51
169.2598436177021881
  0
ARC
  5
2D79F
  8
0
 10
5825.2656383499470394
 20
420.24249380473168
 30
0.0
 40
0.0162441850835799
 50
175.8244558268372941
 51
208.6668082203015047
  0
LINE
  5
2D7A0
  8
0
 10
5825.2562775357346254
 20
420.2390087920335873
 30
0.0
 11
5825.3078761511442281
 21
420.2418833411751962
 31
0.0
  0
LINE
  5
2D7A1
  8
0
 10
5825.2352108310460608
 20
420.2179335642235856
 30
0.0
 11
5825.1988476724645807
 21
420.2198223004293141
 31
0.0
  0
LINE
  5
2D7A2
  8
0
 10
5825.2183409392391695
 20
420.2142634039198015
 30
0.0
 11
5825.1986593042411187
 21
420.2166272618425182
 31
0.0
  0
LINE
  5
2D7A3
  8
0
 10
5825.2152975295375654
 20
420.2085879093198173
 30
0.0
 11
5825.1974769193220709
 21
420.2107442017438075
 31
0.0
  0
LINE
  5
2D7A4
  8
0
 10
5825.2323714977055715
 20
420.2278315716197881
 30
0.0
 11
5825.2040005737380852
 21
420.2278315716197881
 31
0.0
  0
ARC
  5
2D7A5
  8
0
 10
5825.2042393282081321
 20
420.2226131661760746
 30
0.0
 40
0.0052288185908916
 50
93.2353421748905191
 51
172.9490491431905923
  0
LINE
  5
2D7A6
  8
0
 10
5825.2355987933724464
 20
420.223652462436803
 30
0.0
 11
5825.1999736305497208
 21
420.2256371316789796
 31
0.0
  0
ARC
  5
2D7A7
  8
0
 10
5825.1932494430438965
 20
420.2344866681352187
 30
0.0
 40
0.0034385809367593
 50
294.203742534613923
 51
4.5657289834047088
  0
ARC
  5
2D7A8
  8
0
 10
5825.1975981302666696
 20
420.2349975972409197
 30
0.0
 40
0.0046839761054912
 50
185.8168666611506978
 51
231.1382646414666908
  0
ARC
  5
2D7A9
  8
0
 10
5825.0703987991164468
 20
420.0350717644652718
 30
0.0
 40
0.1911228654381994
 50
75.836386629146574
 51
86.0623328464290012
  0
ARC
  5
2D7AA
  8
0
 10
5825.0511715455422745
 20
419.7557425363434049
 30
0.0
 40
0.4711130527004532
 50
86.0623328464290012
 51
89.4573936226319972
  0
ARC
  5
2D7AB
  8
0
 10
5825.0555738163238857
 20
420.3322484299508233
 30
0.0
 40
0.1095026991183559
 50
270.0309909242710091
 51
277.7628340249675034
  0
ARC
  5
2D7AC
  8
0
 10
5825.0599410266786435
 20
420.2787615546312168
 30
0.0
 40
0.0555066778733346
 50
274.2019484014614932
 51
288.4806632080945974
  0
ARC
  5
2D7AD
  8
0
 10
5825.0500693410203894
 20
420.4721775735067126
 30
0.0
 40
0.2491636828262171
 50
271.2794934084192846
 51
273.2069290365053007
  0
ARC
  5
2D7AE
  8
0
 10
5825.1082630312512265
 20
420.2736167798476004
 30
0.0
 40
0.0091335295056091
 50
196.5850920211944128
 51
339.0559215152047727
  0
ARC
  5
2D7AF
  8
0
 10
5825.1574021085807544
 20
420.2682450955488775
 30
0.0
 40
0.0079803558656683
 50
178.2411465381071025
 51
352.9438173284788718
  0
LINE
  5
2D7B0
  8
0
 10
5825.2179515447778613
 20
420.2614916909585077
 30
0.0
 11
5825.2056948208382892
 21
420.2589118925197909
 31
0.0
  0
ARC
  5
2D7B1
  8
0
 10
5825.1996110183308701
 20
420.2595503074326757
 30
0.0
 40
0.0061172074144076
 50
272.7960002645801865
 51
354.0094873208238937
  0
ARC
  5
2D7B2
  8
0
 10
5825.1996443177731635
 20
420.2588684753263806
 30
0.0
 40
0.0054345626502517
 50
208.0105874492880105
 51
272.7960002645801865
  0
ARC
  5
2D7B3
  8
0
 10
5825.2143134146017474
 20
420.266671649786872
 30
0.0
 40
0.0220499751780328
 50
185.2190120798881026
 51
208.0105874492851967
  0
ARC
  5
2D7B4
  8
0
 10
5825.2514079977872825
 20
420.2557777770264806
 30
0.0
 40
0.0246481178472212
 50
169.7334472734997064
 51
197.5348593106548947
  0
ARC
  5
2D7B5
  8
0
 10
5825.228164104145435
 20
420.2506079982106826
 30
0.0
 40
0.0077326248268152
 50
317.1661858434173951
 51
351.2750490568707846
  0
ARC
  5
2D7B6
  8
0
 10
5825.2320759442072813
 20
420.2469813039551241
 30
0.0
 40
0.0023982641436654
 50
232.6785870181080895
 51
317.1661858434173951
  0
ARC
  5
2D7B7
  8
0
 10
5825.2363485377736652
 20
420.2525855385575824
 30
0.0
 40
0.0094454267830156
 50
206.6313367270720107
 51
232.6785870181080895
  0
LINE
  5
2D7B8
  8
0
 10
5825.2359812656377471
 20
420.2494356758198251
 30
0.0
 11
5825.2646420174478408
 21
420.2531977555934759
 31
0.0
  0
LINE
  5
2D7B9
  8
0
 10
5825.3403182288775497
 20
420.2178185648874091
 30
0.0
 11
5825.3404535922609284
 21
420.2252924139957031
 31
0.0
  0
LINE
  5
2D7BA
  8
0
 10
5825.3122719011680601
 20
420.2029894416590992
 30
0.0
 11
5825.3125022377671485
 21
420.213437303028627
 31
0.0
  0
LINE
  5
2D7BB
  8
0
 10
5825.2494372826658946
 20
420.2436765844913111
 30
0.0
 11
5825.2494372826658946
 21
420.2512019452403251
 31
0.0
  0
ARC
  5
2D7BC
  8
0
 10
5825.2006207974081917
 20
420.2145902328078932
 30
0.0
 40
0.0243528679950625
 50
346.1902862289421137
 51
9.1946287400805193
  0
ARC
  5
2D7BD
  8
0
 10
5825.2160359938889087
 20
420.2108011261557863
 30
0.0
 40
0.008478813321432
 50
308.2362495411026089
 51
346.1902862289421137
  0
ARC
  5
2D7BE
  8
0
 10
5825.2197773525931552
 20
420.2060528918834166
 30
0.0
 40
0.0024336918457486
 50
238.1786756655808972
 51
308.2362495411026089
  0
ARC
  5
2D7BF
  8
0
 10
5825.2222142630953385
 20
420.2099799619165879
 30
0.0
 40
0.0070554244038888
 50
191.3792584316265959
 51
238.1786756655791919
  0
LINE
  5
2D7C0
  8
0
 10
5825.2183409392391695
 20
420.2142634039198015
 30
0.0
 11
5825.224901425637654
 21
420.2148429443196846
 31
0.0
  0
ARC
  5
2D7C1
  8
0
 10
5825.1845404124396737
 20
420.2057151813580163
 30
0.0
 40
0.0123061037002369
 50
318.0339984414735
 51
2.8935950732797959
  0
ARC
  5
2D7C2
  8
0
 10
5825.1893313448108529
 20
420.2014065513828882
 30
0.0
 40
0.0058627097773574
 50
266.9189205777054781
 51
318.0339984414711125
  0
ARC
  5
2D7C3
  8
0
 10
5825.1893313173786737
 20
420.201406041763903
 30
0.0
 40
0.0058621994206727
 50
200.4896932231710025
 51
266.9189205777055918
  0
LINE
  5
2D7C4
  8
0
 10
5825.1968308259383775
 20
420.206336409419805
 30
0.0
 11
5825.1967498519898072
 21
420.2092733303009027
 31
0.0
  0
ARC
  5
2D7C5
  8
0
 10
5825.2209292773595735
 20
420.2207429472936155
 30
0.0
 40
0.0206193167894493
 50
343.6654873966692207
 51
5.447135194607676
  0
ARC
  5
2D7C6
  8
0
 10
5825.2376054230062437
 20
420.2158555951560857
 30
0.0
 40
0.003241743755765
 50
312.7033792169900153
 51
343.6654873966784862
  0
ARC
  5
2D7C7
  8
0
 10
5825.2391785603540484
 20
420.2141510042699224
 30
0.0
 40
0.0009221767263332
 50
224.8743568976551899
 51
312.703379216998826
  0
ARC
  5
2D7C8
  8
0
 10
5825.2428684909664298
 20
420.2178437844279983
 30
0.0
 40
0.0061425393572084
 50
185.8341807091146904
 51
224.9999319787733043
  0
ARC
  5
2D7C9
  8
0
 10
5825.2348033500938982
 20
420.2150184602591025
 30
0.0
 40
0.002943445574587
 50
48.3951141419793132
 51
82.0426038997594844
  0
LINE
  5
2D7CA
  8
0
 10
5825.2355982644394317
 20
420.2236524919197791
 30
0.0
 11
5825.2395015803904244
 21
420.2240239604731187
 31
0.0
  0
LINE
  5
2D7CB
  8
0
 10
5825.2670694609269049
 20
420.2023904591051746
 30
0.0
 11
5825.2666852960683173
 21
420.1901591379535148
 31
0.0
  0
LINE
  5
2D7CC
  8
0
 10
5825.2619319637387889
 20
420.1847863996197816
 30
0.0
 11
5825.23069035489425
 21
420.1912793156911903
 31
0.0
  0
ARC
  5
2D7CD
  8
0
 10
5825.2612084841657634
 20
420.1902155085310824
 30
0.0
 40
0.0054771019949945
 50
277.5904789400714776
 51
359.4102988746918754
  0
LINE
  5
2D7CE
  8
0
 10
5825.2666852960683173
 20
420.1901591379535148
 30
0.0
 11
5825.2403019494950058
 21
420.1956779530632957
 31
0.0
  0
LINE
  5
2D7CF
  8
0
 10
5825.2067032803388429
 20
420.1802583532198128
 30
0.0
 11
5825.2002391508358414
 21
420.1825861466294896
 31
0.0
  0
LINE
  5
2D7D0
  8
0
 10
5825.2008144052133503
 20
420.1751677074885265
 30
0.0
 11
5825.1873652113472417
 21
420.1799479583461903
 31
0.0
  0
LINE
  5
2D7D1
  8
0
 10
5825.206852921664904
 20
420.1841633897684005
 30
0.0
 11
5825.2067032803388429
 21
420.1802583532198128
 31
0.0
  0
ARC
  5
2D7D2
  8
0
 10
5825.2015937351579851
 20
420.1802176337113224
 30
0.0
 40
0.0051097074302024
 50
261.2270372492915271
 51
0.456597701999398
  0
LINE
  5
2D7D3
  8
0
 10
5825.1290572718517069
 20
420.1694360069768095
 30
0.0
 11
5825.1252827099442584
 21
420.1721453977276042
 31
0.0
  0
ARC
  5
2D7D4
  8
0
 10
5825.1312058302210062
 20
420.1741995059030046
 30
0.0
 40
0.005225631548414
 50
245.7224229003334131
 51
348.1917482573134066
  0
LINE
  5
2D7D5
  8
0
 10
5825.2069506375446508
 20
420.2362608038226881
 30
0.0
 11
5825.199793320880417
 21
420.2358620713479809
 31
0.0
  0
ARC
  5
2D7D6
  8
0
 10
5825.1997220994480813
 20
420.2311054486206103
 30
0.0
 40
0.0047571559007542
 50
89.142168127523604
 51
129.7982063550477108
  0
ARC
  5
2D7D7
  8
0
 10
5825.2157577663410848
 20
420.2399148415469199
 30
0.0
 40
0.0234478688527198
 50
180.5662923938953952
 51
193.2944392113654999
  0
ARC
  5
2D7D8
  8
0
 10
5825.1809136556257727
 20
420.2414983600868936
 30
0.0
 40
0.0029337645161936
 50
246.06880976622341
 51
357.5084648079596832
  0
ARC
  5
2D7D9
  8
0
 10
5825.1816266797595745
 20
420.2431050286442087
 30
0.0
 40
0.0046915435890302
 50
186.3284698785276987
 51
246.0688097661758036
  0
ARC
  5
2D7DA
  8
0
 10
5825.158245029918362
 20
420.2492263103376899
 30
0.0
 40
0.0044672093957743
 50
233.1076378243120928
 51
292.1865408910002202
  0
LINE
  5
2D7DB
  8
0
 10
5825.1395061232387889
 20
420.2149199677198226
 30
0.0
 11
5825.1407923109109106
 21
420.2328802442582969
 31
0.0
  0
ARC
  5
2D7DC
  8
0
 10
5825.1555118555734225
 20
420.2439584926246994
 30
0.0
 40
0.0453981545051611
 50
281.9923488843414816
 51
312.1288346936319726
  0
ARC
  5
2D7DD
  8
0
 10
5825.181888251876444
 20
420.2147966728625192
 30
0.0
 40
0.0060773455895931
 50
312.1288346936319726
 51
358.3617777704535001
  0
ARC
  5
2D7DE
  8
0
 10
5825.1839951342117274
 20
420.214736415677919
 30
0.0
 40
0.0039696017469731
 50
358.361777770456797
 51
36.733254882228529
  0
ARC
  5
2D7DF
  8
0
 10
5825.1802627112047048
 20
420.2119509819432892
 30
0.0
 40
0.0086268136372938
 50
36.7332548822259213
 51
63.9080965650569368
  0
ARC
  5
2D7E0
  8
0
 10
5825.0594110099882528
 20
420.4559446526895954
 30
0.0
 40
0.2561720765464888
 50
269.1549849514719881
 51
281.1789620089164146
  0
ARC
  5
2D7E1
  8
0
 10
5825.0968022823562933
 20
420.2667403370920169
 30
0.0
 40
0.063308445215793
 50
281.1789620089164146
 51
295.3970631525098156
  0
ARC
  5
2D7E2
  8
0
 10
5825.1197011668082268
 20
420.2184258332176796
 30
0.0
 40
0.0098421754160952
 50
295.6047563049179985
 51
340.0060262137275799
  0
ARC
  5
2D7E3
  8
0
 10
5825.1104609107323995
 20
420.1898392619169726
 30
0.0
 40
0.0312724589468409
 50
53.7556272933688675
 51
77.6210832330358471
  0
ARC
  5
2D7E4
  8
0
 10
5825.0662362779949035
 20
420.269368058637383
 30
0.0
 40
0.0458052315660833
 50
269.4536405152318821
 51
288.4833340901391807
  0
LINE
  5
2D7E5
  8
0
 10
5825.7327944629387275
 20
420.1486524172523787
 30
0.0
 11
5825.3669221566560736
 21
420.1486524172523787
 31
0.0
  0
LINE
  5
2D7E6
  8
0
 10
5825.7426409196386885
 20
420.1463361570523034
 30
0.0
 11
5825.3549429372869781
 21
420.1463361570523034
 31
0.0
  0
ARC
  5
2D7E7
  8
0
 10
5825.3991541181048888
 20
420.1895202844006008
 30
0.0
 40
0.0602508674882783
 50
35.152910570267899
 51
66.0738763099493696
  0
ARC
  5
2D7E8
  8
0
 10
5825.4322777486877385
 20
420.2144993982223014
 30
0.0
 40
0.018834984800461
 50
321.3403144679564889
 51
31.0362898544100716
  0
ARC
  5
2D7E9
  8
0
 10
5825.3561316901577811
 20
420.2967887773326083
 30
0.0
 40
0.1307701519327757
 50
283.6582707409486943
 51
314.0080132391686902
  0
ARC
  5
2D7EA
  8
0
 10
5825.2231141877391565
 20
420.6992500973416895
 30
0.0
 40
0.5543173275052093
 50
280.3458034348641945
 51
287.197860501044886
  0
ARC
  5
2D7EB
  8
0
 10
5825.1389879915550409
 20
421.130097849667095
 30
0.0
 40
0.9932829652689994
 50
275.7286450743832802
 51
280.6563177810982097
  0
ARC
  5
2D7EC
  8
0
 10
5825.3316201488123625
 20
420.2366138150853772
 30
0.0
 40
0.0438265540919584
 50
309.3212049021548751
 51
352.5160772743270172
  0
ARC
  5
2D7ED
  8
0
 10
5825.2855205171081252
 20
420.2928940495701795
 30
0.0
 40
0.1165770924876539
 50
293.5311046916186228
 51
309.3212049021548751
  0
ARC
  5
2D7EE
  8
0
 10
5825.2027076950644187
 20
420.5054709232505843
 30
0.0
 40
0.3446556466855924
 50
280.4841957416060154
 51
292.0440389378126156
  0
ARC
  5
2D7EF
  8
0
 10
5825.1063102771877311
 20
420.9823400657421075
 30
0.0
 40
0.8311430589065407
 50
275.4293135790467772
 51
281.0367215332504998
  0
ARC
  5
2D7F0
  8
0
 10
5825.0639873255631755
 20
421.3896552221310117
 30
0.0
 40
1.240640575453209
 50
272.2706606814257952
 51
275.5952876498810156
  0
ARC
  5
2D7F1
  8
0
 10
5825.0561206147067423
 20
421.5579813338437134
 30
0.0
 40
1.4091467037113989
 50
270.8137227195114178
 51
272.3191041754914181
  0
ARC
  5
2D7F2
  8
0
 10
5825.0933216643215928
 20
416.3128576498265261
 30
0.0
 40
3.836157600436445
 50
90.2567283185762648
 51
90.5629157482650555
  0
ARC
  5
2D7F3
  8
0
 10
5825.372621098653326
 20
420.1949102595274894
 30
0.0
 40
0.0594421170159591
 50
30.9692364485120208
 51
68.527679333878794
  0
ARC
  5
2D7F4
  8
0
 10
5825.2362791321365876
 20
419.8941841552958181
 30
0.0
 40
0.3895667105914995
 50
66.0563681127471796
 51
77.1334632716019684
  0
ARC
  5
2D7F5
  8
0
 10
5825.237526239797262
 20
420.2129588648722915
 30
0.0
 40
0.0099520301235366
 50
14.2976411711381104
 51
46.9927084096730923
  0
ARC
  5
2D7F6
  8
0
 10
5825.2384698151081466
 20
420.2150679985666102
 30
0.0
 40
0.0087071811257989
 50
335.2785443516860937
 51
2.2945741949946981
  0
ARC
  5
2D7F7
  8
0
 10
5825.221101693718083
 20
420.2274274642477963
 30
0.0
 40
0.0299160489018438
 50
292.2276131175257206
 51
327.6656412868128996
  0
ARC
  5
2D7F8
  8
0
 10
5825.1525578069904441
 20
420.3825262481353775
 30
0.0
 40
0.1994756911356011
 50
279.4701142734976997
 51
293.6002626265956224
  0
ARC
  5
2D7F9
  8
0
 10
5825.076845613635669
 20
420.7831540813273818
 30
0.0
 40
0.6071640066751387
 50
273.379263810684904
 51
280.2971499309467731
  0
ARC
  5
2D7FA
  8
0
 10
5825.0230543205034337
 20
422.1057166923030195
 30
0.0
 40
1.930750143876635
 50
270.9668325269825004
 51
272.6592955909540024
  0
ARC
  5
2D7FB
  8
0
 10
5825.1270045026258231
 20
420.2398029875885754
 30
0.0
 40
0.0089512216266004
 50
205.19982294432549
 51
233.6976676915516009
  0
ARC
  5
2D7FC
  8
0
 10
5825.1238888981761193
 20
420.2355619679328811
 30
0.0
 40
0.0036887850415261
 50
233.6976676915477071
 51
289.5266058956412962
  0
ARC
  5
2D7FD
  8
0
 10
5825.1229641455365709
 20
420.2366955013292227
 30
0.0
 40
0.0050901189899574
 50
295.0811499362728796
 51
339.2937238440292163
  0
ARC
  5
2D7FE
  8
0
 10
5825.1479706508316667
 20
420.2346303049869789
 30
0.0
 40
0.0124015184123306
 50
184.1292825435207021
 51
203.6987657522138875
  0
ARC
  5
2D7FF
  8
0
 10
5825.1412037292593595
 20
420.2316600079528826
 30
0.0
 40
0.005011397166042
 50
203.6987657522109885
 51
221.143905049538688
  0
ARC
  5
2D800
  8
0
 10
5825.137967071276762
 20
420.2288321206488035
 30
0.0
 40
0.0007133858230524
 50
221.1439050495779099
 51
326.235684976008713
  0
ARC
  5
2D801
  8
0
 10
5825.1307424384913247
 20
420.2330914293415844
 30
0.0
 40
0.0090990505425635
 50
329.2242700890299147
 51
359.6940404185310172
  0
LINE
  5
2D802
  8
0
 10
5825.1802552861327058
 20
420.221942846460081
 30
0.0
 11
5825.1439132694886212
 21
420.2229411687617926
 31
0.0
  0
ARC
  5
2D803
  8
0
 10
5825.1437910271270084
 20
420.2184911690754916
 30
0.0
 40
0.0044516783803388
 50
88.426469457994898
 51
150.4292492488281141
  0
LINE
  5
2D804
  8
0
 10
5825.1397069660233683
 20
420.2177245288560812
 30
0.0
 11
5825.163944713206547
 21
420.2148151203521138
 31
0.0
  0
ARC
  5
2D805
  8
0
 10
5825.1740244885913853
 20
420.2180415132859252
 30
0.0
 40
0.0105835477572934
 50
197.7491306830634983
 51
214.3937480147799874
  0
ARC
  5
2D806
  8
0
 10
5825.1700046064506751
 20
420.2151886599986028
 30
0.0
 40
0.0056555442842446
 50
213.5491566967849906
 51
241.6559574938092965
  0
ARC
  5
2D807
  8
0
 10
5825.1687387456549914
 20
420.2128988788596757
 30
0.0
 40
0.0030394125074773
 50
242.1647972934939048
 51
302.2394998088440161
  0
ARC
  5
2D808
  8
0
 10
5825.1656739315312734
 20
420.2165177953277748
 30
0.0
 40
0.0077635936003254
 50
307.1292079523392999
 51
345.7984928726947942
  0
ARC
  5
2D809
  8
0
 10
5825.1536416093722437
 20
420.2204887820890917
 30
0.0
 40
0.0204221482918645
 50
343.2791071359681041
 51
4.5664879566356671
  0
LINE
  5
2D80A
  8
0
 10
5825.1432176937169061
 20
420.2173031142366995
 30
0.0
 11
5825.1431893548879088
 21
420.2102600384617972
 31
0.0
  0
ARC
  5
2D80B
  8
0
 10
5825.130082945031063
 20
420.2103127739874822
 30
0.0
 40
0.01310651595151
 50
338.5934001074778052
 51
359.7694634315873259
  0
ARC
  5
2D80C
  8
0
 10
5825.1323598477192718
 20
420.2094201630105772
 30
0.0
 40
0.010660899422114
 50
301.1711846128026764
 51
338.593400107480818
  0
ARC
  5
2D80D
  8
0
 10
5825.1345485193623972
 20
420.2058021313408744
 30
0.0
 40
0.0064323728791408
 50
249.319807603249501
 51
301.1711846128043248
  0
ARC
  5
2D80E
  8
0
 10
5825.135314358191863
 20
420.2078309859277283
 30
0.0
 40
0.0086009576817745
 50
209.8653217477460089
 51
249.319807603249501
  0
ARC
  5
2D80F
  8
0
 10
5825.1203522311034249
 20
420.2233473544804951
 30
0.0
 40
0.0083344419223634
 50
196.3005363506667038
 51
228.9445109378829954
  0
ARC
  5
2D810
  8
0
 10
5825.1175511257251856
 20
420.2201313470612263
 30
0.0
 40
0.0040695978384493
 50
228.9445109378808922
 51
288.9302602662385766
  0
ARC
  5
2D811
  8
0
 10
5825.1161140066087682
 20
420.221229973935408
 30
0.0
 40
0.005664532614834
 50
299.128983264800695
 51
338.3860529219069235
  0
ARC
  5
2D812
  8
0
 10
5825.0595455379361738
 20
420.2210286319960915
 30
0.0
 40
0.0018212928098212
 50
52.0918341277880685
 51
81.1615264515548063
  0
ARC
  5
2D813
  8
0
 10
5825.1871087776053173
 20
420.3761305600881997
 30
0.0
 40
0.1990001464922747
 50
230.5505102901846044
 51
233.8310701159433052
  0
ARC
  5
2D814
  8
0
 10
5825.072963116862411
 20
420.2199927073572781
 30
0.0
 40
0.0055879935079361
 50
233.8310701159452094
 51
296.0272902188273747
  0
ARC
  5
2D815
  8
0
 10
5825.0722478299139766
 20
420.2200523717933152
 30
0.0
 40
0.005987305623212
 50
301.9380189768057221
 51
359.9301532356946041
  0
ARC
  5
2D816
  8
0
 10
5834.4407375038717873
 20
419.8194359228085091
 30
0.0
 40
9.3710692224284582
 50
177.5190864431259001
 51
177.549883582007709
  0
LINE
  5
2D817
  8
0
 10
5825.0631659958853561
 20
420.2204409805926275
 30
0.0
 11
5825.0633768677871558
 21
420.2182726607828727
 31
0.0
  0
ARC
  5
2D818
  8
0
 10
5825.0729819834441514
 20
420.2192067706848775
 30
0.0
 40
0.0096504304617227
 50
185.5546209754594997
 51
219.776871222734087
  0
ARC
  5
2D819
  8
0
 10
5825.0739240536913712
 20
420.2199910299663088
 30
0.0
 40
0.0108762195830559
 50
219.776871222734087
 51
266.745792279696218
  0
ARC
  5
2D81A
  8
0
 10
5825.0739089831777164
 20
420.2197259737067156
 30
0.0
 40
0.0106107352310794
 50
266.745792279696218
 51
310.5461058756274042
  0
ARC
  5
2D81B
  8
0
 10
5825.073555748544095
 20
420.2201388850384092
 30
0.0
 40
0.0111541231901887
 50
310.5461058756274042
 51
356.5109253667960729
  0
ARC
  5
2D81C
  8
0
 10
5824.9290128232969437
 20
420.2289518443188854
 30
0.0
 40
0.1559654676714727
 50
356.5109253667960729
 51
358.2917057373658736
  0
LINE
  5
2D81D
  8
0
 10
5825.0780840959514535
 20
420.2251216073843807
 30
0.0
 11
5825.1138080156879369
 21
420.2208334002618244
 31
0.0
  0
LINE
  5
2D81E
  8
0
 10
5825.1138080156879369
 20
420.2208334002618244
 30
0.0
 11
5825.1146025040188761
 21
420.2210125673196899
 31
0.0
  0
ARC
  5
2D81F
  8
0
 10
5825.0556154217665608
 20
420.17231805723452
 30
0.0
 40
0.0053785421332337
 50
210.4967247664827994
 51
329.4979966098642876
  0
ARC
  5
2D820
  8
0
 10
5825.05563537611215
 20
420.2756608719500946
 30
0.0
 40
0.0097442188949875
 50
204.8944726097176101
 51
335.1051144013445082
  0
ENDSEC
  0
EOF
