  0
SECTION
  2
HEADER
  9
$ACADVER
  1
AC1009
  9
$INSBASE
 10
3627.0801511674708308
 20
320.1963705923765815
 30
0.0
  9
$EXTMIN
 10
3626.1549561694719159
 20
320.1906545293376212
 30
0.0
  9
$EXTMAX
 10
3628.00534616547111
 20
326.1718187681534005
 30
0.0
  9
$LIMMIN
 10
0.0
 20
0.0
  9
$LIMMAX
 10
11.6929133858000007
 20
8.2677165353999982
  9
$ORTHOMODE
 70
     0
  9
$REGENMODE
 70
     1
  9
$FILLMODE
 70
     1
  9
$QTEXTMODE
 70
     0
  9
$MIRRTEXT
 70
     0
  9
$DRAGMODE
 70
     2
  9
$LTSCALE
 40
0.6431102362
  9
$OSMODE
 70
  4095
  9
$ATTMODE
 70
     1
  9
$TEXTSIZE
 40
0.2
  9
$TRACEWID
 40
0.05
  9
$TEXTSTYLE
  7
STANDARD
  9
$CLAYER
  8
0
  9
$CELTYPE
  6
BYLAYER
  9
$CECOLOR
 62
   256
  9
$DIMSCALE
 40
1.0
  9
$DIMASZ
 40
0.1875
  9
$DIMEXO
 40
0.0625
  9
$DIMDLI
 40
0.4443307087
  9
$DIMRND
 40
0.0
  9
$DIMDLE
 40
0.0
  9
$DIMEXE
 40
0.125
  9
$DIMTP
 40
0.01
  9
$DIMTM
 40
0.01
  9
$DIMTXT
 40
2.0
  9
$DIMCEN
 40
0.1052362205
  9
$DIMTSZ
 40
0.0
  9
$DIMTOL
 70
     1
  9
$DIMLIM
 70
     0
  9
$DIMTIH
 70
     1
  9
$DIMTOH
 70
     1
  9
$DIMSE1
 70
     0
  9
$DIMSE2
 70
     0
  9
$DIMTAD
 70
     0
  9
$DIMZIN
 70
     0
  9
$DIMBLK
  1

  9
$DIMASO
 70
     1
  9
$DIMSHO
 70
     1
  9
$DIMPOST
  1
\X
  9
$DIMAPOST
  1

  9
$DIMALT
 70
     1
  9
$DIMALTD
 70
     2
  9
$DIMALTF
 40
25.3999999999999986
  9
$DIMLFAC
 40
1.0
  9
$DIMTOFL
 70
     0
  9
$DIMTVP
 40
0.0
  9
$DIMTIX
 70
     0
  9
$DIMSOXD
 70
     0
  9
$DIMSAH
 70
     0
  9
$DIMBLK1
  1

  9
$DIMBLK2
  1

  9
$DIMSTYLE
  2
STANDARD
  9
$DIMCLRD
 70
     0
  9
$DIMCLRE
 70
     0
  9
$DIMCLRT
 70
     0
  9
$DIMTFAC
 40
1.0
  9
$DIMGAP
 40
0.09
  9
$LUNITS
 70
     2
  9
$LUPREC
 70
     4
  9
$SKETCHINC
 40
0.1
  9
$FILLETRAD
 40
0.0
  9
$AUNITS
 70
     0
  9
$AUPREC
 70
     0
  9
$MENU
  1
.
  9
$ELEVATION
 40
0.0
  9
$PELEVATION
 40
0.0
  9
$THICKNESS
 40
0.0
  9
$LIMCHECK
 70
     0
  9
$BLIPMODE
 70
     0
  9
$CHAMFERA
 40
0.0
  9
$CHAMFERB
 40
0.0
  9
$SKPOLY
 70
     0
  9
$TDCREATE
 40
2458060.468368056230247
  9
$TDUPDATE
 40
2460154.4720254628919065
  9
$TDINDWG
 40
0.7621945602
  9
$TDUSRTIMER
 40
0.7621945602
  9
$USRTIMER
 70
     1
  9
$ANGBASE
 50
0.0
  9
$ANGDIR
 70
     0
  9
$PDMODE
 70
     0
  9
$PDSIZE
 40
0.3125
  9
$PLINEWID
 40
0.0
  9
$COORDS
 70
     1
  9
$SPLFRAME
 70
     0
  9
$SPLINETYPE
 70
     6
  9
$SPLINESEGS
 70
     8
  9
$ATTDIA
 70
     1
  9
$ATTREQ
 70
     1
  9
$HANDLING
 70
     1
  9
$HANDSEED
  5
EF56
  9
$SURFTAB1
 70
     6
  9
$SURFTAB2
 70
     6
  9
$SURFTYPE
 70
     6
  9
$SURFU
 70
     6
  9
$SURFV
 70
     6
  9
$UCSNAME
  2

  9
$UCSORG
 10
0.0
 20
0.0
 30
0.0
  9
$UCSXDIR
 10
1.0
 20
0.0
 30
0.0
  9
$UCSYDIR
 10
0.0
 20
1.0
 30
0.0
  9
$PUCSNAME
  2

  9
$PUCSORG
 10
0.0
 20
0.0
 30
0.0
  9
$PUCSXDIR
 10
1.0
 20
0.0
 30
0.0
  9
$PUCSYDIR
 10
0.0
 20
1.0
 30
0.0
  9
$USERI1
 70
     0
  9
$USERI2
 70
     0
  9
$USERI3
 70
     0
  9
$USERI4
 70
     0
  9
$USERI5
 70
     0
  9
$USERR1
 40
0.0
  9
$USERR2
 40
0.0
  9
$USERR3
 40
0.0
  9
$USERR4
 40
0.0
  9
$USERR5
 40
0.0
  9
$WORLDVIEW
 70
     1
  9
$SHADEDGE
 70
     3
  9
$SHADEDIF
 70
    70
  9
$TILEMODE
 70
     1
  9
$MAXACTVP
 70
    64
  9
$PLIMCHECK
 70
     0
  9
$PEXTMIN
 10
1.0000000000000000E+20
 20
1.0000000000000000E+20
 30
1.0000000000000000E+20
  9
$PEXTMAX
 10
-1.0000000000000000E+20
 20
-1.0000000000000000E+20
 30
-1.0000000000000000E+20
  9
$PLIMMIN
 10
0.0
 20
0.0
  9
$PLIMMAX
 10
12.0
 20
9.0
  9
$UNITMODE
 70
     0
  9
$VISRETAIN
 70
     1
  9
$PLINEGEN
 70
     0
  9
$PSLTSCALE
 70
     1
  0
ENDSEC
  0
SECTION
  2
TABLES
  0
TABLE
  2
VPORT
 70
     1
  0
VPORT
  2
*ACTIVE
 70
     0
 10
0.0
 20
0.0
 11
1.0
 21
1.0
 12
46.3872800737210511
 22
0.7571186067533234
 13
0.0
 23
0.0
 14
1.0
 24
1.0
 15
0.0
 25
0.0
 16
0.0
 26
0.0
 36
24.2172351446446505
 17
3580.69287109375
 27
322.4241180419921875
 37
0.0
 40
6.0283219069274496
 41
2.498684210526315
 42
50.0
 43
0.0
 44
0.0
 50
0.0
 51
0.0
 71
     0
 72
   100
 73
     1
 74
     1
 75
     0
 76
     0
 77
     0
 78
     0
  0
ENDTAB
  0
TABLE
  2
LTYPE
 70
     2
  0
LTYPE
  2
CONTINUOUS
 70
     0
  3
Solid line
 72
    65
 73
     0
 40
0.0
  0
LTYPE
  2
PHANTOM2
 70
     0
  3
___ _ _ ___ _ _ ___ _ _ ___ _ _
 72
    65
 73
     6
 40
1.25
 49
0.625
 49
-0.125
 49
0.125
 49
-0.125
 49
0.125
 49
-0.125
  0
ENDTAB
  0
TABLE
  2
LAYER
 70
     2
  0
LAYER
  2
0
 70
     0
 62
   255
  6
CONTINUOUS
  0
LAYER
  2
DEFPOINTS
 70
     0
 62
     7
  6
CONTINUOUS
  0
ENDTAB
  0
TABLE
  2
STYLE
 70
     1
  0
STYLE
  2
STANDARD
 70
     0
 40
0.0
 41
0.8
 50
0.0
 71
     0
 42
0.2
  3
txt
  4

  0
ENDTAB
  0
TABLE
  2
VIEW
 70
     0
  0
ENDTAB
  0
TABLE
  2
UCS
 70
     0
  0
ENDTAB
  0
TABLE
  2
APPID
 70
     9
  0
APPID
  2
ACAD
 70
     0
  0
APPID
  2
ACAD_MLEADERVER
 70
     0
  0
APPID
  2
ACAD_EXEMPT_FROM_CAD_STANDARDS
 70
     0
  0
APPID
  2
ACAD_NAV_VCDISPLAY
 70
     0
  0
APPID
  2
ACAECLAYERSTANDARD
 70
     0
  0
APPID
  2
ACCMTRANSPARENCY
 70
     0
  0
APPID
  2
ACAD_DSTYLE_DIMJAG
 70
     0
  0
APPID
  2
ACAD_DSTYLE_DIMTALN
 70
     0
  0
APPID
  2
ACDBATTR
 70
     0
  0
ENDTAB
  0
TABLE
  2
DIMSTYLE
 70
     1
  0
DIMSTYLE
  2
STANDARD
 70
     0
  3

  4

  5

  6

  7

 40
1.0
 41
0.1875
 42
0.0625
 43
0.38
 44
0.125
 45
0.0
 46
0.0
 47
0.01
 48
0.01
140
0.15625
141
0.09
142
0.0
143
25.3999999999999986
144
1.0
145
0.0
146
1.0
147
0.09
 71
     1
 72
     0
 73
     1
 74
     1
 75
     0
 76
     0
 77
     0
 78
     4
170
     0
171
     2
172
     0
173
     0
174
     0
175
     0
176
     0
177
     0
178
     0
  0
ENDTAB
  0
ENDSEC
  0
SECTION
  2
BLOCKS
  0
BLOCK
  8
0
  2
$MODEL_SPACE
 70
     0
 10
0.0
 20
0.0
 30
0.0
  3
$MODEL_SPACE
  1

  0
ENDBLK
  5
21
  8
0
  0
BLOCK
 67
     1
  8
0
  2
$PAPER_SPACE
 70
     0
 10
0.0
 20
0.0
 30
0.0
  3
$PAPER_SPACE
  1

  0
ENDBLK
  5
1D
 67
     1
  8
0
  0
BLOCK
  8
0
  2
_FILLED
 70
     0
 10
0.0
 20
0.0
 30
0.0
  3
_FILLED
  1

  0
SOLID
  5
D26B
  8
0
  6
BYBLOCK
 62
     0
 10
0.0
 20
0.0
 30
0.0
 11
-1.0
 21
0.1666666667
 31
0.0
 12
-1.0
 22
-0.1666666667
 32
0.0
 13
-1.0
 23
-0.1666666667
 33
0.0
  0
ENDBLK
  5
D26C
  8
0
  6
BYBLOCK
 62
     0
  0
ENDSEC
  0
SECTION
  2
ENTITIES
  0
ATTDEF
  5
3930
  8
DEFPOINTS
 10
3627.0788615487567768
 20
320.1939878626708946
 30
0.0
 40
0.001
  1
K-26040T-B4
  3

  2
MODELNUMBER
 70
     0
1001
ACDBATTR
1070
     0
1070
     1
  0
ATTDEF
  5
3931
  8
DEFPOINTS
 10
3627.0788615487567768
 20
320.1923211960041726
 30
0.0
 40
0.001
  1
BEAM
  3

  2
TRADENAME
 70
     0
1001
ACDBATTR
1070
     0
1070
     1
  0
ATTDEF
  5
3932
  8
DEFPOINTS
 10
3627.0788615487567768
 20
320.1906545293376212
 30
0.0
 40
0.001
  1
BATHROOM SINK FAUCET
  3

  2
PRODUCT
 70
     0
1001
ACDBATTR
1070
     0
1070
     1
  0
LINE
  5
EC19
  8
0
 10
3626.1647561694721844
 20
320.1963705923765815
 30
0.0
 11
3627.9955461654722058
 21
320.1963705923765815
 31
0.0
  0
ARC
  5
EC1A
  8
0
 10
3627.9955461654722058
 20
320.2061705923766226
 30
0.0
 40
0.0098
 50
270.0
 51
0.0
  0
ARC
  5
EC1B
  8
0
 10
3626.1647561694721844
 20
320.2061705923766226
 30
0.0
 40
0.0098
 50
180.0
 51
270.0
  0
LINE
  5
EC1C
  8
0
 10
3626.1549561694719159
 20
320.2297187131720761
 30
0.0
 11
3626.1549561694719159
 21
320.2061705923766226
 31
0.0
  0
LINE
  5
EC1D
  8
0
 10
3626.1567568240870969
 20
320.2414936537966241
 30
0.0
 11
3626.161411356571989
 21
320.2563563507766276
 31
0.0
  0
ARC
  5
EC1E
  8
0
 10
3624.3629519607929979
 20
320.8388580589441972
 30
0.0
 40
1.890440276306165
 50
342.0534172937540802
 51
359.8263231516867222
  0
LINE
  5
EC1F
  8
0
 10
3626.2533835520721368
 20
320.8331277030766273
 30
0.0
 11
3626.2531678141608609
 21
325.1282575680131117
 31
0.0
  0
LINE
  5
EC20
  8
0
 10
3626.2531678141608609
 20
325.2163213718632164
 30
0.0
 11
3626.2531678141608609
 21
326.1290676257157202
 31
0.0
  0
ARC
  5
EC21
  8
0
 10
3626.1943561694720302
 20
320.2297187131720761
 30
0.0
 40
0.0394
 50
162.6110735323462961
 51
179.9999999999967031
  0
ARC
  5
EC22
  8
0
 10
3627.1068116456171992
 20
311.3682236122737095
 30
0.0
 40
14.8036195530071399
 50
90.1040214921498688
 51
91.6028171954033468
  0
ARC
  5
EC23
  8
0
 10
3627.8727419897390973
 20
283.995714709864103
 30
0.0
 40
42.186842389345081
 50
91.6028171954033468
 51
91.9761762487561754
  0
ARC
  5
EC24
  8
0
 10
3625.1807064865370194
 20
362.0156306731157088
 30
0.0
 40
35.8795033818215785
 50
271.7587032089285799
 51
271.9761762487560759
  0
ARC
  5
EC25
  8
0
 10
3626.2847447271169585
 20
326.0591012514287854
 30
0.0
 40
0.0939716864742889
 50
91.758703208928722
 51
97.1450618655807148
  0
ARC
  5
EC26
  8
0
 10
3626.2776755165809845
 20
326.1284171488517813
 30
0.0
 40
0.0243678536484784
 50
100.9270946865923975
 51
143.8934192288595
  0
ARC
  5
EC27
  8
0
 10
3626.278364883847189
 20
326.1279100337441719
 30
0.0
 40
0.025223646444098
 50
143.8855304964272079
 51
177.3695936980757892
  0
LINE
  5
EC28
  8
0
 10
3626.296530981558135
 20
326.1534821231131218
 30
0.0
 11
3627.8633398775650676
 21
326.1534821231131218
 31
0.0
  0
LINE
  5
EC29
  8
0
 10
3626.2531663941567786
 20
325.930888644561378
 30
0.0
 11
3626.3967563291621445
 21
325.9921199204130744
 31
0.0
  0
ARC
  5
EC2A
  8
0
 10
3627.0771576740380624
 20
297.1377571978579795
 30
0.0
 40
28.8690116858022705
 50
89.994484765904545
 51
90.7189319982329465
  0
ARC
  5
EC2B
  8
0
 10
3626.8346772557270015
 20
316.4613865185187933
 30
0.0
 40
9.5438610557149506
 50
90.7189319982329465
 51
92.1891935879972948
  0
ARC
  5
EC2C
  8
0
 10
3626.5009503518640486
 20
325.1914674558402112
 30
0.0
 40
0.8074037177234941
 50
92.1891935879972948
 51
97.4145967872011056
  0
ARC
  5
EC2D
  8
0
 10
3626.2951937418088164
 20
325.9345537911282236
 30
0.0
 40
0.0270175134498742
 50
174.0568336722978131
 51
250.385329078218092
  0
ARC
  5
EC2E
  8
0
 10
3627.0888457424130138
 20
330.9460237338618072
 30
0.0
 40
5.105629222307603
 50
264.4201809341603848
 51
269.9000077057092994
  0
ARC
  5
EC2F
  8
0
 10
3626.9796520873242116
 20
329.8283271781472763
 30
0.0
 40
3.9826114820346992
 50
261.981535500919108
 51
264.4201809341603848
  0
ARC
  5
EC30
  8
0
 10
3626.7000125241888782
 20
327.8432313516283898
 30
0.0
 40
1.977916062342963
 50
257.9213166757849081
 51
261.9815396281960034
  0
ARC
  5
EC31
  8
0
 10
3627.0797316024568318
 20
325.6649101908283228
 30
0.0
 40
0.1318293483579128
 50
89.9114124615337857
 51
168.608670498219908
  0
ARC
  5
EC32
  8
0
 10
3627.0774895494541852
 20
325.6653619149431051
 30
0.0
 40
0.1295422418136804
 50
168.608670498219908
 51
241.3481301443576115
  0
ARC
  5
EC33
  8
0
 10
3627.0810326708219691
 20
325.6718464844237815
 30
0.0
 40
0.1369316497993835
 50
241.3481301443576115
 51
269.5408806784943749
  0
LINE
  5
EC34
  8
0
 10
3626.2654613345748658
 20
325.2069977255130766
 30
0.0
 11
3627.8944095245469725
 21
325.2069977255130766
 31
0.0
  0
LINE
  5
EC35
  8
0
 10
3626.2531678141608609
 20
325.1282575680131117
 30
0.0
 11
3627.9067030449609774
 21
325.1282575680131117
 31
0.0
  0
ARC
  5
EC36
  8
0
 10
3626.26229033776508
 20
325.2163651851860209
 30
0.0
 40
0.0091226288153886
 50
180.2751759592414942
 51
209.4536844073965938
  0
ARC
  5
EC37
  8
0
 10
3626.2597541309478402
 20
325.2149329735954097
 30
0.0
 40
0.0062099710838889
 50
209.4536844073965938
 51
230.5568017752106016
  0
ARC
  5
EC38
  8
0
 10
3626.2631118509730186
 20
325.2190144510096275
 30
0.0
 40
0.0114951145682876
 50
230.5568017752106016
 51
253.5569923589667951
  0
ARC
  5
EC39
  8
0
 10
3626.2670762501629724
 20
325.2324470894814112
 30
0.0
 40
0.0255005505576325
 50
253.5569923589667951
 51
266.3691055787762139
  0
ARC
  5
EC3A
  8
0
 10
3627.1858124810610207
 20
325.0086562698131161
 30
0.0
 40
0.8661417322999998
 50
166.7621351245041978
 51
172.0629436104181877
  0
ARC
  5
EC3B
  8
0
 10
3641.3651102408448423
 20
325.7386668584413769
 30
0.0
 40
15.1289689911746592
 50
182.7183687168347888
 51
183.9260883646672937
  0
ARC
  5
EC3C
  8
0
 10
3626.7993210652689413
 20
324.7289292350095025
 30
0.0
 40
0.5283221209583079
 50
182.8355889996861094
 51
190.2021744044579066
  0
ARC
  5
EC3D
  8
0
 10
3628.6480417502680211
 20
325.0616390203493893
 30
0.0
 40
2.4067427267889498
 50
190.2021744044579066
 51
191.762098750988514
  0
ARC
  5
EC3E
  8
0
 10
3626.4429908483512008
 20
324.6025019816852932
 30
0.0
 40
0.1543981038857534
 50
191.762098750988514
 51
222.7473117388585138
  0
ARC
  5
EC3F
  8
0
 10
3626.425424571395979
 20
324.5862654106916239
 30
0.0
 40
0.1304773947896989
 50
222.7473117388585138
 51
256.9947781503497026
  0
ARC
  5
EC40
  8
0
 10
3629.8490556696560816
 20
331.9232540632730775
 30
0.0
 40
8.2241255873404118
 50
245.1741562293192942
 51
246.0198170495573891
  0
ARC
  5
EC41
  8
0
 10
3627.0799366365140486
 20
303.9997529902170754
 30
0.0
 40
20.4172924242950913
 50
89.9999807354032981
 51
91.1155234868332542
  0
ARC
  5
EC42
  8
0
 10
3627.0752873123378777
 20
304.238522494598385
 30
0.0
 40
20.1784776583407499
 50
91.1155234866769064
 51
91.6149696002304239
  0
ARC
  5
EC43
  8
0
 10
3626.5074681972041617
 20
324.3782344611880717
 30
0.0
 40
0.0307627346898354
 50
91.6149696002304239
 51
181.768843281054103
  0
ARC
  5
EC44
  8
0
 10
3603.4987734200121849
 20
323.6676810785294265
 30
0.0
 40
22.9889010651917509
 50
0.4864592937643541
 51
1.768843281057378
  0
ARC
  5
EC45
  8
0
 10
3626.5171790120139121
 20
323.8631193200586722
 30
0.0
 40
0.0303341980436683
 50
180.4864592937643124
 51
251.9571814725458125
  0
ARC
  5
EC46
  8
0
 10
3626.6763422087337858
 20
324.0891365121389072
 30
0.0
 40
0.3055576130512546
 50
236.5202380129748008
 51
255.1893161075942089
  0
ARC
  5
EC47
  8
0
 10
3627.067475070843102
 20
301.7301908664136931
 30
0.0
 40
22.1171504763271116
 50
89.9677207059572055
 51
91.1550671622345448
  0
ARC
  5
EC48
  8
0
 10
3626.6498370406670801
 20
322.4438389589287226
 30
0.0
 40
1.3992925072994811
 50
91.1550671622345448
 51
95.1245572518219404
  0
ARC
  5
EC49
  8
0
 10
3626.5326715424289432
 20
323.7503280917366055
 30
0.0
 40
0.0875602144428751
 50
95.1245572518219404
 51
106.5132579542432012
  0
ARC
  5
EC4A
  8
0
 10
4872.8755725709579565
 20
-2564.7236767271310782
 30
0.0
 40
3145.9815187108888495
 50
113.3394457770230019
 51
113.3418681521379057
  0
ARC
  5
EC4B
  8
0
 10
3698.4436186711200207
 20
319.4620978386735146
 30
0.0
 40
72.281681106020045
 50
176.745331880618096
 51
177.1210201357384904
  0
ARC
  5
EC4C
  8
0
 10
3626.967597613172984
 20
323.5266426927784096
 30
0.0
 40
0.6901864216155298
 50
166.4264757335745912
 51
176.745331880618096
  0
ARC
  5
EC4D
  8
0
 10
3626.4626560817350764
 20
323.6485539491412169
 30
0.0
 40
0.1707364195949652
 50
149.8008974407682103
 51
166.4264757335745912
  0
ARC
  5
EC4E
  8
0
 10
3626.3884461112088502
 20
323.6836070393778186
 30
0.0
 40
0.0892435995161782
 50
124.1920102671996062
 51
145.2813582699872086
  0
ARC
  5
EC4F
  8
0
 10
3626.6237209280120624
 20
323.2564599834424257
 30
0.0
 40
0.5765718749075524
 50
114.3863065642153032
 51
119.6724710964211056
  0
ARC
  5
EC50
  8
0
 10
3627.0788446200458566
 20
314.7462109461283148
 30
0.0
 40
9.0668424966072365
 50
89.9892140212633649
 51
90.8176963751457862
  0
ARC
  5
EC51
  8
0
 10
3627.0675058404399351
 20
315.5406624424854272
 30
0.0
 40
8.2723100882141178
 50
90.8176963751457862
 51
91.2957189311454158
  0
ARC
  5
EC52
  8
0
 10
3627.0874559421949925
 20
314.6586333717684738
 30
0.0
 40
9.1545647499472427
 50
91.2957189311454158
 51
91.6333290826420068
  0
ARC
  5
EC53
  8
0
 10
3627.0724585618509082
 20
315.1845860584085131
 30
0.0
 40
8.628398283891995
 50
91.6333290826420068
 51
91.9488242112905283
  0
ARC
  5
EC54
  8
0
 10
3627.0768039653798951
 20
315.0568796904615283
 30
0.0
 40
8.7561785599367337
 50
91.9488242112905283
 51
92.1656213586493607
  0
ARC
  5
EC55
  8
0
 10
3626.9653252732259716
 20
318.0048634523878945
 30
0.0
 40
5.8060877546586172
 50
92.1656213586493607
 51
92.9976483195933952
  0
ARC
  5
EC56
  8
0
 10
3626.6988583507481962
 20
323.0933513465428177
 30
0.0
 40
0.7106276508273179
 50
92.9976483195933952
 51
97.2597835590161566
  0
ARC
  5
EC57
  8
0
 10
3626.6136910940640519
 20
323.7619087718018136
 30
0.0
 40
0.036667346002207
 50
97.2597835590161566
 51
112.3068355255570054
  0
ARC
  5
EC58
  8
0
 10
3626.6008732656091524
 20
323.7931512496388109
 30
0.0
 40
0.0028976976816478
 50
112.3068355255570054
 51
146.0331453476067907
  0
ARC
  5
EC59
  8
0
 10
3626.5996946161180858
 20
323.7939452670902938
 30
0.0
 40
0.001476543806034
 50
146.0331453476040906
 51
230.6683394133883098
  0
ARC
  5
EC5A
  8
0
 10
3626.6502844495580575
 20
323.8556843290252232
 30
0.0
 40
0.0812953574787017
 50
230.6683394133883098
 51
250.0049179104036057
  0
ARC
  5
EC5B
  8
0
 10
3626.8599752823151903
 20
324.3340291426179078
 30
0.0
 40
0.6034378907564426
 50
246.8238142161852977
 51
251.9550187962657901
  0
ARC
  5
EC5C
  8
0
 10
3627.0439297809512027
 20
324.9070070229146268
 30
0.0
 40
1.2052182268873839
 50
252.0777292722673053
 51
261.1036038850244836
  0
ARC
  5
EC5D
  8
0
 10
3627.0801081575009448
 20
325.1093535084489758
 30
0.0
 40
1.4107323451028251
 50
260.9228456809797763
 51
270.0179112758501105
  0
ARC
  5
EC5E
  8
0
 10
3627.0842194140859647
 20
324.4921443445260252
 30
0.0
 40
0.7374066707633764
 50
266.1780465759885033
 51
269.6652791119595918
  0
ARC
  5
EC5F
  8
0
 10
3627.0797928409929227
 20
324.3716464976843099
 30
0.0
 40
0.6168923456009371
 50
256.9629302062950273
 51
265.8422716440904878
  0
ARC
  5
EC60
  8
0
 10
3627.0781224499778546
 20
324.3644325365876284
 30
0.0
 40
0.6094875200898614
 50
245.544221506689496
 51
256.9629302062950273
  0
ARC
  5
EC61
  8
0
 10
3627.0799118689951683
 20
324.3416205905961078
 30
0.0
 40
0.6185024531620757
 50
265.1304475528078797
 51
269.9999678923996953
  0
ARC
  5
EC62
  8
0
 10
3627.0797131843369243
 20
324.3392884728144168
 30
0.0
 40
0.6161618872174119
 50
254.206138122266708
 51
265.1304475528078797
  0
ARC
  5
EC63
  8
0
 10
3627.0769500675000927
 20
324.3295198305978033
 30
0.0
 40
0.606009981711202
 50
245.2897643966911119
 51
254.206138122266708
  0
LINE
  5
EC64
  8
0
 10
3627.071757712084036
 20
323.7096866377600008
 30
0.0
 11
3627.061914533629988
 21
323.708823217866609
 31
0.0
  0
LINE
  5
EC65
  8
0
 10
3627.061914533629988
 20
323.708823217866609
 30
0.0
 11
3627.0420364556089226
 21
323.7097680046034043
 31
0.0
  0
LINE
  5
EC66
  8
0
 10
3627.0420364556089226
 20
323.7097680046034043
 30
0.0
 11
3627.0323876333759472
 21
323.7115061143800858
 31
0.0
  0
LINE
  5
EC67
  8
0
 10
3627.0323876333759472
 20
323.7115061143800858
 30
0.0
 11
3627.0422301531261837
 21
323.7123903214023244
 31
0.0
  0
LINE
  5
EC68
  8
0
 10
3627.0422301531261837
 20
323.7123903214023244
 30
0.0
 11
3627.0619151924129255
 21
323.7114870908284274
 31
0.0
  0
LINE
  5
EC69
  8
0
 10
3627.0619151924129255
 20
323.7114870908284274
 30
0.0
 11
3627.071757712084036
 21
323.7096866377600008
 31
0.0
  0
LINE
  5
EC6A
  8
0
 10
3627.0717577121090471
 20
323.716711584203324
 30
0.0
 11
3627.0323876333559383
 21
323.7184976347293173
 31
0.0
  0
LINE
  5
EC6B
  8
0
 10
3627.0323876333559383
 20
323.7184976347293173
 30
0.0
 11
3627.0422301531089033
 21
323.7151094347530034
 31
0.0
  0
LINE
  5
EC6C
  8
0
 10
3627.0422301531089033
 20
323.7151094347530034
 30
0.0
 11
3627.0619151924688595
 21
323.7142126539663991
 31
0.0
  0
LINE
  5
EC6D
  8
0
 10
3627.0619151924688595
 20
323.7142126539663991
 30
0.0
 11
3627.0717577121090471
 21
323.716711584203324
 31
0.0
  0
LINE
  5
EC6E
  8
0
 10
3627.0439188614759587
 20
323.713548425588499
 30
0.0
 11
3627.0340763428089303
 21
323.7166022427313123
 31
0.0
  0
LINE
  5
EC6F
  8
0
 10
3627.0340763428089303
 20
323.7166022427313123
 30
0.0
 11
3627.0143913031402008
 21
323.7183987491320067
 31
0.0
  0
LINE
  5
EC70
  8
0
 10
3627.0143913031402008
 20
323.7183987491320067
 30
0.0
 11
3627.004548783941118
 21
323.7171618863027902
 31
0.0
  0
LINE
  5
EC71
  8
0
 10
3627.004548783941118
 20
323.7171618863027902
 30
0.0
 11
3627.0143913034089564
 21
323.714131760136695
 31
0.0
  0
LINE
  5
EC72
  8
0
 10
3627.0143913034089564
 20
323.714131760136695
 30
0.0
 11
3627.0340763428089303
 21
323.7123146439669199
 31
0.0
  0
LINE
  5
EC73
  8
0
 10
3627.0340763428089303
 20
323.7123146439669199
 30
0.0
 11
3627.0439188614759587
 21
323.713548425588499
 31
0.0
  0
LINE
  5
EC74
  8
0
 10
3627.0160800128278424
 20
323.7199816186960106
 30
0.0
 11
3626.976709934092014
 21
323.7253892704010809
 31
0.0
  0
LINE
  5
EC75
  8
0
 10
3626.976709934092014
 20
323.7253892704010809
 30
0.0
 11
3626.986552453809054
 21
323.7211166916034131
 31
0.0
  0
LINE
  5
EC76
  8
0
 10
3626.986552453809054
 20
323.7211166916034131
 30
0.0
 11
3627.0062374931089835
 21
323.718401304603276
 31
0.0
  0
LINE
  5
EC77
  8
0
 10
3627.0062374931089835
 20
323.718401304603276
 30
0.0
 11
3627.0160800128278424
 21
323.7199816186960106
 31
0.0
  0
LINE
  5
EC78
  8
0
 10
3627.0160800128091978
 20
323.7130180404716953
 30
0.0
 11
3627.0062374930830629
 21
323.7157060493835843
 31
0.0
  0
LINE
  5
EC79
  8
0
 10
3627.0062374930830629
 20
323.7157060493835843
 30
0.0
 11
3626.986552453809054
 21
323.7184413352032948
 31
0.0
  0
LINE
  5
EC7A
  8
0
 10
3626.986552453809054
 20
323.7184413352032948
 30
0.0
 11
3626.9767099341238463
 21
323.7185288324232033
 31
0.0
  0
LINE
  5
EC7B
  8
0
 10
3626.9767099341238463
 20
323.7185288324232033
 30
0.0
 11
3626.9865524541501145
 21
323.7158798905225012
 31
0.0
  0
LINE
  5
EC7C
  8
0
 10
3626.9865524541501145
 20
323.7158798905225012
 30
0.0
 11
3627.0062374931089835
 21
323.7131039895032814
 31
0.0
  0
LINE
  5
EC7D
  8
0
 10
3627.0062374931089835
 20
323.7131039895032814
 30
0.0
 11
3627.0160800128091978
 21
323.7130180404716953
 31
0.0
  0
LINE
  5
EC7E
  8
0
 10
3626.9882411631460855
 20
323.7194190781713132
 30
0.0
 11
3626.9783986434367762
 21
323.7233562593875149
 31
0.0
  0
LINE
  5
EC7F
  8
0
 10
3626.9783986434367762
 20
323.7233562593875149
 30
0.0
 11
3626.9587136041091071
 21
323.726999967703307
 31
0.0
  0
LINE
  5
EC80
  8
0
 10
3626.9587136041091071
 20
323.726999967703307
 30
0.0
 11
3626.9488710844170782
 21
323.7267492529251172
 31
0.0
  0
LINE
  5
EC81
  8
0
 10
3626.9488710844170782
 20
323.7267492529251172
 30
0.0
 11
3626.9587136041091071
 21
323.7228335780033035
 31
0.0
  0
LINE
  5
EC82
  8
0
 10
3626.9587136041091071
 20
323.7228335780033035
 30
0.0
 11
3626.9783986437319072
 21
323.7191468592649812
 31
0.0
  0
LINE
  5
EC83
  8
0
 10
3626.9783986437319072
 20
323.7191468592649812
 30
0.0
 11
3626.9882411631460855
 21
323.7194190781713132
 31
0.0
  0
LINE
  5
EC84
  8
0
 10
3626.959958481636022
 20
323.7285024086687031
 30
0.0
 11
3626.9210322348098998
 21
323.7375837306033191
 31
0.0
  0
LINE
  5
EC85
  8
0
 10
3626.9210322348098998
 20
323.7375837306033191
 30
0.0
 11
3626.9308747548029714
 21
323.7324065503091219
 31
0.0
  0
LINE
  5
EC86
  8
0
 10
3626.9308747548029714
 20
323.7324065503091219
 30
0.0
 11
3626.9516739219561714
 21
323.7278277028635785
 31
0.0
  0
LINE
  5
EC87
  8
0
 10
3626.9516739219561714
 20
323.7278277028635785
 30
0.0
 11
3626.959958481636022
 21
323.7285024086687031
 31
0.0
  0
LINE
  5
EC88
  8
0
 10
3626.9604023135848365
 20
323.7215967421951746
 30
0.0
 11
3626.9505597938627943
 21
323.7251682371792754
 31
0.0
  0
LINE
  5
EC89
  8
0
 10
3626.9505597938627943
 20
323.7251682371792754
 30
0.0
 11
3626.9308747540480908
 21
323.7298161188942913
 31
0.0
  0
LINE
  5
EC8A
  8
0
 10
3626.9308747540480908
 20
323.7298161188942913
 30
0.0
 11
3626.9210322347598776
 21
323.7309637574292083
 31
0.0
  0
LINE
  5
EC8B
  8
0
 10
3626.9210322347598776
 20
323.7309637574292083
 30
0.0
 11
3626.9308747544878315
 21
323.7274281668006211
 31
0.0
  0
LINE
  5
EC8C
  8
0
 10
3626.9308747544878315
 20
323.7274281668006211
 30
0.0
 11
3626.9505597938091341
 21
323.7227084828032844
 31
0.0
  0
LINE
  5
EC8D
  8
0
 10
3626.9505597938091341
 20
323.7227084828032844
 30
0.0
 11
3626.9604023135848365
 21
323.7215967421951746
 31
0.0
  0
LINE
  5
EC8E
  8
0
 10
3626.9325634636238647
 20
323.730584149140725
 30
0.0
 11
3626.9227209442101412
 21
323.7354211442391829
 31
0.0
  0
LINE
  5
EC8F
  8
0
 10
3626.9227209442101412
 20
323.7354211442391829
 30
0.0
 11
3626.9030359048338141
 21
323.7410209307004152
 31
0.0
  0
LINE
  5
EC90
  8
0
 10
3626.9030359048338141
 20
323.7410209307004152
 30
0.0
 11
3626.8931933850599307
 21
323.7418530103992111
 31
0.0
  0
LINE
  5
EC91
  8
0
 10
3626.8931933850599307
 20
323.7418530103992111
 30
0.0
 11
3626.903035904808803
 21
323.7370256809032867
 31
0.0
  0
LINE
  5
EC92
  8
0
 10
3626.903035904808803
 20
323.7370256809032867
 30
0.0
 11
3626.9227209444620712
 21
323.7313564454346988
 31
0.0
  0
LINE
  5
EC93
  8
0
 10
3626.9227209444620712
 20
323.7313564454346988
 30
0.0
 11
3626.9325634636238647
 21
323.730584149140725
 31
0.0
  0
LINE
  5
EC94
  8
0
 10
3626.9049358934471456
 20
323.7421983935715275
 30
0.0
 11
3626.8655968446591942
 21
323.7554338909533271
 31
0.0
  0
LINE
  5
EC95
  8
0
 10
3626.8655968446591942
 20
323.7554338909533271
 30
0.0
 11
3626.8751970551797967
 21
323.7493242555592019
 31
0.0
  0
LINE
  5
EC96
  8
0
 10
3626.8751970551797967
 20
323.7493242555592019
 30
0.0
 11
3626.8948820945088301
 21
323.742669514488
 31
0.0
  0
LINE
  5
EC97
  8
0
 10
3626.8948820945088301
 20
323.742669514488
 30
0.0
 11
3626.9049358934471456
 21
323.7421983935715275
 31
0.0
  0
LINE
  5
EC98
  8
0
 10
3626.9047246142049516
 20
323.7356824937210718
 30
0.0
 11
3626.8948820945088301
 21
323.740159491303416
 31
0.0
  0
LINE
  5
EC99
  8
0
 10
3626.8948820945088301
 20
323.740159491303416
 30
0.0
 11
3626.8751970551088561
 21
323.7468680944738821
 31
0.0
  0
LINE
  5
EC9A
  8
0
 10
3626.8751970551088561
 20
323.7468680944738821
 30
0.0
 11
3626.8653545355200549
 21
323.7492095538954118
 31
0.0
  0
LINE
  5
EC9B
  8
0
 10
3626.8653545355200549
 20
323.7492095538954118
 30
0.0
 11
3626.8755197149089327
 21
323.7446375254032773
 31
0.0
  0
LINE
  5
EC9C
  8
0
 10
3626.8755197149089327
 20
323.7446375254032773
 30
0.0
 11
3626.8948820945088301
 21
323.7379360400340147
 31
0.0
  0
LINE
  5
EC9D
  8
0
 10
3626.8948820945088301
 20
323.7379360400340147
 30
0.0
 11
3626.9047246118070689
 21
323.7356824948116127
 31
0.0
  0
LINE
  5
EC9E
  8
0
 10
3626.8768857049858525
 20
323.7473867904728877
 30
0.0
 11
3626.8670432448511747
 21
323.7531691793171262
 31
0.0
  0
LINE
  5
EC9F
  8
0
 10
3626.8670432448511747
 20
323.7531691793171262
 30
0.0
 11
3626.847358387031818
 21
323.7609098009864965
 31
0.0
  0
LINE
  5
ECA0
  8
0
 10
3626.847358387031818
 20
323.7609098009864965
 30
0.0
 11
3626.8375156858478476
 21
323.7629717369076161
 31
0.0
  0
LINE
  5
ECA1
  8
0
 10
3626.8375156858478476
 20
323.7629717369076161
 30
0.0
 11
3626.8473582055089537
 21
323.7571738587034247
 31
0.0
  0
LINE
  5
ECA2
  8
0
 10
3626.8473582055089537
 20
323.7571738587034247
 30
0.0
 11
3626.8670432448170686
 21
323.749329874238299
 31
0.0
  0
LINE
  5
ECA3
  8
0
 10
3626.8670432448170686
 20
323.749329874238299
 30
0.0
 11
3626.8768857049858525
 21
323.7473867904728877
 31
0.0
  0
LINE
  5
ECA4
  8
0
 10
3626.8485797989510502
 20
323.7620492579512188
 30
0.0
 11
3626.8361347416089302
 21
323.767436799203324
 31
0.0
  0
LINE
  5
ECA5
  8
0
 10
3626.8361347416089302
 20
323.767436799203324
 30
0.0
 11
3626.8312259166768854
 21
323.7724454580927045
 31
0.0
  0
LINE
  5
ECA6
  8
0
 10
3626.8312259166768854
 20
323.7724454580927045
 30
0.0
 11
3626.8195193558090068
 21
323.777805875603292
 31
0.0
  0
LINE
  5
ECA7
  8
0
 10
3626.8195193558090068
 20
323.777805875603292
 30
0.0
 11
3626.8096762073691934
 21
323.7796230877505081
 31
0.0
  0
LINE
  5
ECA8
  8
0
 10
3626.8096762073691934
 20
323.7796230877505081
 30
0.0
 11
3626.8195193558171923
 21
323.7724465659762814
 31
0.0
  0
LINE
  5
ECA9
  8
0
 10
3626.8195193558171923
 20
323.7724465659762814
 30
0.0
 11
3626.839205189085078
 21
323.7635136859541944
 31
0.0
  0
LINE
  5
ECAA
  8
0
 10
3626.839205189085078
 20
323.7635136859541944
 30
0.0
 11
3626.8485797989510502
 21
323.7620492579512188
 31
0.0
  0
LINE
  5
ECAB
  8
0
 10
3626.8206382814641984
 20
323.7792421415467743
 30
0.0
 11
3626.8113655455240405
 21
323.7876644058740112
 31
0.0
  0
LINE
  5
ECAC
  8
0
 10
3626.8113655455240405
 20
323.7876644058740112
 30
0.0
 11
3626.7913798809918262
 21
323.7978547591670804
 31
0.0
  0
LINE
  5
ECAD
  8
0
 10
3626.7816916836550263
 20
323.7994362434470759
 30
0.0
 11
3626.7916805062359344
 21
323.7906907409052906
 31
0.0
  0
LINE
  5
ECAE
  8
0
 10
3626.7916805062359344
 20
323.7906907409052906
 30
0.0
 11
3626.8113655456090783
 21
323.7805822425033284
 31
0.0
  0
LINE
  5
ECAF
  8
0
 10
3626.8113655456090783
 20
323.7805822425033284
 30
0.0
 11
3626.8206382814641984
 21
323.7792421415467743
 31
0.0
  0
LINE
  5
ECB0
  8
0
 10
3626.8236200981132242
 20
323.7790000538923891
 30
0.0
 11
3626.82311468254602
 21
323.7806351291836222
 31
0.0
  0
LINE
  5
ECB1
  8
0
 10
3626.82311468254602
 20
323.7806351291836222
 30
0.0
 11
3626.8195193558422034
 21
323.7823065776090061
 31
0.0
  0
LINE
  5
ECB2
  8
0
 10
3626.8195193558422034
 20
323.7823065776090061
 30
0.0
 11
3626.809676836143808
 21
323.7911736502578037
 31
0.0
  0
LINE
  5
ECB3
  8
0
 10
3626.809676836143808
 20
323.7911736502578037
 30
0.0
 11
3626.819519355824923
 21
323.7911363115496215
 31
0.0
  0
LINE
  5
ECB4
  8
0
 10
3626.819519355824923
 20
323.7911363115496215
 30
0.0
 11
3626.821537104709023
 21
323.7901979085032735
 31
0.0
  0
LINE
  5
ECB5
  8
0
 10
3626.821537104709023
 20
323.7901979085032735
 30
0.0
 11
3626.8390495997150538
 21
323.800535589137894
 31
0.0
  0
LINE
  5
ECB6
  8
0
 10
3626.848287569419881
 20
323.7999407608951969
 30
0.0
 11
3626.839204395167144
 21
323.790090879971217
 31
0.0
  0
LINE
  5
ECB7
  8
0
 10
3626.839204395167144
 20
323.790090879971217
 30
0.0
 11
3626.8231146836210428
 21
323.7806351257090114
 31
0.0
  0
LINE
  5
ECB8
  8
0
 10
3626.8236200981591537
 20
323.7790000539205835
 30
0.0
 11
3626.840111797308964
 21
323.7886542049647005
 31
0.0
  0
LINE
  5
ECB9
  8
0
 10
3626.840111797308964
 20
323.7886542049647005
 30
0.0
 11
3626.8473582055089537
 21
323.7965012212177953
 31
0.0
  0
LINE
  5
ECBA
  8
0
 10
3626.8473582055089537
 20
323.7965012212177953
 30
0.0
 11
3626.8514377729898115
 21
323.7986683680824171
 31
0.0
  0
LINE
  5
ECBB
  8
0
 10
3626.840111797308964
 20
323.7886542049647005
 30
0.0
 11
3626.840111797308964
 21
323.7771696180033132
 31
0.0
  0
LINE
  5
ECBC
  8
0
 10
3626.840111797308964
 20
323.7771696180033132
 30
0.0
 11
3626.8742896531089173
 21
323.7771696180033132
 31
0.0
  0
LINE
  5
ECBD
  8
0
 10
3626.8742896531089173
 20
323.7771696180033132
 30
0.0
 11
3626.8742896531089173
 21
323.7900396152645044
 31
0.0
  0
LINE
  5
ECBE
  8
0
 10
3626.7929391075372223
 20
323.8026195593453735
 30
0.0
 11
3626.8110920600588543
 21
323.7933785356033241
 31
0.0
  0
LINE
  5
ECBF
  8
0
 10
3626.8110920600588543
 20
323.7933785356033241
 30
0.0
 11
3626.8212080651937868
 21
323.7935806351529209
 31
0.0
  0
LINE
  5
ECC0
  8
0
 10
3626.8212080651937868
 20
323.7935806351529209
 30
0.0
 11
3626.8107770151132172
 21
323.8043915399757111
 31
0.0
  0
LINE
  5
ECC1
  8
0
 10
3626.821537104707204
 20
323.7971628767865013
 30
0.0
 11
3626.821537104709023
 21
323.7901979085032735
 31
0.0
  0
LINE
  5
ECC2
  8
0
 10
3627.0717288850778459
 20
323.7679361878522855
 30
0.0
 11
3627.0323876333591215
 21
323.7701137006160934
 31
0.0
  0
LINE
  5
ECC3
  8
0
 10
3627.0323876333591215
 20
323.7701137006160934
 30
0.0
 11
3627.0422301530061304
 21
323.7772615860309884
 31
0.0
  0
LINE
  5
ECC4
  8
0
 10
3627.0422301530061304
 20
323.7772615860309884
 30
0.0
 11
3627.0619151924620382
 21
323.7763648052176109
 31
0.0
  0
LINE
  5
ECC5
  8
0
 10
3627.0619151924620382
 20
323.7763648052176109
 30
0.0
 11
3627.0717288850778459
 21
323.7679361878522855
 31
0.0
  0
LINE
  5
ECC6
  8
0
 10
3627.0439188625400675
 20
323.782369846513177
 30
0.0
 11
3627.0340763426897865
 21
323.7748875784837992
 31
0.0
  0
LINE
  5
ECC7
  8
0
 10
3627.0340763426897865
 20
323.7748875784837992
 30
0.0
 11
3627.0143913034089564
 21
323.7766840849157006
 31
0.0
  0
LINE
  5
ECC8
  8
0
 10
3627.0143913034089564
 20
323.7766840849157006
 30
0.0
 11
3627.0045487837328437
 21
323.7859833075443134
 31
0.0
  0
LINE
  5
ECC9
  8
0
 10
3627.0045487837328437
 20
323.7859833075443134
 30
0.0
 11
3627.0143913034157777
 21
323.7934892665796269
 31
0.0
  0
LINE
  5
ECCA
  8
0
 10
3627.0143913034157777
 20
323.7934892665796269
 30
0.0
 11
3627.0340763427489037
 21
323.7916721503452777
 31
0.0
  0
LINE
  5
ECCB
  8
0
 10
3627.0340763427489037
 20
323.7916721503452777
 30
0.0
 11
3627.0439188625400675
 21
323.782369846513177
 31
0.0
  0
LINE
  5
ECCC
  8
0
 10
3627.0717577121331487
 20
323.7957134141768165
 30
0.0
 11
3627.0619151923719983
 21
323.7869777819847741
 31
0.0
  0
LINE
  5
ECCD
  8
0
 10
3627.0619151923719983
 20
323.7869777819847741
 30
0.0
 11
3627.0422301531089033
 21
323.7878810126034068
 31
0.0
  0
LINE
  5
ECCE
  8
0
 10
3627.0422301531089033
 20
323.7878810126034068
 30
0.0
 11
3627.0323876333441149
 21
323.7975328909546988
 31
0.0
  0
LINE
  5
ECCF
  8
0
 10
3627.0323876333441149
 20
323.7975328909546988
 30
0.0
 11
3627.0422619442178984
 21
323.8063307702016118
 31
0.0
  0
LINE
  5
ECD0
  8
0
 10
3627.0618833552680371
 20
323.8054173453207909
 30
0.0
 11
3627.0717577121331487
 21
323.7957134141768165
 31
0.0
  0
LINE
  5
ECD1
  8
0
 10
3627.0060550983998837
 20
323.809782611760113
 30
0.0
 11
3627.0160800128542178
 21
323.7990448169431943
 31
0.0
  0
LINE
  5
ECD2
  8
0
 10
3627.0160800128542178
 20
323.7990448169431943
 30
0.0
 11
3627.0062374931089835
 21
323.7911967404706957
 31
0.0
  0
LINE
  5
ECD3
  8
0
 10
3627.0062374931089835
 20
323.7911967404706957
 30
0.0
 11
3626.9865524537531201
 21
323.793932026400114
 31
0.0
  0
LINE
  5
ECD4
  8
0
 10
3626.9865524537531201
 20
323.793932026400114
 30
0.0
 11
3626.9769815622280476
 21
323.8042624253484973
 31
0.0
  0
LINE
  5
ECD5
  8
0
 10
3627.0160800128401206
 20
323.771597684623373
 30
0.0
 11
3626.9767099340310779
 21
323.7770053362862086
 31
0.0
  0
LINE
  5
ECD6
  8
0
 10
3626.9767099340310779
 20
323.7770053362862086
 30
0.0
 11
3626.9865524537749479
 21
323.7832688428458141
 31
0.0
  0
LINE
  5
ECD7
  8
0
 10
3626.9865524537749479
 20
323.7832688428458141
 30
0.0
 11
3627.0062374931558224
 21
323.7805534558145268
 31
0.0
  0
LINE
  5
ECD8
  8
0
 10
3627.0062374931558224
 20
323.7805534558145268
 30
0.0
 11
3627.0160800128401206
 21
323.771597684623373
 31
0.0
  0
LINE
  5
ECD9
  8
0
 10
3626.9882411632111143
 20
323.7882404993346199
 30
0.0
 11
3626.9783986435099905
 21
323.7816415951663203
 31
0.0
  0
LINE
  5
ECDA
  8
0
 10
3626.9783986435099905
 20
323.7816415951663203
 30
0.0
 11
3626.9587136041091071
 21
323.7852853036196166
 31
0.0
  0
LINE
  5
ECDB
  8
0
 10
3626.9587136041091071
 20
323.7852853036196166
 30
0.0
 11
3626.9488710844079833
 21
323.795570674097803
 31
0.0
  0
LINE
  5
ECDC
  8
0
 10
3626.9488710844079833
 20
323.795570674097803
 30
0.0
 11
3626.9587136040631776
 21
323.802191084487788
 31
0.0
  0
LINE
  5
ECDD
  8
0
 10
3626.9587136040631776
 20
323.802191084487788
 30
0.0
 11
3626.9783986434340477
 21
323.798504365745373
 31
0.0
  0
LINE
  5
ECDE
  8
0
 10
3626.9783986434340477
 20
323.798504365745373
 30
0.0
 11
3626.9882411632111143
 21
323.7882404993346199
 31
0.0
  0
LINE
  5
ECDF
  8
0
 10
3626.9606581507428018
 20
323.7797567929118259
 30
0.0
 11
3626.9210322348098998
 21
323.7891997965033966
 31
0.0
  0
LINE
  5
ECE0
  8
0
 10
3626.9210322348098998
 20
323.7891997965033966
 30
0.0
 11
3626.9308747543777827
 21
323.7945587016861282
 31
0.0
  0
LINE
  5
ECE1
  8
0
 10
3626.9308747543777827
 20
323.7945587016861282
 30
0.0
 11
3626.9505597939000836
 21
323.7899459522910774
 31
0.0
  0
LINE
  5
ECE2
  8
0
 10
3626.9505597939000836
 20
323.7899459522910774
 30
0.0
 11
3626.9606581507428018
 21
323.7797567929118259
 31
0.0
  0
LINE
  5
ECE3
  8
0
 10
3626.932987511281226
 20
323.7996511054519146
 30
0.0
 11
3626.9227209441628474
 21
323.7937064801297993
 31
0.0
  0
LINE
  5
ECE4
  8
0
 10
3626.9227209441628474
 20
323.7937064801297993
 30
0.0
 11
3626.9034644100329388
 21
323.7991843699526839
 31
0.0
  0
LINE
  5
ECE5
  8
0
 10
3626.8946075128551456
 20
323.8051284628256781
 30
0.0
 11
3626.9047246142099539
 21
323.7938243600033275
 31
0.0
  0
LINE
  5
ECE6
  8
0
 10
3626.9047246142099539
 20
323.7938243600033275
 30
0.0
 11
3626.8647510829009661
 21
323.8065238317726084
 31
0.0
  0
ARC
  5
ECE7
  8
0
 10
3627.0811964704589627
 20
324.3181457175846845
 30
0.0
 40
0.6102496696698871
 50
267.1513347835269201
 51
269.8793573218356983
  0
ARC
  5
ECE8
  8
0
 10
3627.0815442169100606
 20
324.3158569071430861
 30
0.0
 40
0.6079811447106377
 50
261.3777600062143733
 51
267.1078841687864838
  0
ARC
  5
ECE9
  8
0
 10
3627.0755561243490774
 20
324.2763661713490251
 30
0.0
 40
0.5680389932153762
 50
253.7294540522638897
 51
261.3777600062143733
  0
ARC
  5
ECEA
  8
0
 10
3627.084805477125883
 20
324.3080569577704182
 30
0.0
 40
0.6010519674951864
 50
247.1876308135830129
 51
253.7294540522638897
  0
ARC
  5
ECEB
  8
0
 10
3627.1161094903241064
 20
324.3824812826543962
 30
0.0
 40
0.6817918051018828
 50
243.0274511686558014
 51
247.1876308135830129
  0
ARC
  5
ECEC
  8
0
 10
3626.8580523082441687
 20
323.8754151066241889
 30
0.0
 40
0.1128369597081573
 50
217.1468853075213019
 51
243.0274511686558014
  0
LINE
  5
ECED
  8
0
 10
3627.0619151924620382
 20
323.7763648052176109
 30
0.0
 11
3627.0619151924620382
 21
323.7684793693729262
 31
0.0
  0
LINE
  5
ECEE
  8
0
 10
3627.0422301530061304
 20
323.7772615860309884
 30
0.0
 11
3627.0422301530061304
 21
323.7695689235379746
 31
0.0
  0
LINE
  5
ECEF
  8
0
 10
3627.0340763426897865
 20
323.7748875784837992
 30
0.0
 11
3627.0340763427489037
 21
323.7916721503452777
 31
0.0
  0
LINE
  5
ECF0
  8
0
 10
3627.0143913034089564
 20
323.7766840849157006
 30
0.0
 11
3627.0143913034157777
 21
323.7934892665796269
 31
0.0
  0
LINE
  5
ECF1
  8
0
 10
3627.0619151923719983
 20
323.7869777819847741
 30
0.0
 11
3627.0619151923960999
 21
323.8053860576833927
 31
0.0
  0
LINE
  5
ECF2
  8
0
 10
3627.0422301531089033
 20
323.7878810126034068
 30
0.0
 11
3627.0422301529688411
 21
323.8063024446230997
 31
0.0
  0
LINE
  5
ECF3
  8
0
 10
3627.0062374931089835
 20
323.7911967404706957
 30
0.0
 11
3627.0062374931089835
 21
323.8095872468047105
 31
0.0
  0
LINE
  5
ECF4
  8
0
 10
3626.9865524537531201
 20
323.793932026400114
 30
0.0
 11
3626.9865524537531201
 21
323.8119115417219973
 31
0.0
  0
LINE
  5
ECF5
  8
0
 10
3627.0062374931558224
 20
323.7805534558145268
 30
0.0
 11
3627.0062374931558224
 21
323.7729495975365239
 31
0.0
  0
LINE
  5
ECF6
  8
0
 10
3626.9865524537749479
 20
323.7832688428458141
 30
0.0
 11
3626.9865524537749479
 21
323.7756534233648154
 31
0.0
  0
LINE
  5
ECF7
  8
0
 10
3626.9783986435099905
 20
323.7816415951663203
 30
0.0
 11
3626.9783986434340477
 21
323.798504365745373
 31
0.0
  0
LINE
  5
ECF8
  8
0
 10
3626.9587136041091071
 20
323.7852853036196166
 30
0.0
 11
3626.9587136040631776
 21
323.802191084487788
 31
0.0
  0
LINE
  5
ECF9
  8
0
 10
3626.9505597939000836
 20
323.7899459522910774
 30
0.0
 11
3626.9505597939000836
 21
323.7821632690192928
 31
0.0
  0
LINE
  5
ECFA
  8
0
 10
3626.9308747543777827
 20
323.7945587016861282
 30
0.0
 11
3626.9308747543777827
 21
323.7868542873727051
 31
0.0
  0
LINE
  5
ECFB
  8
0
 10
3626.9227209441628474
 20
323.7937064801297993
 30
0.0
 11
3626.9227209441628474
 21
323.8108863413784206
 31
0.0
  0
LINE
  5
ECFC
  8
0
 10
3627.061914533629988
 20
323.708823217866609
 30
0.0
 11
3627.0623860689029243
 21
323.7114009552603875
 31
0.0
  0
LINE
  5
ECFD
  8
0
 10
3627.0420364556089226
 20
323.7097680046034043
 30
0.0
 11
3627.0422301531261837
 21
323.7123903214023244
 31
0.0
  0
LINE
  5
ECFE
  8
0
 10
3627.0619151924688595
 20
323.7142126539663991
 30
0.0
 11
3627.0619151924688595
 21
323.717158096832577
 31
0.0
  0
LINE
  5
ECFF
  8
0
 10
3627.0422301531089033
 20
323.7151094347530034
 30
0.0
 11
3627.0422301531089033
 21
323.7180511220948915
 31
0.0
  0
LINE
  5
ED00
  8
0
 10
3627.0340763428089303
 20
323.7123146439669199
 30
0.0
 11
3627.0340763428089303
 21
323.7166022427313123
 31
0.0
  0
LINE
  5
ED01
  8
0
 10
3627.0143913034089564
 20
323.714131760136695
 30
0.0
 11
3627.0143913031402008
 21
323.7183987491320067
 31
0.0
  0
LINE
  5
ED02
  8
0
 10
3627.0062374931089835
 20
323.7131039895032814
 30
0.0
 11
3627.0062374930830629
 21
323.7157060493835843
 31
0.0
  0
LINE
  5
ED03
  8
0
 10
3626.9865524541501145
 20
323.7158798905225012
 30
0.0
 11
3626.986552453809054
 21
323.7184413352032948
 31
0.0
  0
LINE
  5
ED04
  8
0
 10
3627.0062374931089835
 20
323.718401304603276
 30
0.0
 11
3627.0062374931089835
 21
323.7213335316268967
 31
0.0
  0
LINE
  5
ED05
  8
0
 10
3626.986552453809054
 20
323.7211166916034131
 30
0.0
 11
3626.986552453809054
 21
323.7240373574703085
 31
0.0
  0
LINE
  5
ED06
  8
0
 10
3626.9783986437319072
 20
323.7191468592649812
 30
0.0
 11
3626.9783986434367762
 21
323.7233562593875149
 31
0.0
  0
LINE
  5
ED07
  8
0
 10
3626.9587136041091071
 20
323.7228335780033035
 30
0.0
 11
3626.9586075440602144
 21
323.7269972660757844
 31
0.0
  0
LINE
  5
ED08
  8
0
 10
3626.9505597938091341
 20
323.7227084828032844
 30
0.0
 11
3626.9511099041519628
 21
323.7250383493263257
 31
0.0
  0
LINE
  5
ED09
  8
0
 10
3626.9308747544878315
 20
323.7274281668006211
 30
0.0
 11
3626.9314088066248587
 21
323.7296900224661158
 31
0.0
  0
LINE
  5
ED0A
  8
0
 10
3626.9516739219561714
 20
323.7278277028635785
 30
0.0
 11
3626.9516739219561714
 21
323.7304351599527195
 31
0.0
  0
LINE
  5
ED0B
  8
0
 10
3626.9308747548029714
 20
323.7324065503091219
 30
0.0
 11
3626.9308747548029714
 21
323.7352875140401807
 31
0.0
  0
LINE
  5
ED0C
  8
0
 10
3626.9227209444620712
 20
323.7313564454346988
 30
0.0
 11
3626.9227209442101412
 21
323.7354211442391829
 31
0.0
  0
LINE
  5
ED0D
  8
0
 10
3626.903035904808803
 20
323.7370256809032867
 30
0.0
 11
3626.9030359048338141
 21
323.7410209307004152
 31
0.0
  0
LINE
  5
ED0E
  8
0
 10
3626.8948820945088301
 20
323.742669514488
 30
0.0
 11
3626.8948820945088301
 21
323.745580962129111
 31
0.0
  0
LINE
  5
ED0F
  8
0
 10
3626.8751970551797967
 20
323.7493242555592019
 30
0.0
 11
3626.8751970551797967
 21
323.7522039307705768
 31
0.0
  0
LINE
  5
ED10
  8
0
 10
3626.8948820945088301
 20
323.7379360400340147
 30
0.0
 11
3626.8948820945088301
 21
323.740159491303416
 31
0.0
  0
LINE
  5
ED11
  8
0
 10
3626.8755197149089327
 20
323.7446375254032773
 30
0.0
 11
3626.8761672099230964
 21
323.74653746858462
 31
0.0
  0
LINE
  5
ED12
  8
0
 10
3626.8670432448170686
 20
323.749329874238299
 30
0.0
 11
3626.8668455221718432
 21
323.753246929253919
 31
0.0
  0
LINE
  5
ED13
  8
0
 10
3626.8473582055089537
 20
323.7571738587034247
 30
0.0
 11
3626.847358387031818
 21
323.7609098009864965
 31
0.0
  0
LINE
  5
ED14
  8
0
 10
3626.839205189085078
 20
323.7635136859541944
 30
0.0
 11
3626.839205189085078
 21
323.7661075837579006
 31
0.0
  0
LINE
  5
ED15
  8
0
 10
3626.8195193558171923
 20
323.7724465659762814
 30
0.0
 11
3626.8195193558090068
 21
323.777805875603292
 31
0.0
  0
LINE
  5
ED16
  8
0
 10
3626.8312259166768854
 20
323.7724454580927045
 30
0.0
 11
3626.8312259166768854
 21
323.7671344563892148
 31
0.0
  0
LINE
  5
ED17
  8
0
 10
3627.0799115224099296
 20
323.7899362693033254
 30
0.0
 11
3627.0700690027088058
 21
323.7899362693033254
 31
0.0
  0
LINE
  5
ED18
  8
0
 10
3627.0700690027088058
 20
323.7899362693033254
 30
0.0
 11
3627.0602264830458807
 21
323.7816244350066768
 31
0.0
  0
LINE
  5
ED19
  8
0
 10
3627.0602264830458807
 20
323.7816244350066768
 30
0.0
 11
3627.0700690027088058
 21
323.7732502819808929
 31
0.0
  0
LINE
  5
ED1A
  8
0
 10
3627.0700690027088058
 20
323.7732502819808929
 30
0.0
 11
3627.0799115224099296
 21
323.7732502819808929
 31
0.0
  0
LINE
  5
ED1B
  8
0
 10
3627.0700690027088058
 20
323.7899362693033254
 30
0.0
 11
3627.0700690027088058
 21
323.7732502819808929
 31
0.0
  0
LINE
  5
ED1C
  8
0
 10
3627.0700690026719712
 20
323.7106586825880754
 30
0.0
 11
3627.0602264830481545
 21
323.7128030137685073
 31
0.0
  0
LINE
  5
ED1D
  8
0
 10
3627.0602264830481545
 20
323.7128030137685073
 30
0.0
 11
3627.0700690024409596
 21
323.7149649462073171
 31
0.0
  0
LINE
  5
ED1E
  8
0
 10
3627.0700690024409596
 20
323.7149649462073171
 30
0.0
 11
3627.0700690026719712
 21
323.7106586825880754
 31
0.0
  0
LINE
  5
ED1F
  8
0
 10
3627.0610830534001252
 20
323.7082276003046104
 30
0.0
 11
3627.0700690026901611
 21
323.7089693399310022
 31
0.0
  0
LINE
  5
ED20
  8
0
 10
3627.0700690026901611
 20
323.7089693399310022
 30
0.0
 11
3627.0700690026901611
 21
323.707997507070786
 31
0.0
  0
LINE
  5
ED21
  8
0
 10
3627.0700690026901611
 20
323.7089693399310022
 30
0.0
 11
3627.0799115224099296
 21
323.7089693399310022
 31
0.0
  0
LINE
  5
ED22
  8
0
 10
3627.0700690026719712
 20
323.7106586825880754
 30
0.0
 11
3627.0799115224099296
 21
323.7106586825880754
 31
0.0
  0
LINE
  5
ED23
  8
0
 10
3627.0700690024409596
 20
323.7149649462073171
 30
0.0
 11
3627.0799115224099296
 21
323.7149649462073171
 31
0.0
  0
ARC
  5
ED24
  8
0
 10
3626.7980536167478931
 20
323.7932000595989734
 30
0.0
 40
0.0330866202386089
 50
154.1604063518506109
 51
212.0046845947522911
  0
ARC
  5
ED25
  8
0
 10
3626.8306393772218144
 20
323.8135656073745281
 30
0.0
 40
0.0715130085921475
 50
212.0046845947522911
 51
239.574673184124606
  0
ARC
  5
ED26
  8
0
 10
3626.954034276719085
 20
324.0236742738367184
 30
0.0
 40
0.3151766147056064
 50
239.574673184124606
 51
248.0213292630157014
  0
ARC
  5
ED27
  8
0
 10
3626.9496754397910081
 20
324.012874200130625
 30
0.0
 40
0.3035301108775647
 50
248.0213292630157014
 51
259.1861298839502865
  0
ARC
  5
ED28
  8
0
 10
3627.0480024940698058
 20
324.4063919372341047
 30
0.0
 40
0.7088728770267023
 50
257.3470491283418937
 51
263.1401199564738249
  0
ARC
  5
ED29
  8
0
 10
3627.0754549779630906
 20
324.623209121506477
 30
0.0
 40
0.927417880851191
 50
263.0561638790637744
 51
267.619004394407682
  0
ARC
  5
ED2A
  8
0
 10
3627.0140607436410392
 20
321.6034510574871774
 30
0.0
 40
2.0932657417996001
 50
88.1972693619012631
 51
89.374129072635327
  0
ARC
  5
ED2B
  8
0
 10
3626.8217939016840319
 20
323.840605813071079
 30
0.0
 40
0.0995582243418284
 50
200.269513178923205
 51
231.2217813184466877
  0
ARC
  5
ED2C
  8
0
 10
3626.9157279053638376
 20
323.9575271434832189
 30
0.0
 40
0.249538871602524
 50
231.2217813184466877
 51
242.9288028346720978
  0
ARC
  5
ED2D
  8
0
 10
3626.9494793051749184
 20
324.0642007031086109
 30
0.0
 40
0.3603604646415138
 50
245.8704348933407005
 51
254.6065716940466075
  0
ARC
  5
ED2E
  8
0
 10
3627.0152295279081045
 20
324.2937902669939945
 30
0.0
 40
0.5991718034113143
 50
254.3724844965340139
 51
259.50763238178439
  0
ARC
  5
ED2F
  8
0
 10
3627.0586795683489072
 20
324.5274940075648828
 30
0.0
 40
0.8368802905919185
 50
259.4963354391686039
 51
264.3921282565643764
  0
ARC
  5
ED30
  8
0
 10
3627.0776583634901726
 20
324.7112300483353238
 30
0.0
 40
1.021591994927866
 50
264.3397818283395964
 51
268.3453038079654789
  0
ARC
  5
ED31
  8
0
 10
3627.0798539979168709
 20
324.7679831469015994
 30
0.0
 40
1.0783849718971561
 50
268.3157670028820121
 51
270.0030563395412173
  0
ARC
  5
ED32
  8
0
 10
3626.8460773654228433
 20
324.1397985258740846
 30
0.0
 40
0.395475888165737
 50
238.7718451482450064
 51
251.2428146810644023
  0
ARC
  5
ED33
  8
0
 10
3626.9597958865010696
 20
324.474664512687923
 30
0.0
 40
0.7491242038144158
 50
251.2428146810644023
 51
256.2505927943017241
  0
LINE
  5
ED34
  8
0
 10
3626.1567535930548729
 20
320.2414833316050817
 30
0.0
 11
3628.0035487418867888
 21
320.2414833316050817
 31
0.0
  0
LINE
  5
ED35
  8
0
 10
3628.00534616547111
 20
320.2297187131720761
 30
0.0
 11
3628.00534616547111
 21
320.2061705923766226
 31
0.0
  0
LINE
  5
ED36
  8
0
 10
3628.003545510855929
 20
320.2414936537966241
 30
0.0
 11
3627.9988909783710369
 21
320.2563563507766276
 31
0.0
  0
ARC
  5
ED37
  8
0
 10
3629.7973503741500281
 20
320.8388580589441972
 30
0.0
 40
1.890440276306165
 50
180.1736768483131925
 51
197.9465827062427934
  0
LINE
  5
ED38
  8
0
 10
3627.9069187828708891
 20
320.8331277030766273
 30
0.0
 11
3627.9067030449609774
 21
325.1282575680131117
 31
0.0
  0
LINE
  5
ED39
  8
0
 10
3627.9067030449609774
 20
325.2163213718632164
 30
0.0
 11
3627.9067030449609774
 21
326.1290676257157202
 31
0.0
  0
ARC
  5
ED3A
  8
0
 10
3627.9659461654709958
 20
320.2297187131720761
 30
0.0
 40
0.0394
 50
0.0000000000032569
 51
17.3889264676537003
  0
ARC
  5
ED3B
  8
0
 10
3627.0530592135050938
 20
311.3682236122737095
 30
0.0
 40
14.8036195530071399
 50
88.3971828045966674
 51
89.895978507850117
  0
ARC
  5
ED3C
  8
0
 10
3626.2871288693841052
 20
283.995714709864103
 30
0.0
 40
42.186842389345081
 50
88.0238237512438388
 51
88.3971828045966674
  0
ARC
  5
ED3D
  8
0
 10
3628.9791643725861832
 20
362.0156306731157088
 30
0.0
 40
35.8795033818215785
 50
268.0238237512436967
 51
268.2412967910711927
  0
ARC
  5
ED3E
  8
0
 10
3627.8751261320048798
 20
326.0591012514287854
 30
0.0
 40
0.0939716864742889
 50
82.8549381344451632
 51
88.241296791071278
  0
ARC
  5
ED3F
  8
0
 10
3627.882195342542218
 20
326.1284171488517813
 30
0.0
 40
0.0243678536484784
 50
36.1065807711404929
 51
79.0729053134076167
  0
ARC
  5
ED40
  8
0
 10
3627.881505975275104
 20
326.1279100337441719
 30
0.0
 40
0.025223646444098
 50
2.6304063019241908
 51
36.1144695035726713
  0
LINE
  5
ED41
  8
0
 10
3627.9067044649641502
 20
325.930888644561378
 30
0.0
 11
3627.763114529961058
 21
325.9921199204130744
 31
0.0
  0
ARC
  5
ED42
  8
0
 10
3627.0827132369017818
 20
297.1377627180240211
 30
0.0
 40
28.8690061654206396
 50
89.2810679671371332
 51
90.0055107871145168
  0
ARC
  5
ED43
  8
0
 10
3627.3251936033948368
 20
316.4613865185187933
 30
0.0
 40
9.5438610557149506
 50
87.8108064120027194
 51
89.2810680017670819
  0
ARC
  5
ED44
  8
0
 10
3627.6589205072577897
 20
325.1914674558402112
 30
0.0
 40
0.8074037177234941
 50
82.5854032127989797
 51
87.8108064120027194
  0
ARC
  5
ED45
  8
0
 10
3627.8646771173139314
 20
325.9345537911282236
 30
0.0
 40
0.0270175134498742
 50
289.6146709217808279
 51
5.9431663277021496
  0
ARC
  5
ED46
  8
0
 10
3627.071025116707915
 20
330.9460237338618072
 30
0.0
 40
5.105629222307603
 50
270.0999922942907006
 51
275.5798190658396152
  0
ARC
  5
ED47
  8
0
 10
3627.1802187717980814
 20
329.8283271781472763
 30
0.0
 40
3.9826114820346992
 50
275.5798190658396152
 51
278.0184644990807783
  0
ARC
  5
ED48
  8
0
 10
3627.4598583349329601
 20
327.8432313516283898
 30
0.0
 40
1.977916062342963
 50
278.0184603718041103
 51
282.0786833242152056
  0
ARC
  5
ED49
  8
0
 10
3627.080139256665916
 20
325.6649101908283228
 30
0.0
 40
0.1318293483579128
 50
11.3913295017801204
 51
90.0885875384662143
  0
ARC
  5
ED4A
  8
0
 10
3627.0823813096681079
 20
325.6653619149431051
 30
0.0
 40
0.1295422418136804
 50
298.651869855642417
 51
11.3913295017801204
  0
ARC
  5
ED4B
  8
0
 10
3627.0788381882998692
 20
325.6718464844237815
 30
0.0
 40
0.1369316497993835
 50
270.4591193215056251
 51
298.651869855642417
  0
ARC
  5
ED4C
  8
0
 10
3627.8975805213581225
 20
325.2163651851860209
 30
0.0
 40
0.0091226288153886
 50
330.546315592603321
 51
359.7248240407585058
  0
ARC
  5
ED4D
  8
0
 10
3627.9001167281749076
 20
325.2149329735954097
 30
0.0
 40
0.0062099710838889
 50
309.4431982247892847
 51
330.5463155926004788
  0
ARC
  5
ED4E
  8
0
 10
3627.8967590081501839
 20
325.2190144510096275
 30
0.0
 40
0.0114951145682876
 50
286.4430076410072843
 51
309.4431982247892847
  0
ARC
  5
ED4F
  8
0
 10
3627.8927946089597754
 20
325.2324470894814112
 30
0.0
 40
0.0255005505576325
 50
273.6308944212236725
 51
286.4430076410330912
  0
ARC
  5
ED50
  8
0
 10
3626.9740583780608176
 20
325.0086562698131161
 30
0.0
 40
0.8661417322999998
 50
7.937056389581759
 51
13.2378648754958093
  0
ARC
  5
ED51
  8
0
 10
3612.794760618276996
 20
325.7386668584413769
 30
0.0
 40
15.1289689911746592
 50
356.0739116353325926
 51
357.2816312831652112
  0
ARC
  5
ED52
  8
0
 10
3627.3605497938538065
 20
324.7289292350095025
 30
0.0
 40
0.5283221209583079
 50
349.7978255955421218
 51
357.164411000313919
  0
ARC
  5
ED53
  8
0
 10
3625.5118291088538172
 20
325.0616390203493893
 30
0.0
 40
2.4067427267889498
 50
348.237901249011486
 51
349.7978255955421218
  0
ARC
  5
ED54
  8
0
 10
3627.7168800107720017
 20
324.6025019816852932
 30
0.0
 40
0.1543981038857534
 50
317.2526882611414862
 51
348.237901249011486
  0
ARC
  5
ED55
  8
0
 10
3627.7344462877249498
 20
324.5862654106916239
 30
0.0
 40
0.1304773947896989
 50
283.0052218496502974
 51
317.2526882611414862
  0
ARC
  5
ED56
  8
0
 10
3624.3108151894662115
 20
331.9232540632730775
 30
0.0
 40
8.2241255873404118
 50
293.9801829504426109
 51
294.8258437706808195
  0
ARC
  5
ED57
  8
0
 10
3627.0799342224609063
 20
303.9997529801605083
 30
0.0
 40
20.4172924343525715
 50
88.8844765133231078
 51
89.9999739609981049
  0
ARC
  5
ED58
  8
0
 10
3627.0845835467848701
 20
304.238522494598385
 30
0.0
 40
20.1784776583407499
 50
88.3850303997695761
 51
88.8844765133231078
  0
ARC
  5
ED59
  8
0
 10
3627.6524026619190408
 20
324.3782344611880717
 30
0.0
 40
0.0307627346898354
 50
358.2311567189426
 51
88.3850303997695761
  0
ARC
  5
ED5A
  8
0
 10
3650.6610974391110176
 20
323.6676810785294265
 30
0.0
 40
22.9889010651917509
 50
178.231156718945897
 51
179.5135407062356023
  0
ARC
  5
ED5B
  8
0
 10
3627.6426918471079262
 20
323.8631193200586722
 30
0.0
 40
0.0303341980436683
 50
288.0428185274540738
 51
359.5135407062355739
  0
ARC
  5
ED5C
  8
0
 10
3627.2246444008801518
 20
324.656416423609528
 30
0.0
 40
0.9266179912718698
 50
291.4080431866370873
 51
297.4706013516851044
  0
ARC
  5
ED5D
  8
0
 10
3627.0923957882801005
 20
301.7301908664136931
 30
0.0
 40
22.1171504763271116
 50
88.8449328377654837
 51
90.0322792940427945
  0
ARC
  5
ED5E
  8
0
 10
3627.5100338184552129
 20
322.4438389589287226
 30
0.0
 40
1.3992925072994811
 50
84.8754427481780738
 51
88.8449328377654837
  0
ARC
  5
ED5F
  8
0
 10
3627.6271993166938046
 20
323.7503280917366055
 30
0.0
 40
0.0875602144428751
 50
73.4867420457566851
 51
84.8754427481780738
  0
ARC
  5
ED60
  8
0
 10
2381.2842982881638818
 20
-2564.7236767271310782
 30
0.0
 40
3145.9815187108888495
 50
66.6581318478620517
 51
66.6605542229769412
  0
ARC
  5
ED61
  8
0
 10
3555.7162521880018176
 20
319.4620978386735146
 30
0.0
 40
72.281681106020045
 50
2.8789798642614972
 51
3.2546681193818561
  0
ARC
  5
ED62
  8
0
 10
3627.1922732459488543
 20
323.5266426927784096
 30
0.0
 40
0.6901864216155298
 50
3.2546681193818561
 51
13.5735242664253999
  0
ARC
  5
ED63
  8
0
 10
3627.6972147773881261
 20
323.6485539491412169
 30
0.0
 40
0.1707364195949652
 50
13.5735242664253999
 51
30.1991025592318003
  0
ARC
  5
ED64
  8
0
 10
3627.7714247479129881
 20
323.6836070393778186
 30
0.0
 40
0.0892435995161782
 50
34.718641730012763
 51
55.8079897328003725
  0
ARC
  5
ED65
  8
0
 10
3627.5361499311097759
 20
323.2564599834424257
 30
0.0
 40
0.5765718749075524
 50
60.3275289035789086
 51
65.6136934357846826
  0
ARC
  5
ED66
  8
0
 10
3627.0822560962510579
 20
314.7462191994163732
 30
0.0
 40
9.0668342429044344
 50
89.1823034363002733
 51
90.0107720530128432
  0
ARC
  5
ED67
  8
0
 10
3627.09359478790293
 20
315.5406624424854272
 30
0.0
 40
8.2723100882141178
 50
88.7042810688545984
 51
89.1823036248542138
  0
ARC
  5
ED68
  8
0
 10
3627.0736446861478726
 20
314.6586333717684738
 30
0.0
 40
9.1545647499472427
 50
88.3666709173580358
 51
88.7042810688545984
  0
ARC
  5
ED69
  8
0
 10
3627.0886420664919569
 20
315.1845860584085131
 30
0.0
 40
8.628398283891995
 50
88.0511757887094575
 51
88.3666709173580358
  0
ARC
  5
ED6A
  8
0
 10
3627.0842966629620605
 20
315.0568796904615283
 30
0.0
 40
8.7561785599367337
 50
87.834378641350682
 51
88.0511757887094575
  0
ARC
  5
ED6B
  8
0
 10
3627.195775355115984
 20
318.0048634523878945
 30
0.0
 40
5.8060877546586172
 50
87.0023516804066475
 51
87.834378641350682
  0
ARC
  5
ED6C
  8
0
 10
3627.4622422775942141
 20
323.0933513465428177
 30
0.0
 40
0.7106276508273179
 50
82.7402164409838576
 51
87.0023516804066475
  0
ARC
  5
ED6D
  8
0
 10
3627.5474095342779037
 20
323.7619087718018136
 30
0.0
 40
0.036667346002207
 50
67.693164474443023
 51
82.7402164409838576
  0
ARC
  5
ED6E
  8
0
 10
3627.5602273627341674
 20
323.7931512496388109
 30
0.0
 40
0.0028976976816478
 50
33.9668546523932235
 51
67.693164474443023
  0
ARC
  5
ED6F
  8
0
 10
3627.5614060122247793
 20
323.7939452670902938
 30
0.0
 40
0.001476543806034
 50
309.3316605866116902
 51
33.9668546523959094
  0
ARC
  5
ED70
  8
0
 10
3627.5108161787848076
 20
323.8556843290252232
 30
0.0
 40
0.0812953574787017
 50
289.9950820895963943
 51
309.3316605866116902
  0
ARC
  5
ED71
  8
0
 10
3627.3011253460272201
 20
324.3340291426179078
 30
0.0
 40
0.6034378907564426
 50
288.0449812037340962
 51
293.1761857838146739
  0
ARC
  5
ED72
  8
0
 10
3627.1171708473912076
 20
324.9070070229146268
 30
0.0
 40
1.2052182268873839
 50
278.8963961149755164
 51
287.9222707277327231
  0
ARC
  5
ED73
  8
0
 10
3627.0809924573081844
 20
325.1093536218872941
 30
0.0
 40
1.4107324592555319
 50
269.981996138740385
 51
279.0771541349286053
  0
ARC
  5
ED74
  8
0
 10
3627.0756036307320755
 20
324.4921443445260252
 30
0.0
 40
0.7374066707633764
 50
270.3347208880404082
 51
273.8219534240116104
  0
ARC
  5
ED75
  8
0
 10
3627.0800302038251175
 20
324.3716464976843099
 30
0.0
 40
0.6168923456009371
 50
274.1577283559093985
 51
283.0370697937049727
  0
ARC
  5
ED76
  8
0
 10
3627.0817005948410952
 20
324.3644325365876284
 30
0.0
 40
0.6094875200898614
 50
283.0370697937049727
 51
294.4273171115522132
  0
ARC
  5
ED77
  8
0
 10
3627.0799111758237814
 20
324.3416205905961078
 30
0.0
 40
0.6185024531620757
 50
270.0000321076004184
 51
274.8695524471921203
  0
ARC
  5
ED78
  8
0
 10
3627.0801098604820254
 20
324.3392884728144168
 30
0.0
 40
0.6161618872174119
 50
274.8695524471921203
 51
285.7938618777332067
  0
ARC
  5
ED79
  8
0
 10
3627.0828729773179475
 20
324.3295198305978033
 30
0.0
 40
0.606009981711202
 50
285.7938618777332067
 51
294.7102356033088881
  0
LINE
  5
ED7A
  8
0
 10
3627.0880653327349137
 20
323.7096866377600008
 30
0.0
 11
3627.0979085111880522
 21
323.708823217866609
 31
0.0
  0
LINE
  5
ED7B
  8
0
 10
3627.0979085111880522
 20
323.708823217866609
 30
0.0
 11
3627.1177865892091177
 21
323.7097680046034043
 31
0.0
  0
LINE
  5
ED7C
  8
0
 10
3627.1177865892091177
 20
323.7097680046034043
 30
0.0
 11
3627.1274354114430025
 21
323.7115061143800858
 31
0.0
  0
LINE
  5
ED7D
  8
0
 10
3627.1274354114430025
 20
323.7115061143800858
 30
0.0
 11
3627.1175928916932207
 21
323.7123903214023244
 31
0.0
  0
LINE
  5
ED7E
  8
0
 10
3627.1175928916932207
 20
323.7123903214023244
 30
0.0
 11
3627.0979078524060242
 21
323.7114870908284274
 31
0.0
  0
LINE
  5
ED7F
  8
0
 10
3627.0979078524060242
 20
323.7114870908284274
 30
0.0
 11
3627.0880653327349137
 21
323.7096866377600008
 31
0.0
  0
LINE
  5
ED80
  8
0
 10
3627.0880653327099026
 20
323.716711584203324
 30
0.0
 11
3627.1274354114621019
 21
323.7184976347293173
 31
0.0
  0
LINE
  5
ED81
  8
0
 10
3627.1274354114621019
 20
323.7184976347293173
 30
0.0
 11
3627.1175928917100464
 21
323.7151094347530034
 31
0.0
  0
LINE
  5
ED82
  8
0
 10
3627.1175928917100464
 20
323.7151094347530034
 30
0.0
 11
3627.0979078523491808
 21
323.7142126539663991
 31
0.0
  0
LINE
  5
ED83
  8
0
 10
3627.0979078523491808
 20
323.7142126539663991
 30
0.0
 11
3627.0880653327099026
 21
323.716711584203324
 31
0.0
  0
LINE
  5
ED84
  8
0
 10
3627.1159041833420815
 20
323.713548425588499
 30
0.0
 11
3627.1257467020091099
 21
323.7166022427313123
 31
0.0
  0
LINE
  5
ED85
  8
0
 10
3627.1257467020091099
 20
323.7166022427313123
 30
0.0
 11
3627.1454317416792037
 21
323.7183987491320067
 31
0.0
  0
LINE
  5
ED86
  8
0
 10
3627.1454317416792037
 20
323.7183987491320067
 30
0.0
 11
3627.1552742608769222
 21
323.7171618863027902
 31
0.0
  0
LINE
  5
ED87
  8
0
 10
3627.1552742608769222
 20
323.7171618863027902
 30
0.0
 11
3627.1454317414090838
 21
323.714131760136695
 31
0.0
  0
LINE
  5
ED88
  8
0
 10
3627.1454317414090838
 20
323.714131760136695
 30
0.0
 11
3627.1257467020091099
 21
323.7123146439669199
 31
0.0
  0
LINE
  5
ED89
  8
0
 10
3627.1257467020091099
 20
323.7123146439669199
 30
0.0
 11
3627.1159041833420815
 21
323.713548425588499
 31
0.0
  0
LINE
  5
ED8A
  8
0
 10
3627.1437430319920168
 20
323.7199816186960106
 30
0.0
 11
3627.1831131107269357
 21
323.7253892704010809
 31
0.0
  0
LINE
  5
ED8B
  8
0
 10
3627.1831131107269357
 20
323.7253892704010809
 30
0.0
 11
3627.1732705910098957
 21
323.7211166916034131
 31
0.0
  0
LINE
  5
ED8C
  8
0
 10
3627.1732705910098957
 20
323.7211166916034131
 30
0.0
 11
3627.1535855517099662
 21
323.718401304603276
 31
0.0
  0
LINE
  5
ED8D
  8
0
 10
3627.1535855517099662
 20
323.718401304603276
 30
0.0
 11
3627.1437430319920168
 21
323.7199816186960106
 31
0.0
  0
LINE
  5
ED8E
  8
0
 10
3627.1437430320088424
 20
323.7130180404716953
 30
0.0
 11
3627.1535855517349773
 21
323.7157060493835843
 31
0.0
  0
LINE
  5
ED8F
  8
0
 10
3627.1535855517349773
 20
323.7157060493835843
 30
0.0
 11
3627.1732705910098957
 21
323.7184413352032948
 31
0.0
  0
LINE
  5
ED90
  8
0
 10
3627.1732705910098957
 20
323.7184413352032948
 30
0.0
 11
3627.1831131106951034
 21
323.7185288324232033
 31
0.0
  0
LINE
  5
ED91
  8
0
 10
3627.1831131106951034
 20
323.7185288324232033
 30
0.0
 11
3627.1732705906688352
 21
323.7158798905225012
 31
0.0
  0
LINE
  5
ED92
  8
0
 10
3627.1732705906688352
 20
323.7158798905225012
 30
0.0
 11
3627.1535855517099662
 21
323.7131039895032814
 31
0.0
  0
LINE
  5
ED93
  8
0
 10
3627.1535855517099662
 20
323.7131039895032814
 30
0.0
 11
3627.1437430320088424
 21
323.7130180404716953
 31
0.0
  0
LINE
  5
ED94
  8
0
 10
3627.1715818816728643
 20
323.7194190781713132
 30
0.0
 11
3627.1814244013808093
 21
323.7233562593875149
 31
0.0
  0
LINE
  5
ED95
  8
0
 10
3627.1814244013808093
 20
323.7233562593875149
 30
0.0
 11
3627.2011094407098426
 21
323.726999967703307
 31
0.0
  0
LINE
  5
ED96
  8
0
 10
3627.2011094407098426
 20
323.726999967703307
 30
0.0
 11
3627.2109519604018715
 21
323.7267492529251172
 31
0.0
  0
LINE
  5
ED97
  8
0
 10
3627.2109519604018715
 20
323.7267492529251172
 30
0.0
 11
3627.2011094407098426
 21
323.7228335780033035
 31
0.0
  0
LINE
  5
ED98
  8
0
 10
3627.2011094407098426
 20
323.7228335780033035
 30
0.0
 11
3627.181424401086133
 21
323.7191468592649812
 31
0.0
  0
LINE
  5
ED99
  8
0
 10
3627.181424401086133
 20
323.7191468592649812
 30
0.0
 11
3627.1715818816728643
 21
323.7194190781713132
 31
0.0
  0
LINE
  5
ED9A
  8
0
 10
3627.1998645631829277
 20
323.7285024086687031
 30
0.0
 11
3627.2387908100099594
 21
323.7375837306033191
 31
0.0
  0
LINE
  5
ED9B
  8
0
 10
3627.2387908100099594
 20
323.7375837306033191
 30
0.0
 11
3627.2289482900159783
 21
323.7324065503091219
 31
0.0
  0
LINE
  5
ED9C
  8
0
 10
3627.2289482900159783
 20
323.7324065503091219
 30
0.0
 11
3627.2081491228618688
 21
323.7278277028635785
 31
0.0
  0
LINE
  5
ED9D
  8
0
 10
3627.2081491228618688
 20
323.7278277028635785
 30
0.0
 11
3627.1998645631829277
 21
323.7285024086687031
 31
0.0
  0
LINE
  5
ED9E
  8
0
 10
3627.1994207312332037
 20
323.7215967421951746
 30
0.0
 11
3627.2092632509561554
 21
323.7251682371792754
 31
0.0
  0
LINE
  5
ED9F
  8
0
 10
3627.2092632509561554
 20
323.7251682371792754
 30
0.0
 11
3627.2289482907708589
 21
323.7298161188942913
 31
0.0
  0
LINE
  5
EDA0
  8
0
 10
3627.2289482907708589
 20
323.7298161188942913
 30
0.0
 11
3627.2387908100590721
 21
323.7309637574292083
 31
0.0
  0
LINE
  5
EDA1
  8
0
 10
3627.2387908100590721
 20
323.7309637574292083
 30
0.0
 11
3627.2289482903311182
 21
323.7274281668006211
 31
0.0
  0
LINE
  5
EDA2
  8
0
 10
3627.2289482903311182
 20
323.7274281668006211
 30
0.0
 11
3627.2092632510098156
 21
323.7227084828032844
 31
0.0
  0
LINE
  5
EDA3
  8
0
 10
3627.2092632510098156
 20
323.7227084828032844
 30
0.0
 11
3627.1994207312332037
 21
323.7215967421951746
 31
0.0
  0
LINE
  5
EDA4
  8
0
 10
3627.2272595811941756
 20
323.730584149140725
 30
0.0
 11
3627.2371021006101728
 21
323.7354211442391829
 31
0.0
  0
LINE
  5
EDA5
  8
0
 10
3627.2371021006101728
 20
323.7354211442391829
 30
0.0
 11
3627.2567871399842261
 21
323.7410209307004152
 31
0.0
  0
LINE
  5
EDA6
  8
0
 10
3627.2567871399842261
 20
323.7410209307004152
 30
0.0
 11
3627.266629659759019
 21
323.7418530103992111
 31
0.0
  0
LINE
  5
EDA7
  8
0
 10
3627.266629659759019
 20
323.7418530103992111
 30
0.0
 11
3627.2567871400087824
 21
323.7370256809032867
 31
0.0
  0
LINE
  5
EDA8
  8
0
 10
3627.2567871400087824
 20
323.7370256809032867
 30
0.0
 11
3627.2371021003568785
 21
323.7313564454346988
 31
0.0
  0
LINE
  5
EDA9
  8
0
 10
3627.2371021003568785
 20
323.7313564454346988
 30
0.0
 11
3627.2272595811941756
 21
323.730584149140725
 31
0.0
  0
LINE
  5
EDAA
  8
0
 10
3627.2548871513718041
 20
323.7421983935715275
 30
0.0
 11
3627.294226200158846
 21
323.7554338909533271
 31
0.0
  0
LINE
  5
EDAB
  8
0
 10
3627.294226200158846
 20
323.7554338909533271
 30
0.0
 11
3627.284625989639153
 21
323.7493242555592019
 31
0.0
  0
LINE
  5
EDAC
  8
0
 10
3627.284625989639153
 20
323.7493242555592019
 30
0.0
 11
3627.2649409503101197
 21
323.742669514488
 31
0.0
  0
LINE
  5
EDAD
  8
0
 10
3627.2649409503101197
 20
323.742669514488
 30
0.0
 11
3627.2548871513718041
 21
323.7421983935715275
 31
0.0
  0
LINE
  5
EDAE
  8
0
 10
3627.2550984306139981
 20
323.7356824937210718
 30
0.0
 11
3627.2649409503101197
 21
323.740159491303416
 31
0.0
  0
LINE
  5
EDAF
  8
0
 10
3627.2649409503101197
 20
323.740159491303416
 30
0.0
 11
3627.2846259897091841
 21
323.7468680944738821
 31
0.0
  0
LINE
  5
EDB0
  8
0
 10
3627.2846259897091841
 20
323.7468680944738821
 30
0.0
 11
3627.2944685092979853
 21
323.7492095538954118
 31
0.0
  0
LINE
  5
EDB1
  8
0
 10
3627.2944685092979853
 20
323.7492095538954118
 30
0.0
 11
3627.2843033299091076
 21
323.7446375254032773
 31
0.0
  0
LINE
  5
EDB2
  8
0
 10
3627.2843033299091076
 20
323.7446375254032773
 30
0.0
 11
3627.2649409503101197
 21
323.7379360400340147
 31
0.0
  0
LINE
  5
EDB3
  8
0
 10
3627.2649409503101197
 20
323.7379360400340147
 30
0.0
 11
3627.2550984330118808
 21
323.7356824948116127
 31
0.0
  0
LINE
  5
EDB4
  8
0
 10
3627.2829373398330972
 20
323.7473867904728877
 30
0.0
 11
3627.2927797999668655
 21
323.7531691793171262
 31
0.0
  0
LINE
  5
EDB5
  8
0
 10
3627.2927797999668655
 20
323.7531691793171262
 30
0.0
 11
3627.3124646577862222
 21
323.7609098009864965
 31
0.0
  0
LINE
  5
EDB6
  8
0
 10
3627.3124646577862222
 20
323.7609098009864965
 30
0.0
 11
3627.3223073589711021
 21
323.7629717369076161
 31
0.0
  0
LINE
  5
EDB7
  8
0
 10
3627.3223073589711021
 20
323.7629717369076161
 30
0.0
 11
3627.312464839309996
 21
323.7571738587034247
 31
0.0
  0
LINE
  5
EDB8
  8
0
 10
3627.312464839309996
 20
323.7571738587034247
 30
0.0
 11
3627.2927798000009716
 21
323.749329874238299
 31
0.0
  0
LINE
  5
EDB9
  8
0
 10
3627.2927798000009716
 20
323.749329874238299
 30
0.0
 11
3627.2829373398330972
 21
323.7473867904728877
 31
0.0
  0
LINE
  5
EDBA
  8
0
 10
3627.31124324586699
 20
323.7620492579512188
 30
0.0
 11
3627.32368830320911
 21
323.767436799203324
 31
0.0
  0
LINE
  5
EDBB
  8
0
 10
3627.32368830320911
 20
323.767436799203324
 30
0.0
 11
3627.3285971281411548
 21
323.7724454580927045
 31
0.0
  0
LINE
  5
EDBC
  8
0
 10
3627.3285971281411548
 20
323.7724454580927045
 30
0.0
 11
3627.3403036890099429
 21
323.777805875603292
 31
0.0
  0
LINE
  5
EDBD
  8
0
 10
3627.3403036890099429
 20
323.777805875603292
 30
0.0
 11
3627.3501468374488468
 21
323.7796230877505081
 31
0.0
  0
LINE
  5
EDBE
  8
0
 10
3627.3501468374488468
 20
323.7796230877505081
 30
0.0
 11
3627.340303689000848
 21
323.7724465659762814
 31
0.0
  0
LINE
  5
EDBF
  8
0
 10
3627.340303689000848
 20
323.7724465659762814
 30
0.0
 11
3627.3206178557338717
 21
323.7635136859541944
 31
0.0
  0
LINE
  5
EDC0
  8
0
 10
3627.3206178557338717
 20
323.7635136859541944
 30
0.0
 11
3627.31124324586699
 21
323.7620492579512188
 31
0.0
  0
LINE
  5
EDC1
  8
0
 10
3627.3391847633552061
 20
323.7792421415467743
 30
0.0
 11
3627.3484574992939997
 21
323.7876644058740112
 31
0.0
  0
LINE
  5
EDC2
  8
0
 10
3627.3484574992939997
 20
323.7876644058740112
 30
0.0
 11
3627.3678426141282216
 21
323.7975485490039773
 31
0.0
  0
LINE
  5
EDC3
  8
0
 10
3627.3778390964871505
 20
323.7991803572850813
 30
0.0
 11
3627.3681425385821058
 21
323.7906907409052906
 31
0.0
  0
LINE
  5
EDC4
  8
0
 10
3627.3681425385821058
 20
323.7906907409052906
 30
0.0
 11
3627.3484574992098715
 21
323.7805822425033284
 31
0.0
  0
LINE
  5
EDC5
  8
0
 10
3627.3484574992098715
 20
323.7805822425033284
 30
0.0
 11
3627.3391847633552061
 21
323.7792421415467743
 31
0.0
  0
LINE
  5
EDC6
  8
0
 10
3627.3362029467061802
 20
323.7790000538923891
 30
0.0
 11
3627.3367083622720202
 21
323.7806351291836222
 31
0.0
  0
LINE
  5
EDC7
  8
0
 10
3627.3367083622720202
 20
323.7806351291836222
 30
0.0
 11
3627.3403036889758368
 21
323.7823065776090061
 31
0.0
  0
LINE
  5
EDC8
  8
0
 10
3627.3403036889758368
 20
323.7823065776090061
 30
0.0
 11
3627.3501462086737774
 21
323.7911736502578037
 31
0.0
  0
LINE
  5
EDC9
  8
0
 10
3627.3501462086737774
 20
323.7911736502578037
 30
0.0
 11
3627.3403036889940267
 21
323.7911363115496215
 31
0.0
  0
LINE
  5
EDCA
  8
0
 10
3627.3403036889940267
 20
323.7911363115496215
 30
0.0
 11
3627.3382859401090172
 21
323.7901979085032735
 31
0.0
  0
LINE
  5
EDCB
  8
0
 10
3627.3382859401090172
 20
323.7901979085032735
 30
0.0
 11
3627.3212562986709599
 21
323.8002505591655904
 31
0.0
  0
LINE
  5
EDCC
  8
0
 10
3627.3115354753990687
 20
323.7999407608951969
 30
0.0
 11
3627.3206186496508963
 21
323.790090879971217
 31
0.0
  0
LINE
  5
EDCD
  8
0
 10
3627.3206186496508963
 20
323.790090879971217
 30
0.0
 11
3627.3367083611969974
 21
323.7806351257090114
 31
0.0
  0
LINE
  5
EDCE
  8
0
 10
3627.336202946659796
 20
323.7790000539205835
 30
0.0
 11
3627.3197112475090762
 21
323.7886542049647005
 31
0.0
  0
LINE
  5
EDCF
  8
0
 10
3627.3197112475090762
 20
323.7886542049647005
 30
0.0
 11
3627.312464839309996
 21
323.7965012212177953
 31
0.0
  0
LINE
  5
EDD0
  8
0
 10
3627.313102488370987
 20
323.7961624894352894
 30
0.0
 11
3627.308385271827774
 21
323.7986683680824171
 31
0.0
  0
LINE
  5
EDD1
  8
0
 10
3627.3197112475090762
 20
323.7886542049647005
 30
0.0
 11
3627.3197112475090762
 21
323.7771696180033132
 31
0.0
  0
LINE
  5
EDD2
  8
0
 10
3627.3197112475090762
 20
323.7771696180033132
 30
0.0
 11
3627.2855333917100324
 21
323.7771696180033132
 31
0.0
  0
LINE
  5
EDD3
  8
0
 10
3627.2855333917100324
 20
323.7771696180033132
 30
0.0
 11
3627.2855333917100324
 21
323.7900396152645044
 31
0.0
  0
LINE
  5
EDD4
  8
0
 10
3627.3694007530239105
 20
323.8039007808978909
 30
0.0
 11
3627.3487309847600955
 21
323.7933785356033241
 31
0.0
  0
LINE
  5
EDD5
  8
0
 10
3627.3487309847600955
 20
323.7933785356033241
 30
0.0
 11
3627.3386149796237987
 21
323.7935806351529209
 31
0.0
  0
LINE
  5
EDD6
  8
0
 10
3627.3386149796237987
 20
323.7935806351529209
 30
0.0
 11
3627.3478694300479219
 21
323.8031720935333055
 31
0.0
  0
LINE
  5
EDD7
  8
0
 10
3627.3382859401108362
 20
323.7972617207358894
 30
0.0
 11
3627.3382859401090172
 21
323.7901979085032735
 31
0.0
  0
LINE
  5
EDD8
  8
0
 10
3627.0880941597401943
 20
323.7679361878522855
 30
0.0
 11
3627.1274354114589187
 21
323.7701137006160934
 31
0.0
  0
LINE
  5
EDD9
  8
0
 10
3627.1274354114589187
 20
323.7701137006160934
 30
0.0
 11
3627.1175928918119098
 21
323.7772615860309884
 31
0.0
  0
LINE
  5
EDDA
  8
0
 10
3627.1175928918119098
 20
323.7772615860309884
 30
0.0
 11
3627.097907852357821
 21
323.7763648052176109
 31
0.0
  0
LINE
  5
EDDB
  8
0
 10
3627.097907852357821
 20
323.7763648052176109
 30
0.0
 11
3627.0880941597401943
 21
323.7679361878522855
 31
0.0
  0
LINE
  5
EDDC
  8
0
 10
3627.1159041822788822
 20
323.782369846513177
 30
0.0
 11
3627.1257467021291632
 21
323.7748875784837992
 31
0.0
  0
LINE
  5
EDDD
  8
0
 10
3627.1257467021291632
 20
323.7748875784837992
 30
0.0
 11
3627.1454317414090838
 21
323.7766840849157006
 31
0.0
  0
LINE
  5
EDDE
  8
0
 10
3627.1454317414090838
 20
323.7766840849157006
 30
0.0
 11
3627.1552742610870155
 21
323.7859833075443134
 31
0.0
  0
LINE
  5
EDDF
  8
0
 10
3627.1552742610870155
 20
323.7859833075443134
 30
0.0
 11
3627.1454317414031721
 21
323.7934892665796269
 31
0.0
  0
LINE
  5
EDE0
  8
0
 10
3627.1454317414031721
 20
323.7934892665796269
 30
0.0
 11
3627.125746702070046
 21
323.7916721503452777
 31
0.0
  0
LINE
  5
EDE1
  8
0
 10
3627.125746702070046
 20
323.7916721503452777
 30
0.0
 11
3627.1159041822788822
 21
323.782369846513177
 31
0.0
  0
LINE
  5
EDE2
  8
0
 10
3627.088065332685801
 20
323.7957134141768165
 30
0.0
 11
3627.0979078524469514
 21
323.7869777819847741
 31
0.0
  0
LINE
  5
EDE3
  8
0
 10
3627.0979078524469514
 20
323.7869777819847741
 30
0.0
 11
3627.1175928917100464
 21
323.7878810126034068
 31
0.0
  0
LINE
  5
EDE4
  8
0
 10
3627.1175928917100464
 20
323.7878810126034068
 30
0.0
 11
3627.1274354114748348
 21
323.7975328909546988
 31
0.0
  0
LINE
  5
EDE5
  8
0
 10
3627.1274354114748348
 20
323.7975328909546988
 30
0.0
 11
3627.1176244240969027
 21
323.8062743498114173
 31
0.0
  0
LINE
  5
EDE6
  8
0
 10
3627.097876274734972
 20
323.8053550250087937
 30
0.0
 11
3627.088065332685801
 21
323.7957134141768165
 31
0.0
  0
LINE
  5
EDE7
  8
0
 10
3627.1535745928481447
 20
323.8095755086495728
 30
0.0
 11
3627.1437430319651867
 21
323.7990448169431943
 31
0.0
  0
LINE
  5
EDE8
  8
0
 10
3627.1437430319651867
 20
323.7990448169431943
 30
0.0
 11
3627.1535855517099662
 21
323.7911967404706957
 31
0.0
  0
LINE
  5
EDE9
  8
0
 10
3627.1535855517099662
 20
323.7911967404706957
 30
0.0
 11
3627.1732705910658296
 21
323.793932026400114
 31
0.0
  0
LINE
  5
EDEA
  8
0
 10
3627.1732705910658296
 20
323.793932026400114
 30
0.0
 11
3627.1833848680212213
 21
323.8048489316582277
 31
0.0
  0
LINE
  5
EDEB
  8
0
 10
3627.1437430319788291
 20
323.771597684623373
 30
0.0
 11
3627.1831131107869624
 21
323.7770053362862086
 31
0.0
  0
LINE
  5
EDEC
  8
0
 10
3627.1831131107869624
 20
323.7770053362862086
 30
0.0
 11
3627.1732705910430923
 21
323.7832688428458141
 31
0.0
  0
LINE
  5
EDED
  8
0
 10
3627.1732705910430923
 20
323.7832688428458141
 30
0.0
 11
3627.1535855516631273
 21
323.7805534558145268
 31
0.0
  0
LINE
  5
EDEE
  8
0
 10
3627.1535855516631273
 20
323.7805534558145268
 30
0.0
 11
3627.1437430319788291
 21
323.771597684623373
 31
0.0
  0
LINE
  5
EDEF
  8
0
 10
3627.1715818816078354
 20
323.7882404993346199
 30
0.0
 11
3627.1814244013089592
 21
323.7816415951663203
 31
0.0
  0
LINE
  5
EDF0
  8
0
 10
3627.1814244013089592
 20
323.7816415951663203
 30
0.0
 11
3627.2011094407098426
 21
323.7852853036196166
 31
0.0
  0
LINE
  5
EDF1
  8
0
 10
3627.2011094407098426
 20
323.7852853036196166
 30
0.0
 11
3627.2109519604109664
 21
323.795570674097803
 31
0.0
  0
LINE
  5
EDF2
  8
0
 10
3627.2109519604109664
 20
323.795570674097803
 30
0.0
 11
3627.2011094407548626
 21
323.802191084487788
 31
0.0
  0
LINE
  5
EDF3
  8
0
 10
3627.2011094407548626
 20
323.802191084487788
 30
0.0
 11
3627.181424401384902
 21
323.798504365745373
 31
0.0
  0
LINE
  5
EDF4
  8
0
 10
3627.181424401384902
 20
323.798504365745373
 30
0.0
 11
3627.1715818816078354
 21
323.7882404993346199
 31
0.0
  0
LINE
  5
EDF5
  8
0
 10
3627.1991648940761479
 20
323.7797567929118259
 30
0.0
 11
3627.2387908100099594
 21
323.7891997965033966
 31
0.0
  0
LINE
  5
EDF6
  8
0
 10
3627.2387908100099594
 20
323.7891997965033966
 30
0.0
 11
3627.2289482904398028
 21
323.7945587016861282
 31
0.0
  0
LINE
  5
EDF7
  8
0
 10
3627.2289482904398028
 20
323.7945587016861282
 30
0.0
 11
3627.2092632509179566
 21
323.7899459522910774
 31
0.0
  0
LINE
  5
EDF8
  8
0
 10
3627.2092632509179566
 20
323.7899459522910774
 30
0.0
 11
3627.1991648940761479
 21
323.7797567929118259
 31
0.0
  0
LINE
  5
EDF9
  8
0
 10
3627.2276834878080081
 20
323.7991601165585962
 30
0.0
 11
3627.2371021006561023
 21
323.7937064801297993
 31
0.0
  0
LINE
  5
EDFA
  8
0
 10
3627.2371021006561023
 20
323.7937064801297993
 30
0.0
 11
3627.2576330170559231
 21
323.799546892389003
 31
0.0
  0
LINE
  5
EDFB
  8
0
 10
3627.2646666809450835
 20
323.8045152171803238
 30
0.0
 11
3627.2550984306089958
 21
323.7938243600033275
 31
0.0
  0
LINE
  5
EDFC
  8
0
 10
3627.2550984306089958
 20
323.7938243600033275
 30
0.0
 11
3627.2958138028761823
 21
323.8067595124346099
 31
0.0
  0
ARC
  5
EDFD
  8
0
 10
3627.078626574359987
 20
324.3181457175846845
 30
0.0
 40
0.6102496696698871
 50
270.1206426781643017
 51
272.8486652164730799
  0
ARC
  5
EDFE
  8
0
 10
3627.0782788279088891
 20
324.3158569071430861
 30
0.0
 40
0.6079811447106377
 50
272.8921158312135162
 51
278.6222399937856267
  0
ARC
  5
EDFF
  8
0
 10
3627.0842669204698723
 20
324.2763661713490251
 30
0.0
 40
0.5680389932153762
 50
278.6222399937856267
 51
286.270545947736025
  0
ARC
  5
EE00
  8
0
 10
3627.0750175676930667
 20
324.3080569577704182
 30
0.0
 40
0.6010519674951864
 50
286.270545947736025
 51
292.8123691864170155
  0
ARC
  5
EE01
  8
0
 10
3627.0437135544939338
 20
324.3824812826543962
 30
0.0
 40
0.6817918051018828
 50
292.8123691864170155
 51
296.9725488313442838
  0
ARC
  5
EE02
  8
0
 10
3627.301770736574781
 20
323.8754151066241889
 30
0.0
 40
0.1128369597081573
 50
296.9725488313442838
 51
322.8531146924813129
  0
LINE
  5
EE03
  8
0
 10
3627.097907852357821
 20
323.7763648052176109
 30
0.0
 11
3627.097907852357821
 21
323.7684793693729262
 31
0.0
  0
LINE
  5
EE04
  8
0
 10
3627.1175928918119098
 20
323.7772615860309884
 30
0.0
 11
3627.1175928918119098
 21
323.7695689235379746
 31
0.0
  0
LINE
  5
EE05
  8
0
 10
3627.1257467021291632
 20
323.7748875784837992
 30
0.0
 11
3627.125746702070046
 21
323.7916721503452777
 31
0.0
  0
LINE
  5
EE06
  8
0
 10
3627.1454317414090838
 20
323.7766840849157006
 30
0.0
 11
3627.1454317414031721
 21
323.7934892665796269
 31
0.0
  0
LINE
  5
EE07
  8
0
 10
3627.0979078524469514
 20
323.7869777819847741
 30
0.0
 11
3627.0979078524228498
 21
323.8053564950275813
 31
0.0
  0
LINE
  5
EE08
  8
0
 10
3627.1175928917100464
 20
323.7878810126034068
 30
0.0
 11
3627.1175928918491991
 21
323.8062626956368035
 31
0.0
  0
LINE
  5
EE09
  8
0
 10
3627.1535855517099662
 20
323.7911967404706957
 30
0.0
 11
3627.1535855517099662
 21
323.8095770540218723
 31
0.0
  0
LINE
  5
EE0A
  8
0
 10
3627.1732705910658296
 20
323.793932026400114
 30
0.0
 11
3627.1732705910658296
 21
323.8123424519482114
 31
0.0
  0
LINE
  5
EE0B
  8
0
 10
3627.1535855516631273
 20
323.7805534558145268
 30
0.0
 11
3627.1535855516631273
 21
323.7729495975365239
 31
0.0
  0
LINE
  5
EE0C
  8
0
 10
3627.1732705910430923
 20
323.7832688428458141
 30
0.0
 11
3627.1732705910430923
 21
323.7756534233648154
 31
0.0
  0
LINE
  5
EE0D
  8
0
 10
3627.1814244013089592
 20
323.7816415951663203
 30
0.0
 11
3627.181424401384902
 21
323.798504365745373
 31
0.0
  0
LINE
  5
EE0E
  8
0
 10
3627.2011094407098426
 20
323.7852853036196166
 30
0.0
 11
3627.2011094407548626
 21
323.802191084487788
 31
0.0
  0
LINE
  5
EE0F
  8
0
 10
3627.2092632509179566
 20
323.7899459522910774
 30
0.0
 11
3627.2092632509179566
 21
323.7821632690192928
 31
0.0
  0
LINE
  5
EE10
  8
0
 10
3627.2289482904398028
 20
323.7945587016861282
 30
0.0
 11
3627.2289482904398028
 21
323.7868542873727051
 31
0.0
  0
LINE
  5
EE11
  8
0
 10
3627.2371021006561023
 20
323.7937064801297993
 30
0.0
 11
3627.2371021006561023
 21
323.8099591428700137
 31
0.0
  0
LINE
  5
EE12
  8
0
 10
3627.0979085111880522
 20
323.708823217866609
 30
0.0
 11
3627.0974369759151159
 21
323.7114009552603875
 31
0.0
  0
LINE
  5
EE13
  8
0
 10
3627.1177865892091177
 20
323.7097680046034043
 30
0.0
 11
3627.1175928916932207
 21
323.7123903214023244
 31
0.0
  0
LINE
  5
EE14
  8
0
 10
3627.0979078523491808
 20
323.7142126539663991
 30
0.0
 11
3627.0979078523491808
 21
323.717158096832577
 31
0.0
  0
LINE
  5
EE15
  8
0
 10
3627.1175928917100464
 20
323.7151094347530034
 30
0.0
 11
3627.1175928917100464
 21
323.7180511220948915
 31
0.0
  0
LINE
  5
EE16
  8
0
 10
3627.1257467020091099
 20
323.7123146439669199
 30
0.0
 11
3627.1257467020091099
 21
323.7166022427313123
 31
0.0
  0
LINE
  5
EE17
  8
0
 10
3627.1454317414090838
 20
323.714131760136695
 30
0.0
 11
3627.1454317416792037
 21
323.7183987491320067
 31
0.0
  0
LINE
  5
EE18
  8
0
 10
3627.1535855517099662
 20
323.7131039895032814
 30
0.0
 11
3627.1535855517349773
 21
323.7157060493835843
 31
0.0
  0
LINE
  5
EE19
  8
0
 10
3627.1732705906688352
 20
323.7158798905225012
 30
0.0
 11
3627.1732705910098957
 21
323.7184413352032948
 31
0.0
  0
LINE
  5
EE1A
  8
0
 10
3627.1535855517099662
 20
323.718401304603276
 30
0.0
 11
3627.1535855517099662
 21
323.7213335316268967
 31
0.0
  0
LINE
  5
EE1B
  8
0
 10
3627.1732705910098957
 20
323.7211166916034131
 30
0.0
 11
3627.1732705910098957
 21
323.7240373574703085
 31
0.0
  0
LINE
  5
EE1C
  8
0
 10
3627.181424401086133
 20
323.7191468592649812
 30
0.0
 11
3627.1814244013808093
 21
323.7233562593875149
 31
0.0
  0
LINE
  5
EE1D
  8
0
 10
3627.2011094407098426
 20
323.7228335780033035
 30
0.0
 11
3627.2012155007600995
 21
323.7269972660757844
 31
0.0
  0
LINE
  5
EE1E
  8
0
 10
3627.2092632510098156
 20
323.7227084828032844
 30
0.0
 11
3627.2087131406660774
 21
323.7250383493263257
 31
0.0
  0
LINE
  5
EE1F
  8
0
 10
3627.2289482903311182
 20
323.7274281668006211
 30
0.0
 11
3627.228414238194091
 21
323.7296900224661158
 31
0.0
  0
LINE
  5
EE20
  8
0
 10
3627.2081491228618688
 20
323.7278277028635785
 30
0.0
 11
3627.2081491228618688
 21
323.7304351599527195
 31
0.0
  0
LINE
  5
EE21
  8
0
 10
3627.2289482900159783
 20
323.7324065503091219
 30
0.0
 11
3627.2289482900159783
 21
323.7352875140401807
 31
0.0
  0
LINE
  5
EE22
  8
0
 10
3627.2371021003568785
 20
323.7313564454346988
 30
0.0
 11
3627.2371021006101728
 21
323.7354211442391829
 31
0.0
  0
LINE
  5
EE23
  8
0
 10
3627.2567871400087824
 20
323.7370256809032867
 30
0.0
 11
3627.2567871399842261
 21
323.7410209307004152
 31
0.0
  0
LINE
  5
EE24
  8
0
 10
3627.2649409503101197
 20
323.742669514488
 30
0.0
 11
3627.2649409503101197
 21
323.745580962129111
 31
0.0
  0
LINE
  5
EE25
  8
0
 10
3627.284625989639153
 20
323.7493242555592019
 30
0.0
 11
3627.284625989639153
 21
323.7522039307705768
 31
0.0
  0
LINE
  5
EE26
  8
0
 10
3627.2649409503101197
 20
323.7379360400340147
 30
0.0
 11
3627.2649409503101197
 21
323.740159491303416
 31
0.0
  0
LINE
  5
EE27
  8
0
 10
3627.2843033299091076
 20
323.7446375254032773
 30
0.0
 11
3627.2836558348958533
 21
323.74653746858462
 31
0.0
  0
LINE
  5
EE28
  8
0
 10
3627.2927798000009716
 20
323.749329874238299
 30
0.0
 11
3627.292977522646197
 21
323.753246929253919
 31
0.0
  0
LINE
  5
EE29
  8
0
 10
3627.312464839309996
 20
323.7571738587034247
 30
0.0
 11
3627.3124646577862222
 21
323.7609098009864965
 31
0.0
  0
LINE
  5
EE2A
  8
0
 10
3627.3206178557338717
 20
323.7635136859541944
 30
0.0
 11
3627.3206178557338717
 21
323.7661075837579006
 31
0.0
  0
LINE
  5
EE2B
  8
0
 10
3627.340303689000848
 20
323.7724465659762814
 30
0.0
 11
3627.3403036890099429
 21
323.777805875603292
 31
0.0
  0
LINE
  5
EE2C
  8
0
 10
3627.3285971281411548
 20
323.7724454580927045
 30
0.0
 11
3627.3285971281411548
 21
323.7671344563892148
 31
0.0
  0
LINE
  5
EE2D
  8
0
 10
3627.0799115224099296
 20
323.7899362693033254
 30
0.0
 11
3627.0897540421101439
 21
323.7899362693033254
 31
0.0
  0
LINE
  5
EE2E
  8
0
 10
3627.0897540421101439
 20
323.7899362693033254
 30
0.0
 11
3627.099596561773069
 21
323.7816244350066768
 31
0.0
  0
LINE
  5
EE2F
  8
0
 10
3627.099596561773069
 20
323.7816244350066768
 30
0.0
 11
3627.0897540421101439
 21
323.7732502819808929
 31
0.0
  0
LINE
  5
EE30
  8
0
 10
3627.0897540421101439
 20
323.7732502819808929
 30
0.0
 11
3627.0799115224099296
 21
323.7732502819808929
 31
0.0
  0
LINE
  5
EE31
  8
0
 10
3627.0897540421101439
 20
323.7899362693033254
 30
0.0
 11
3627.0897540421101439
 21
323.7732502819808929
 31
0.0
  0
LINE
  5
EE32
  8
0
 10
3627.089754042146069
 20
323.7106586825880754
 30
0.0
 11
3627.0995965617707952
 21
323.7128030137685073
 31
0.0
  0
LINE
  5
EE33
  8
0
 10
3627.0995965617707952
 20
323.7128030137685073
 30
0.0
 11
3627.0897540423779901
 21
323.7149649462073171
 31
0.0
  0
LINE
  5
EE34
  8
0
 10
3627.0897540423779901
 20
323.7149649462073171
 30
0.0
 11
3627.089754042146069
 21
323.7106586825880754
 31
0.0
  0
LINE
  5
EE35
  8
0
 10
3627.098739991417915
 20
323.7082276003046104
 30
0.0
 11
3627.0897540421287886
 21
323.7089693399310022
 31
0.0
  0
LINE
  5
EE36
  8
0
 10
3627.0897540421287886
 20
323.7089693399310022
 30
0.0
 11
3627.0897540421287886
 21
323.707997507070786
 31
0.0
  0
LINE
  5
EE37
  8
0
 10
3627.0897540421287886
 20
323.7089693399310022
 30
0.0
 11
3627.0799115224099296
 21
323.7089693399310022
 31
0.0
  0
LINE
  5
EE38
  8
0
 10
3627.089754042146069
 20
323.7106586825880754
 30
0.0
 11
3627.0799115224099296
 21
323.7106586825880754
 31
0.0
  0
LINE
  5
EE39
  8
0
 10
3627.0897540423779901
 20
323.7149649462073171
 30
0.0
 11
3627.0799115224099296
 21
323.7149649462073171
 31
0.0
  0
ARC
  5
EE3A
  8
0
 10
3627.3617694280710566
 20
323.7932000595989734
 30
0.0
 40
0.0330866202386089
 50
327.9953154052475952
 51
25.9276138540115895
  0
ARC
  5
EE3B
  8
0
 10
3627.3291836675971354
 20
323.8135656073745281
 30
0.0
 40
0.0715130085921475
 50
300.425326815875394
 51
327.9953154052475952
  0
ARC
  5
EE3C
  8
0
 10
3627.2057887680998647
 20
324.0236742738367184
 30
0.0
 40
0.3151766147056064
 50
291.9786707369840997
 51
300.425326815875394
  0
ARC
  5
EE3D
  8
0
 10
3627.2101476050279416
 20
324.012874200130625
 30
0.0
 40
0.3035301108775647
 50
280.8138701160495998
 51
291.9786707369840997
  0
ARC
  5
EE3E
  8
0
 10
3627.1118205507477796
 20
324.4063919372341047
 30
0.0
 40
0.7088728770267023
 50
276.8598800435261182
 51
282.6529508716581063
  0
ARC
  5
EE3F
  8
0
 10
3627.0843680668549496
 20
324.623209121506477
 30
0.0
 40
0.927417880851191
 50
272.380995605592318
 51
276.9438361209362256
  0
ARC
  5
EE40
  8
0
 10
3627.1457623011779106
 20
321.6034510574871774
 30
0.0
 40
2.0932657417996001
 50
90.6258709273646872
 51
91.8027306380987369
  0
ARC
  5
EE41
  8
0
 10
3627.3380291431349178
 20
323.840605813071079
 30
0.0
 40
0.0995582243418284
 50
308.7782186815533123
 51
339.7619357635830966
  0
ARC
  5
EE42
  8
0
 10
3627.2440951394551121
 20
323.9575271434832189
 30
0.0
 40
0.249538871602524
 50
297.0711971653278738
 51
308.7782186815533123
  0
ARC
  5
EE43
  8
0
 10
3627.2103437396440313
 20
324.0642007031086109
 30
0.0
 40
0.3603604646415138
 50
285.3934283059534209
 51
294.1295651066591859
  0
ARC
  5
EE44
  8
0
 10
3627.1445935169108452
 20
324.2937902669939945
 30
0.0
 40
0.5991718034113143
 50
280.49236761821561
 51
285.6275155034659861
  0
ARC
  5
EE45
  8
0
 10
3627.101143476469133
 20
324.5274940075648828
 30
0.0
 40
0.8368802905919185
 50
275.6078717434355099
 51
280.5036645608315098
  0
ARC
  5
EE46
  8
0
 10
3627.0821646813287771
 20
324.7112300483353238
 30
0.0
 40
1.021591994927866
 50
271.6546961920345211
 51
275.66021817166029
  0
ARC
  5
EE47
  8
0
 10
3627.0799690469011693
 20
324.7679831469015994
 30
0.0
 40
1.0783849718971561
 50
269.9969436604587827
 51
271.6842329971179879
  0
ARC
  5
EE48
  8
0
 10
3627.3143844711589736
 20
324.1525331078435102
 30
0.0
 40
0.395475888165737
 50
288.7571853189355124
 51
297.8942785271353273
  0
ARC
  5
EE49
  8
0
 10
3627.2006659500789283
 20
324.487399094657178
 30
0.0
 40
0.7491242038144158
 50
285.7957082188978006
 51
288.7571853189355124
  0
LINE
  5
EE4B
  8
0
 10
3626.7816916836550263
 20
323.7994362434470759
 30
0.0
 11
3626.7913798809918262
 21
323.7978547591670804
 31
0.0
  0
LINE
  5
EE4C
  8
0
 10
3626.8390495997150538
 20
323.800535589137894
 30
0.0
 11
3626.8463498714991147
 21
323.8007335841223266
 31
0.0
  0
LINE
  5
EE4D
  8
0
 10
3626.8020232158578438
 20
323.8087452446196153
 30
0.0
 11
3626.8107770151132172
 21
323.8043915399757111
 31
0.0
  0
LINE
  5
EE4E
  8
0
 10
3626.7874579387321319
 20
323.8082761960636731
 30
0.0
 11
3626.7929391075372223
 21
323.8026195593453735
 31
0.0
  0
LINE
  5
EE4F
  8
0
 10
3626.8359864140738864
 20
323.8051068914916186
 30
0.0
 11
3626.822174753850959
 21
323.796867299875089
 31
0.0
  0
LINE
  5
EE50
  8
0
 10
3626.822174753850959
 20
323.796867299875089
 30
0.0
 11
3626.8201570049709517
 21
323.7978057029592946
 31
0.0
  0
LINE
  5
EE51
  8
0
 10
3626.8201570049709517
 20
323.7978057029592946
 30
0.0
 11
3626.8103144852229889
 21
323.8083791269169183
 31
0.0
  0
LINE
  5
EE52
  8
0
 10
3626.8103144852229889
 20
323.8083791269169183
 30
0.0
 11
3626.8154216448479019
 21
323.8091549733612169
 31
0.0
  0
LINE
  5
EE53
  8
0
 10
3626.8964271456711685
 20
323.7826577919154829
 30
0.0
 11
3626.8964271456711685
 21
323.7771697393765749
 31
0.0
  0
LINE
  5
EE54
  8
0
 10
3626.8964271456711685
 20
323.7771697393765749
 30
0.0
 11
3626.9150352213018778
 21
323.7771697393765749
 31
0.0
  0
LINE
  5
EE55
  8
0
 10
3626.8777492966069076
 20
323.8107958967552804
 30
0.0
 11
3626.8946075128551456
 21
323.8051284628256781
 31
0.0
  0
LINE
  5
EE56
  8
0
 10
3626.8742370742788808
 20
323.8107147457150745
 30
0.0
 11
3626.8647510829009661
 21
323.8065238317726084
 31
0.0
  0
LINE
  5
EE57
  8
0
 10
3626.8934399799418316
 20
323.8111409819520077
 30
0.0
 11
3626.9034644100329388
 21
323.7991843699526839
 31
0.0
  0
LINE
  5
EE58
  8
0
 10
3626.9199067258100513
 20
323.8116556535168797
 30
0.0
 11
3626.9233585932711321
 21
323.8107140733883966
 31
0.0
  0
LINE
  5
EE59
  8
0
 10
3626.9233585932711321
 20
323.8107140733883966
 30
0.0
 11
3626.932987511281226
 21
323.7996511054519146
 31
0.0
  0
LINE
  5
EE5A
  8
0
 10
3626.9259974122628591
 20
323.8117621009542972
 30
0.0
 11
3626.9315124034469591
 21
323.8053069314423738
 31
0.0
  0
LINE
  5
EE5B
  8
0
 10
3626.9315124034469591
 20
323.8053069314423738
 30
0.0
 11
3626.9511974429460679
 21
323.8006590497250841
 31
0.0
  0
LINE
  5
EE5C
  8
0
 10
3626.9511974429460679
 20
323.8006590497250841
 30
0.0
 11
3626.961039962644918
 21
323.8076236400370931
 31
0.0
  0
LINE
  5
EE5D
  8
0
 10
3626.961039962644918
 20
323.8076236400370931
 30
0.0
 11
3626.9570679028170161
 21
323.8122356146047878
 31
0.0
  0
LINE
  5
EE5E
  8
0
 10
3626.9511974429460679
 20
323.8006590497250841
 30
0.0
 11
3626.9511974429001384
 21
323.8121548603850783
 31
0.0
  0
LINE
  5
EE5F
  8
0
 10
3626.9315124035711051
 20
323.8053069312970251
 30
0.0
 11
3626.9315039824250562
 21
323.8118544781103765
 31
0.0
  0
LINE
  5
EE60
  8
0
 10
3626.9769815622280476
 20
323.8042624253484973
 30
0.0
 11
3626.9871901028709544
 21
323.8124428738620963
 31
0.0
  0
LINE
  5
EE61
  8
0
 10
3626.9871901028709544
 20
323.8124428738620963
 30
0.0
 11
3627.0060550983998837
 21
323.809782611760113
 31
0.0
  0
LINE
  5
EE62
  8
0
 10
3627.0081484555021234
 20
323.8127778217764785
 30
0.0
 11
3627.0150289525231528
 21
323.8051706343131855
 31
0.0
  0
LINE
  5
EE63
  8
0
 10
3627.0150289525231528
 20
323.8051706343131855
 30
0.0
 11
3627.0347139918330868
 21
323.803336698503017
 31
0.0
  0
LINE
  5
EE64
  8
0
 10
3627.0347139918330868
 20
323.803336698503017
 30
0.0
 11
3627.0445565115719546
 21
323.812459684576595
 31
0.0
  0
LINE
  5
EE65
  8
0
 10
3627.0445565115719546
 20
323.812459684576595
 30
0.0
 11
3627.0440704517109225
 21
323.8129867576005836
 31
0.0
  0
LINE
  5
EE66
  8
0
 10
3627.0347139908781173
 20
323.803336698591977
 30
0.0
 11
3627.0347139908781173
 21
323.8129460445996983
 31
0.0
  0
LINE
  5
EE67
  8
0
 10
3627.0150289525231528
 20
323.8051706343131855
 30
0.0
 11
3627.0150289525231528
 21
323.812828861253081
 31
0.0
  0
LINE
  5
EE68
  8
0
 10
3627.0422619442178984
 20
323.8063307702016118
 30
0.0
 11
3627.0618833552680371
 21
323.8054173453207909
 31
0.0
  0
LINE
  5
EE69
  8
0
 10
3627.0595527930490789
 20
323.8130329187764005
 30
0.0
 11
3627.0707066464869968
 21
323.8016651837094741
 31
0.0
  0
LINE
  5
EE6A
  8
0
 10
3627.0707066464869968
 20
323.8016651837094741
 30
0.0
 11
3627.0903916911711349
 21
323.8016651837094741
 31
0.0
  0
LINE
  5
EE6B
  8
0
 10
3627.0903916911711349
 20
323.8016651837094741
 30
0.0
 11
3627.1015455553610991
 21
323.8130329236271905
 31
0.0
  0
LINE
  5
EE6C
  8
0
 10
3627.0707066464869968
 20
323.8016651837094741
 30
0.0
 11
3627.0707066464869968
 21
323.8130497906026903
 31
0.0
  0
LINE
  5
EE6D
  8
0
 10
3627.090374029456143
 20
323.8016651837094741
 30
0.0
 11
3627.090374029456143
 21
323.8130498084890974
 31
0.0
  0
LINE
  5
EE6E
  8
0
 10
3627.097876274734972
 20
323.8053550250087937
 30
0.0
 11
3627.1176244240969027
 21
323.8062743498114173
 31
0.0
  0
LINE
  5
EE6F
  8
0
 10
3627.1535745928481447
 20
323.8095755086495728
 30
0.0
 11
3627.1739082401709311
 21
323.8124428737199878
 31
0.0
  0
LINE
  5
EE70
  8
0
 10
3627.1739082401709311
 20
323.8124428737199878
 30
0.0
 11
3627.1833848680212213
 21
323.8048489316582277
 31
0.0
  0
LINE
  5
EE71
  8
0
 10
3627.1170270282250385
 20
323.8129867696753195
 30
0.0
 11
3627.1165418314171802
 21
323.8124596845526071
 31
0.0
  0
LINE
  5
EE72
  8
0
 10
3627.1165418314171802
 20
323.8124596845526071
 30
0.0
 11
3627.1263843511169398
 21
323.8033366985368957
 31
0.0
  0
LINE
  5
EE73
  8
0
 10
3627.1263843511169398
 20
323.8033366985368957
 30
0.0
 11
3627.1460693904869004
 21
323.8051706343363776
 31
0.0
  0
LINE
  5
EE74
  8
0
 10
3627.1460693904869004
 20
323.8051706343363776
 30
0.0
 11
3627.1529499116891202
 21
323.812777839407488
 31
0.0
  0
LINE
  5
EE75
  8
0
 10
3627.1263843511169398
 20
323.8033366985368957
 30
0.0
 11
3627.1263843511169398
 21
323.8129460557278207
 31
0.0
  0
LINE
  5
EE76
  8
0
 10
3627.1460693904709842
 20
323.8051706343190972
 30
0.0
 11
3627.1460693904709842
 21
323.8128288773382906
 31
0.0
  0
LINE
  5
EE77
  8
0
 10
3627.1792297944880374
 20
323.8125348396958998
 30
0.0
 11
3627.1820620503708597
 21
323.8102327503765991
 31
0.0
  0
LINE
  5
EE78
  8
0
 10
3627.1820620503708597
 20
323.8102327503765991
 30
0.0
 11
3627.1937883186910767
 21
323.8123674306602879
 31
0.0
  0
LINE
  5
EE79
  8
0
 10
3627.1820620503708597
 20
323.8102327503765991
 30
0.0
 11
3627.1820620503708597
 21
323.8125041033259208
 31
0.0
  0
LINE
  5
EE7A
  8
0
 10
3627.2040304495922101
 20
323.8122356451754058
 30
0.0
 11
3627.2000583803528571
 21
323.8076236400962102
 31
0.0
  0
LINE
  5
EE7B
  8
0
 10
3627.2000583803528571
 20
323.8076236400962102
 30
0.0
 11
3627.209900900158118
 21
323.8006590496519834
 31
0.0
  0
LINE
  5
EE7C
  8
0
 10
3627.209900900158118
 20
323.8006590496519834
 30
0.0
 11
3627.2295859394707804
 21
323.8053069313766059
 31
0.0
  0
LINE
  5
EE7D
  8
0
 10
3627.2295859394707804
 20
323.8053069313766059
 30
0.0
 11
3627.2351009816998157
 21
323.8117621391814964
 31
0.0
  0
LINE
  5
EE7E
  8
0
 10
3627.2295859394707804
 20
323.8053069313766059
 30
0.0
 11
3627.2295859394707804
 21
323.811854654147794
 31
0.0
  0
LINE
  5
EE7F
  8
0
 10
3627.209900900158118
 20
323.8006590496519834
 30
0.0
 11
3627.209900900158118
 21
323.8121548925612956
 31
0.0
  0
LINE
  5
EE80
  8
0
 10
3627.2276834878080081
 20
323.7991601165585962
 30
0.0
 11
3627.2377397497130005
 21
323.8107140733998222
 31
0.0
  0
LINE
  5
EE81
  8
0
 10
3627.2377397497130005
 20
323.8107140733998222
 30
0.0
 11
3627.241191763264851
 21
323.8116556916926925
 31
0.0
  0
LINE
  5
EE82
  8
0
 10
3627.266368360542856
 20
323.8111680792749212
 30
0.0
 11
3627.267267308765895
 21
323.8106745529819932
 31
0.0
  0
LINE
  5
EE83
  8
0
 10
3627.267267308765895
 20
323.8106745529819932
 30
0.0
 11
3627.2576330170559231
 21
323.799546892389003
 31
0.0
  0
LINE
  5
EE84
  8
0
 10
3627.2576330170559231
 20
323.799546892389003
 30
0.0
 11
3627.2574349688911752
 21
323.811349874051416
 31
0.0
  0
LINE
  5
EE85
  8
0
 10
3627.2646666809450835
 20
323.8045152171803238
 30
0.0
 11
3627.2833492448339712
 21
323.8107959445728739
 31
0.0
  0
LINE
  5
EE86
  8
0
 10
3627.2868611692288141
 20
323.8107148012750258
 30
0.0
 11
3627.2958138028761823
 21
323.8067595124346099
 31
0.0
  0
LINE
  5
EE87
  8
0
 10
3627.244787823517072
 20
323.7771697393765749
 30
0.0
 11
3627.2646711973720812
 21
323.7771697393765749
 31
0.0
  0
LINE
  5
EE88
  8
0
 10
3627.2646711973720812
 20
323.7771697393765749
 30
0.0
 11
3627.2646711973720812
 21
323.7830576181787023
 31
0.0
  0
LINE
  5
EE89
  8
0
 10
3627.3212562986709599
 20
323.8002505591655904
 30
0.0
 11
3627.3135339592540731
 21
323.8007585809265834
 31
0.0
  0
LINE
  5
EE8A
  8
0
 10
3627.3245688759830045
 20
323.8054244551070724
 30
0.0
 11
3627.3389235891690987
 21
323.7968672999422779
 31
0.0
  0
LINE
  5
EE8B
  8
0
 10
3627.3389235891690987
 20
323.7968672999422779
 30
0.0
 11
3627.3409413380709339
 21
323.797805702976575
 31
0.0
  0
LINE
  5
EE8C
  8
0
 10
3627.3409413380709339
 20
323.797805702976575
 30
0.0
 11
3627.3507838577620532
 21
323.8083791269414178
 31
0.0
  0
LINE
  5
EE8D
  8
0
 10
3627.3507838577620532
 20
323.8083791269414178
 30
0.0
 11
3627.3458475647857995
 21
323.8091249801772733
 31
0.0
  0
LINE
  5
EE8E
  8
0
 10
3627.3478694300479219
 20
323.8031720935333055
 30
0.0
 11
3627.3590753509829483
 21
323.8087453092635997
 31
0.0
  0
LINE
  5
EE8F
  8
0
 10
3627.3694007530239105
 20
323.8039007808978909
 30
0.0
 11
3627.3736407733049418
 21
323.8082762593946882
 31
0.0
  0
LINE
  5
EE90
  8
0
 10
3627.3678426141282216
 20
323.7975485490039773
 30
0.0
 11
3627.3778390964871505
 21
323.7991803572850813
 31
0.0
  0
ENDSEC
  0
EOF
